  0
SECTION
  2
HEADER
  9
$ACADVER
  1
AC1009
  9
$INSBASE
 10
0.0
 20
0.0
 30
0.0
  9
$EXTMIN
 10
-854.266521
 20
-379.106554
 30
-0.041502
  9
$EXTMAX
 10
854.273475
 20
379.208136
 30
580.003358
  9
$LIMMIN
 10
-854.266521
 20
-379.106554
  9
$LIMMAX
 10
854.273475
 20
379.208136
  9
$ORTHOMODE
 70
     1
  9
$REGENMODE
 70
     1
  9
$FILLMODE
 70
     1
  9
$QTEXTMODE
 70
     0
  9
$MIRRTEXT
 70
     0
  9
$DRAGMODE
 70
     2
  9
$LTSCALE
 40
50.0
  9
$OSMODE
 70
     0
  9
$ATTMODE
 70
     1
  9
$TEXTSIZE
 40
200.0
  9
$TRACEWID
 40
1.0
  9
$TEXTSTYLE
  7
STANDARD
  9
$CLAYER
  8
TEAM-MAS
  9
$CELTYPE
  6
BYLAYER
  9
$CECOLOR
 62
   256
  9
$DIMSCALE
 40
0.0
  9
$DIMASZ
 40
20.0
  9
$DIMEXO
 40
10.0
  9
$DIMDLI
 40
1.0
  9
$DIMRND
 40
0.0
  9
$DIMDLE
 40
0.0
  9
$DIMEXE
 40
1.0
  9
$DIMTP
 40
0.0
  9
$DIMTM
 40
0.0
  9
$DIMTXT
 40
35.0
  9
$DIMCEN
 40
1.0
  9
$DIMTSZ
 40
0.0
  9
$DIMTOL
 70
     0
  9
$DIMLIM
 70
     0
  9
$DIMTIH
 70
     0
  9
$DIMTOH
 70
     0
  9
$DIMSE1
 70
     0
  9
$DIMSE2
 70
     0
  9
$DIMTAD
 70
     0
  9
$DIMZIN
 70
     0
  9
$DIMBLK
  1

  9
$DIMASO
 70
     1
  9
$DIMSHO
 70
     0
  9
$DIMPOST
  1

  9
$DIMAPOST
  1

  9
$DIMALT
 70
     0
  9
$DIMALTD
 70
     2
  9
$DIMALTF
 40
25.4
  9
$DIMLFAC
 40
1.0
  9
$DIMTOFL
 70
     0
  9
$DIMTVP
 40
0.0
  9
$DIMTIX
 70
     0
  9
$DIMSOXD
 70
     0
  9
$DIMSAH
 70
     0
  9
$DIMBLK1
  1

  9
$DIMBLK2
  1

  9
$DIMSTYLE
  2
TEAM
  9
$DIMCLRD
 70
     9
  9
$DIMCLRE
 70
     9
  9
$DIMCLRT
 70
    11
  9
$DIMTFAC
 40
1.0
  9
$DIMGAP
 40
7.0
  9
$LUNITS
 70
     2
  9
$LUPREC
 70
     1
  9
$SKETCHINC
 40
1.0
  9
$FILLETRAD
 40
5.0
  9
$AUNITS
 70
     0
  9
$AUPREC
 70
     0
  9
$MENU
  1
ROPLANS
  9
$ELEVATION
 40
0.0
  9
$PELEVATION
 40
0.0
  9
$THICKNESS
 40
0.0
  9
$LIMCHECK
 70
     0
  9
$BLIPMODE
 70
     1
  9
$CHAMFERA
 40
0.0
  9
$CHAMFERB
 40
0.0
  9
$SKPOLY
 70
     0
  9
$TDCREATE
 40
2450392.957851
  9
$TDUPDATE
 40
2456052.474209
  9
$TDINDWG
 40
2.075828
  9
$TDUSRTIMER
 40
2.075828
  9
$USRTIMER
 70
     1
  9
$ANGBASE
 50
0.0
  9
$ANGDIR
 70
     0
  9
$PDMODE
 70
     0
  9
$PDSIZE
 40
0.0
  9
$PLINEWID
 40
0.0
  9
$COORDS
 70
     2
  9
$SPLFRAME
 70
     0
  9
$SPLINETYPE
 70
     6
  9
$SPLINESEGS
 70
     8
  9
$ATTDIA
 70
     0
  9
$ATTREQ
 70
     0
  9
$HANDLING
 70
     1
  9
$HANDSEED
  5
26D
  9
$SURFTAB1
 70
    36
  9
$SURFTAB2
 70
    36
  9
$SURFTYPE
 70
     6
  9
$SURFU
 70
     6
  9
$SURFV
 70
     6
  9
$UCSNAME
  2

  9
$UCSORG
 10
0.0
 20
0.0
 30
0.0
  9
$UCSXDIR
 10
1.0
 20
0.0
 30
0.0
  9
$UCSYDIR
 10
0.0
 20
1.0
 30
0.0
  9
$PUCSNAME
  2

  9
$PUCSORG
 10
0.0
 20
0.0
 30
0.0
  9
$PUCSXDIR
 10
1.0
 20
0.0
 30
0.0
  9
$PUCSYDIR
 10
0.0
 20
1.0
 30
0.0
  9
$USERI1
 70
     0
  9
$USERI2
 70
     0
  9
$USERI3
 70
     0
  9
$USERI4
 70
     0
  9
$USERI5
 70
     0
  9
$USERR1
 40
0.0
  9
$USERR2
 40
0.0
  9
$USERR3
 40
0.0
  9
$USERR4
 40
0.0
  9
$USERR5
 40
0.0
  9
$WORLDVIEW
 70
     1
  9
$SHADEDGE
 70
     0
  9
$SHADEDIF
 70
    70
  9
$TILEMODE
 70
     1
  9
$MAXACTVP
 70
    16
  9
$PLIMCHECK
 70
     0
  9
$PEXTMIN
 10
-0.805942
 20
0.005011
 30
0.0
  9
$PEXTMAX
 10
20.250094
 20
11.356329
 30
0.0
  9
$PLIMMIN
 10
0.0
 20
0.0
  9
$PLIMMAX
 10
12.0
 20
9.0
  9
$UNITMODE
 70
     0
  9
$VISRETAIN
 70
     0
  9
$PLINEGEN
 70
     0
  9
$PSLTSCALE
 70
     0
  0
ENDSEC
  0
SECTION
  2
TABLES
  0
TABLE
  2
VPORT
 70
     2
  0
VPORT
  2
*ACTIVE
 70
     0
 10
0.0
 20
0.0
 11
1.0
 21
1.0
 12
0.003477
 22
0.050791
 13
0.0
 23
0.0
 14
1.0
 24
1.0
 15
50.0
 25
50.0
 16
0.0
 26
0.0
 36
1.0
 17
0.0
 27
0.0
 37
0.0
 40
896.641009
 41
1.911765
 42
50.0
 43
0.0
 44
0.0
 50
0.0
 51
0.0
 71
     0
 72
   100
 73
     1
 74
     1
 75
     0
 76
     0
 77
     0
 78
     0
  0
ENDTAB
  0
TABLE
  2
LTYPE
 70
     2
  0
LTYPE
  2
CONTINUOUS
 70
     0
  3
Solid Line
 72
    65
 73
     0
 40
0.0
  0
LTYPE
  2
31
 70
     0
  3

 72
    65
 73
     4
 40
2.1
 49
1.5
 49
-0.3
 49
0.0
 49
-0.3
  0
ENDTAB
  0
TABLE
  2
LAYER
 70
     9
  0
LAYER
  2
0
 70
     0
 62
     7
  6
CONTINUOUS
  0
LAYER
  2
TEAM-BODY
 70
     0
 62
     2
  6
CONTINUOUS
  0
LAYER
  2
TEAM-AXE
 70
     0
 62
    10
  6
31
  0
LAYER
  2
TEAM-MAS
 70
     0
 62
     9
  6
CONTINUOUS
  0
LAYER
  2
TEAM-TXT
 70
     0
 62
    11
  6
CONTINUOUS
  0
LAYER
  2
TEAM-DET1
 70
     0
 62
     4
  6
CONTINUOUS
  0
LAYER
  2
TEAM-KAN
 70
     0
 62
     6
  6
CONTINUOUS
  0
LAYER
  2
TEAM-NET
 70
     0
 62
    15
  6
CONTINUOUS
  0
LAYER
  2
TEAM-INSP
 70
     0
 62
     5
  6
CONTINUOUS
  0
ENDTAB
  0
TABLE
  2
STYLE
 70
     2
  0
STYLE
  2
STANDARD
 70
     0
 40
0.0
 41
1.0
 50
0.0
 71
     0
 42
200.0
  3
txt
  4

  0
STYLE
  2
TEAM
 70
     0
 40
0.0
 41
0.8
 50
15.0
 71
     0
 42
7.0
  3
ROMANS.shx
  4

  0
ENDTAB
  0
TABLE
  2
VIEW
 70
     0
  0
ENDTAB
  0
TABLE
  2
UCS
 70
     0
  0
ENDTAB
  0
TABLE
  2
APPID
 70
     1
  0
APPID
  2
ACAD
 70
     0
  0
ENDTAB
  0
TABLE
  2
DIMSTYLE
 70
     1
  0
DIMSTYLE
  2
TEAM
 70
     0
  3

  4

  5

  6

  7

 40
0.0
 41
20.0
 42
10.0
 43
1.0
 44
1.0
 45
0.0
 46
0.0
 47
0.0
 48
0.0
140
35.0
141
1.0
142
0.0
143
25.4
144
1.0
145
0.0
146
1.0
147
7.0
 71
     0
 72
     0
 73
     0
 74
     0
 75
     0
 76
     0
 77
     0
 78
     0
170
     0
171
     2
172
     0
173
     0
174
     0
175
     0
176
     9
177
     9
178
    11
  0
ENDTAB
  0
ENDSEC
  0
SECTION
  2
BLOCKS
  0
BLOCK
  8
0
  2
$MODEL_SPACE
 70
     0
 10
0.0
 20
0.0
 30
0.0
  3
$MODEL_SPACE
  1

  0
ENDBLK
  5
22C
  8
0
  0
BLOCK
 67
     1
  8
0
  2
$PAPER_SPACE
 70
     0
 10
0.0
 20
0.0
 30
0.0
  3
$PAPER_SPACE
  1

  0
ENDBLK
  5
22A
 67
     1
  8
0
  0
ENDSEC
  0
SECTION
  2
ENTITIES
  0
POLYLINE
  5
20
  8
TEAM-NET
 66
     1
 10
0.0
 20
0.0
 30
0.0
 70
    16
 71
     2
 72
    33
  0
VERTEX
  5
21
  8
TEAM-NET
 10
-800.0
 20
0.035776
 30
580.0
 70
    64
  0
VERTEX
  5
22
  8
TEAM-NET
 10
-799.251389
 20
65.033869
 30
580.0
 70
    64
  0
VERTEX
  5
23
  8
TEAM-NET
 10
-792.954664
 20
129.730576
 30
580.0
 70
    64
  0
VERTEX
  5
24
  8
TEAM-NET
 10
-781.155835
 20
193.653188
 30
580.0
 70
    64
  0
VERTEX
  5
25
  8
TEAM-NET
 10
-758.175877
 20
254.049545
 30
580.0
 70
    64
  0
VERTEX
  5
26
  8
TEAM-NET
 10
-712.495098
 20
299.605705
 30
580.0
 70
    64
  0
VERTEX
  5
27
  8
TEAM-NET
 10
-651.904304
 20
321.760905
 30
580.0
 70
    64
  0
VERTEX
  5
28
  8
TEAM-NET
 10
-587.049861
 20
320.120038
 30
580.0
 70
    64
  0
VERTEX
  5
29
  8
TEAM-NET
 10
-522.215367
 20
315.182817
 30
580.0
 70
    64
  0
VERTEX
  5
2A
  8
TEAM-NET
 10
-457.380872
 20
310.245596
 30
580.0
 70
    64
  0
VERTEX
  5
2B
  8
TEAM-NET
 10
-392.546377
 20
305.308376
 30
580.0
 70
    64
  0
VERTEX
  5
2C
  8
TEAM-NET
 10
-327.711883
 20
300.371155
 30
580.0
 70
    64
  0
VERTEX
  5
2D
  8
TEAM-NET
 10
-262.877388
 20
295.433934
 30
580.0
 70
    64
  0
VERTEX
  5
2E
  8
TEAM-NET
 10
-198.042894
 20
290.496713
 30
580.0
 70
    64
  0
VERTEX
  5
2F
  8
TEAM-NET
 10
-133.208399
 20
285.559493
 30
580.0
 70
    64
  0
VERTEX
  5
30
  8
TEAM-NET
 10
-68.373904
 20
280.622272
 30
580.0
 70
    64
  0
VERTEX
  5
31
  8
TEAM-NET
 10
-3.518841
 20
276.156187
 30
580.0
 70
    64
  0
VERTEX
  5
32
  8
TEAM-NET
 10
57.48841
 20
296.329145
 30
580.0
 70
    64
  0
VERTEX
  5
33
  8
TEAM-NET
 10
116.538498
 20
322.957855
 30
580.0
 70
    64
  0
VERTEX
  5
34
  8
TEAM-NET
 10
181.419065
 20
325.035776
 30
580.0
 70
    64
  0
VERTEX
  5
35
  8
TEAM-NET
 10
246.441276
 20
325.035776
 30
580.0
 70
    64
  0
VERTEX
  5
36
  8
TEAM-NET
 10
311.463486
 20
325.035776
 30
580.0
 70
    64
  0
VERTEX
  5
37
  8
TEAM-NET
 10
376.485696
 20
325.035776
 30
580.0
 70
    64
  0
VERTEX
  5
38
  8
TEAM-NET
 10
441.507907
 20
325.035776
 30
580.0
 70
    64
  0
VERTEX
  5
39
  8
TEAM-NET
 10
506.530117
 20
325.035776
 30
580.0
 70
    64
  0
VERTEX
  5
3A
  8
TEAM-NET
 10
571.552328
 20
325.035776
 30
580.0
 70
    64
  0
VERTEX
  5
3B
  8
TEAM-NET
 10
636.574538
 20
325.035776
 30
580.0
 70
    64
  0
VERTEX
  5
3C
  8
TEAM-NET
 10
698.078105
 20
307.624696
 30
580.0
 70
    64
  0
VERTEX
  5
3D
  8
TEAM-NET
 10
736.569363
 20
256.640034
 30
580.0
 70
    64
  0
VERTEX
  5
3E
  8
TEAM-NET
 10
753.294655
 20
193.826706
 30
580.0
 70
    64
  0
VERTEX
  5
3F
  8
TEAM-NET
 10
764.502452
 20
129.798675
 30
580.0
 70
    64
  0
VERTEX
  5
40
  8
TEAM-NET
 10
770.085074
 20
65.037285
 30
580.0
 70
    64
  0
VERTEX
  5
41
  8
TEAM-NET
 10
770.0
 20
0.035776
 30
580.0
 70
    64
  0
VERTEX
  5
42
  8
TEAM-NET
 10
-490.0
 20
0.035776
 30
160.0
 70
    64
  0
VERTEX
  5
43
  8
TEAM-NET
 10
-488.572646
 20
51.068568
 30
160.0
 70
    64
  0
VERTEX
  5
44
  8
TEAM-NET
 10
-482.057918
 20
101.703946
 30
160.0
 70
    64
  0
VERTEX
  5
45
  8
TEAM-NET
 10
-470.520901
 20
151.436033
 30
160.0
 70
    64
  0
VERTEX
  5
46
  8
TEAM-NET
 10
-453.358435
 20
199.448672
 30
160.0
 70
    64
  0
VERTEX
  5
47
  8
TEAM-NET
 10
-418.819069
 20
236.318366
 30
160.0
 70
    64
  0
VERTEX
  5
48
  8
TEAM-NET
 10
-370.664757
 20
251.599215
 30
160.0
 70
    64
  0
VERTEX
  5
49
  8
TEAM-NET
 10
-319.702033
 20
248.65732
 30
160.0
 70
    64
  0
VERTEX
  5
4A
  8
TEAM-NET
 10
-268.763417
 20
244.940673
 30
160.0
 70
    64
  0
VERTEX
  5
4B
  8
TEAM-NET
 10
-217.824801
 20
241.224026
 30
160.0
 70
    64
  0
VERTEX
  5
4C
  8
TEAM-NET
 10
-166.886185
 20
237.507379
 30
160.0
 70
    64
  0
VERTEX
  5
4D
  8
TEAM-NET
 10
-115.947569
 20
233.790733
 30
160.0
 70
    64
  0
VERTEX
  5
4E
  8
TEAM-NET
 10
-65.008953
 20
230.074086
 30
160.0
 70
    64
  0
VERTEX
  5
4F
  8
TEAM-NET
 10
-14.070337
 20
226.357439
 30
160.0
 70
    64
  0
VERTEX
  5
50
  8
TEAM-NET
 10
36.183316
 20
232.078064
 30
160.0
 70
    64
  0
VERTEX
  5
51
  8
TEAM-NET
 10
81.813875
 20
254.9752
 30
160.0
 70
    64
  0
VERTEX
  5
52
  8
TEAM-NET
 10
128.999579
 20
273.762885
 30
160.0
 70
    64
  0
VERTEX
  5
53
  8
TEAM-NET
 10
180.005776
 20
275.035776
 30
160.0
 70
    64
  0
VERTEX
  5
54
  8
TEAM-NET
 10
231.079801
 20
275.035776
 30
160.0
 70
    64
  0
VERTEX
  5
55
  8
TEAM-NET
 10
282.153826
 20
275.035776
 30
160.0
 70
    64
  0
VERTEX
  5
56
  8
TEAM-NET
 10
333.227851
 20
275.035776
 30
160.0
 70
    64
  0
VERTEX
  5
57
  8
TEAM-NET
 10
384.301877
 20
275.035776
 30
160.0
 70
    64
  0
VERTEX
  5
58
  8
TEAM-NET
 10
435.375902
 20
275.035776
 30
160.0
 70
    64
  0
VERTEX
  5
59
  8
TEAM-NET
 10
486.449927
 20
275.035776
 30
160.0
 70
    64
  0
VERTEX
  5
5A
  8
TEAM-NET
 10
537.523952
 20
275.035776
 30
160.0
 70
    64
  0
VERTEX
  5
5B
  8
TEAM-NET
 10
588.597977
 20
275.035776
 30
160.0
 70
    64
  0
VERTEX
  5
5C
  8
TEAM-NET
 10
639.672002
 20
275.035776
 30
160.0
 70
    64
  0
VERTEX
  5
5D
  8
TEAM-NET
 10
683.248209
 20
252.844395
 30
160.0
 70
    64
  0
VERTEX
  5
5E
  8
TEAM-NET
 10
699.372875
 20
204.598523
 30
160.0
 70
    64
  0
VERTEX
  5
5F
  8
TEAM-NET
 10
710.112552
 20
154.678162
 30
160.0
 70
    64
  0
VERTEX
  5
60
  8
TEAM-NET
 10
717.159313
 20
104.104193
 30
160.0
 70
    64
  0
VERTEX
  5
61
  8
TEAM-NET
 10
720.475146
 20
53.149425
 30
160.0
 70
    64
  0
VERTEX
  5
62
  8
TEAM-NET
 10
720.042164
 20
2.088719
 30
160.0
 70
    64
  0
SEQEND
  5
64
  8
TEAM-NET
  0
POLYLINE
  5
65
  8
TEAM-NET
 66
     1
 10
0.0
 20
0.0
 30
0.0
 70
    16
 71
     2
 72
    33
  0
VERTEX
  5
66
  8
TEAM-NET
 10
-800.0
 20
0.035776
 30
580.0
 70
    64
  0
VERTEX
  5
67
  8
TEAM-NET
 10
-799.251389
 20
-64.962318
 30
580.0
 70
    64
  0
VERTEX
  5
68
  8
TEAM-NET
 10
-792.954664
 20
-129.659025
 30
580.0
 70
    64
  0
VERTEX
  5
69
  8
TEAM-NET
 10
-781.155835
 20
-193.581637
 30
580.0
 70
    64
  0
VERTEX
  5
6A
  8
TEAM-NET
 10
-758.175877
 20
-253.977994
 30
580.0
 70
    64
  0
VERTEX
  5
6B
  8
TEAM-NET
 10
-712.495098
 20
-299.534154
 30
580.0
 70
    64
  0
VERTEX
  5
6C
  8
TEAM-NET
 10
-651.904304
 20
-321.689354
 30
580.0
 70
    64
  0
VERTEX
  5
6D
  8
TEAM-NET
 10
-587.049861
 20
-320.048487
 30
580.0
 70
    64
  0
VERTEX
  5
6E
  8
TEAM-NET
 10
-522.215367
 20
-315.111266
 30
580.0
 70
    64
  0
VERTEX
  5
6F
  8
TEAM-NET
 10
-457.380872
 20
-310.174045
 30
580.0
 70
    64
  0
VERTEX
  5
70
  8
TEAM-NET
 10
-392.546377
 20
-305.236825
 30
580.0
 70
    64
  0
VERTEX
  5
71
  8
TEAM-NET
 10
-327.711883
 20
-300.299604
 30
580.0
 70
    64
  0
VERTEX
  5
72
  8
TEAM-NET
 10
-262.877388
 20
-295.362383
 30
580.0
 70
    64
  0
VERTEX
  5
73
  8
TEAM-NET
 10
-198.042894
 20
-290.425162
 30
580.0
 70
    64
  0
VERTEX
  5
74
  8
TEAM-NET
 10
-133.208399
 20
-285.487942
 30
580.0
 70
    64
  0
VERTEX
  5
75
  8
TEAM-NET
 10
-68.373904
 20
-280.550721
 30
580.0
 70
    64
  0
VERTEX
  5
76
  8
TEAM-NET
 10
-3.518841
 20
-276.084636
 30
580.0
 70
    64
  0
VERTEX
  5
77
  8
TEAM-NET
 10
57.48841
 20
-296.257594
 30
580.0
 70
    64
  0
VERTEX
  5
78
  8
TEAM-NET
 10
116.538498
 20
-322.886304
 30
580.0
 70
    64
  0
VERTEX
  5
79
  8
TEAM-NET
 10
181.419065
 20
-324.964224
 30
580.0
 70
    64
  0
VERTEX
  5
7A
  8
TEAM-NET
 10
246.441276
 20
-324.964224
 30
580.0
 70
    64
  0
VERTEX
  5
7B
  8
TEAM-NET
 10
311.463486
 20
-324.964224
 30
580.0
 70
    64
  0
VERTEX
  5
7C
  8
TEAM-NET
 10
376.485696
 20
-324.964224
 30
580.0
 70
    64
  0
VERTEX
  5
7D
  8
TEAM-NET
 10
441.507907
 20
-324.964224
 30
580.0
 70
    64
  0
VERTEX
  5
7E
  8
TEAM-NET
 10
506.530117
 20
-324.964224
 30
580.0
 70
    64
  0
VERTEX
  5
7F
  8
TEAM-NET
 10
571.552328
 20
-324.964224
 30
580.0
 70
    64
  0
VERTEX
  5
80
  8
TEAM-NET
 10
636.574538
 20
-324.964224
 30
580.0
 70
    64
  0
VERTEX
  5
81
  8
TEAM-NET
 10
698.078105
 20
-307.553145
 30
580.0
 70
    64
  0
VERTEX
  5
82
  8
TEAM-NET
 10
736.569363
 20
-256.568483
 30
580.0
 70
    64
  0
VERTEX
  5
83
  8
TEAM-NET
 10
753.294655
 20
-193.755155
 30
580.0
 70
    64
  0
VERTEX
  5
84
  8
TEAM-NET
 10
764.502452
 20
-129.727124
 30
580.0
 70
    64
  0
VERTEX
  5
85
  8
TEAM-NET
 10
770.085074
 20
-64.965734
 30
580.0
 70
    64
  0
VERTEX
  5
86
  8
TEAM-NET
 10
770.0
 20
0.035776
 30
580.0
 70
    64
  0
VERTEX
  5
87
  8
TEAM-NET
 10
-490.0
 20
0.035776
 30
160.0
 70
    64
  0
VERTEX
  5
88
  8
TEAM-NET
 10
-488.572646
 20
-50.997017
 30
160.0
 70
    64
  0
VERTEX
  5
89
  8
TEAM-NET
 10
-482.057918
 20
-101.632395
 30
160.0
 70
    64
  0
VERTEX
  5
8A
  8
TEAM-NET
 10
-470.520901
 20
-151.364482
 30
160.0
 70
    64
  0
VERTEX
  5
8B
  8
TEAM-NET
 10
-453.358435
 20
-199.377121
 30
160.0
 70
    64
  0
VERTEX
  5
8C
  8
TEAM-NET
 10
-418.819069
 20
-236.246815
 30
160.0
 70
    64
  0
VERTEX
  5
8D
  8
TEAM-NET
 10
-370.664757
 20
-251.527664
 30
160.0
 70
    64
  0
VERTEX
  5
8E
  8
TEAM-NET
 10
-319.702033
 20
-248.585769
 30
160.0
 70
    64
  0
VERTEX
  5
8F
  8
TEAM-NET
 10
-268.763417
 20
-244.869122
 30
160.0
 70
    64
  0
VERTEX
  5
90
  8
TEAM-NET
 10
-217.824801
 20
-241.152475
 30
160.0
 70
    64
  0
VERTEX
  5
91
  8
TEAM-NET
 10
-166.886185
 20
-237.435828
 30
160.0
 70
    64
  0
VERTEX
  5
92
  8
TEAM-NET
 10
-115.947569
 20
-233.719182
 30
160.0
 70
    64
  0
VERTEX
  5
93
  8
TEAM-NET
 10
-65.008953
 20
-230.002535
 30
160.0
 70
    64
  0
VERTEX
  5
94
  8
TEAM-NET
 10
-14.070337
 20
-226.285888
 30
160.0
 70
    64
  0
VERTEX
  5
95
  8
TEAM-NET
 10
36.183316
 20
-232.006513
 30
160.0
 70
    64
  0
VERTEX
  5
96
  8
TEAM-NET
 10
81.813875
 20
-254.903649
 30
160.0
 70
    64
  0
VERTEX
  5
97
  8
TEAM-NET
 10
128.999579
 20
-273.691334
 30
160.0
 70
    64
  0
VERTEX
  5
98
  8
TEAM-NET
 10
180.005776
 20
-274.964224
 30
160.0
 70
    64
  0
VERTEX
  5
99
  8
TEAM-NET
 10
231.079801
 20
-274.964224
 30
160.0
 70
    64
  0
VERTEX
  5
9A
  8
TEAM-NET
 10
282.153826
 20
-274.964224
 30
160.0
 70
    64
  0
VERTEX
  5
9B
  8
TEAM-NET
 10
333.227851
 20
-274.964224
 30
160.0
 70
    64
  0
VERTEX
  5
9C
  8
TEAM-NET
 10
384.301877
 20
-274.964224
 30
160.0
 70
    64
  0
VERTEX
  5
9D
  8
TEAM-NET
 10
435.375902
 20
-274.964224
 30
160.0
 70
    64
  0
VERTEX
  5
9E
  8
TEAM-NET
 10
486.449927
 20
-274.964224
 30
160.0
 70
    64
  0
VERTEX
  5
9F
  8
TEAM-NET
 10
537.523952
 20
-274.964224
 30
160.0
 70
    64
  0
VERTEX
  5
A0
  8
TEAM-NET
 10
588.597977
 20
-274.964224
 30
160.0
 70
    64
  0
VERTEX
  5
A1
  8
TEAM-NET
 10
639.672002
 20
-274.964224
 30
160.0
 70
    64
  0
VERTEX
  5
A2
  8
TEAM-NET
 10
683.248209
 20
-252.772844
 30
160.0
 70
    64
  0
VERTEX
  5
A3
  8
TEAM-NET
 10
699.372875
 20
-204.526972
 30
160.0
 70
    64
  0
VERTEX
  5
A4
  8
TEAM-NET
 10
710.112552
 20
-154.606611
 30
160.0
 70
    64
  0
VERTEX
  5
A5
  8
TEAM-NET
 10
717.159313
 20
-104.032642
 30
160.0
 70
    64
  0
VERTEX
  5
A6
  8
TEAM-NET
 10
720.475146
 20
-53.077874
 30
160.0
 70
    64
  0
VERTEX
  5
A7
  8
TEAM-NET
 10
720.042164
 20
-2.017168
 30
160.0
 70
    64
  0
SEQEND
  5
A8
  8
TEAM-NET
  0
CIRCLE
  5
A9
  8
TEAM-KAN
 39
10.1
 10
560.0
 20
0.035776
 30
150.0
 40
25.0
  0
CIRCLE
  5
AB
  8
TEAM-INSP
 10
0.02333
 20
0.001191
 30
0.0
 40
7.1
  0
LINE
  5
AD
  8
TEAM-AXE
 10
512.190458
 20
0.035776
 30
150.0
 11
606.022486
 21
0.035776
 31
150.0
  0
LINE
  5
B0
  8
TEAM-AXE
 10
560.0
 20
40.035776
 30
150.0
 11
560.0
 21
-39.964224
 31
150.0
  0
POLYLINE
  5
B1
  8
TEAM-DET1
 66
     1
 10
0.0
 20
0.0
 30
160.0
  0
VERTEX
  5
232
  8
TEAM-DET1
 10
720.042164
 20
2.088719
 30
160.0
 42
0.086309
  0
VERTEX
  5
233
  8
TEAM-DET1
 10
689.870573
 20
238.418632
 30
160.0
 42
0.336902
  0
VERTEX
  5
234
  8
TEAM-DET1
 10
641.694862
 20
275.035776
 30
160.0
  0
VERTEX
  5
235
  8
TEAM-DET1
 10
144.904226
 20
275.035776
 30
160.0
 42
0.120054
  0
VERTEX
  5
236
  8
TEAM-DET1
 10
98.910167
 20
263.830745
 30
160.0
  0
VERTEX
  5
237
  8
TEAM-DET1
 10
46.637854
 20
236.754708
 30
160.0
 42
-0.138567
  0
VERTEX
  5
238
  8
TEAM-DET1
 10
-6.633186
 20
225.8148
 30
160.0
  0
VERTEX
  5
239
  8
TEAM-DET1
 10
-357.481312
 20
251.413819
 30
160.0
 42
0.351513
  0
VERTEX
  5
23A
  8
TEAM-DET1
 10
-461.046885
 20
181.165668
 30
160.0
 42
0.090517
  0
VERTEX
  5
23B
  8
TEAM-DET1
 10
-490.0
 20
0.035776
 30
160.0
 42
0.090517
  0
SEQEND
  5
23C
  8
TEAM-DET1
  0
POLYLINE
  5
B3
  8
TEAM-NET
 66
     1
 10
0.0
 20
0.0
 30
0.0
 70
    16
 71
     2
 72
    33
  0
VERTEX
  5
B4
  8
TEAM-NET
 10
-490.0
 20
0.035776
 30
160.0
 70
    64
  0
VERTEX
  5
B5
  8
TEAM-NET
 10
-488.572646
 20
51.068568
 30
160.0
 70
    64
  0
VERTEX
  5
B6
  8
TEAM-NET
 10
-482.057918
 20
101.703946
 30
160.0
 70
    64
  0
VERTEX
  5
B7
  8
TEAM-NET
 10
-470.520901
 20
151.436033
 30
160.0
 70
    64
  0
VERTEX
  5
B8
  8
TEAM-NET
 10
-453.358435
 20
199.448672
 30
160.0
 70
    64
  0
VERTEX
  5
B9
  8
TEAM-NET
 10
-418.819069
 20
236.318366
 30
160.0
 70
    64
  0
VERTEX
  5
BA
  8
TEAM-NET
 10
-370.664757
 20
251.599215
 30
160.0
 70
    64
  0
VERTEX
  5
BB
  8
TEAM-NET
 10
-319.702033
 20
248.65732
 30
160.0
 70
    64
  0
VERTEX
  5
BC
  8
TEAM-NET
 10
-268.763417
 20
244.940673
 30
160.0
 70
    64
  0
VERTEX
  5
BD
  8
TEAM-NET
 10
-217.824801
 20
241.224026
 30
160.0
 70
    64
  0
VERTEX
  5
BE
  8
TEAM-NET
 10
-166.886185
 20
237.507379
 30
160.0
 70
    64
  0
VERTEX
  5
BF
  8
TEAM-NET
 10
-115.947569
 20
233.790733
 30
160.0
 70
    64
  0
VERTEX
  5
C0
  8
TEAM-NET
 10
-65.008953
 20
230.074086
 30
160.0
 70
    64
  0
VERTEX
  5
C1
  8
TEAM-NET
 10
-14.070337
 20
226.357439
 30
160.0
 70
    64
  0
VERTEX
  5
C2
  8
TEAM-NET
 10
36.183316
 20
232.078064
 30
160.0
 70
    64
  0
VERTEX
  5
C3
  8
TEAM-NET
 10
81.813875
 20
254.9752
 30
160.0
 70
    64
  0
VERTEX
  5
C4
  8
TEAM-NET
 10
128.999579
 20
273.762885
 30
160.0
 70
    64
  0
VERTEX
  5
C5
  8
TEAM-NET
 10
180.005776
 20
275.035776
 30
160.0
 70
    64
  0
VERTEX
  5
C6
  8
TEAM-NET
 10
231.079801
 20
275.035776
 30
160.0
 70
    64
  0
VERTEX
  5
C7
  8
TEAM-NET
 10
282.153826
 20
275.035776
 30
160.0
 70
    64
  0
VERTEX
  5
C8
  8
TEAM-NET
 10
333.227851
 20
275.035776
 30
160.0
 70
    64
  0
VERTEX
  5
C9
  8
TEAM-NET
 10
384.301877
 20
275.035776
 30
160.0
 70
    64
  0
VERTEX
  5
CA
  8
TEAM-NET
 10
435.375902
 20
275.035776
 30
160.0
 70
    64
  0
VERTEX
  5
CB
  8
TEAM-NET
 10
486.449927
 20
275.035776
 30
160.0
 70
    64
  0
VERTEX
  5
CC
  8
TEAM-NET
 10
537.523952
 20
275.035776
 30
160.0
 70
    64
  0
VERTEX
  5
CD
  8
TEAM-NET
 10
588.597977
 20
275.035776
 30
160.0
 70
    64
  0
VERTEX
  5
CE
  8
TEAM-NET
 10
639.672002
 20
275.035776
 30
160.0
 70
    64
  0
VERTEX
  5
CF
  8
TEAM-NET
 10
683.248209
 20
252.844395
 30
160.0
 70
    64
  0
VERTEX
  5
D0
  8
TEAM-NET
 10
699.372875
 20
204.598523
 30
160.0
 70
    64
  0
VERTEX
  5
D1
  8
TEAM-NET
 10
710.112552
 20
154.678162
 30
160.0
 70
    64
  0
VERTEX
  5
D2
  8
TEAM-NET
 10
717.159313
 20
104.104193
 30
160.0
 70
    64
  0
VERTEX
  5
D3
  8
TEAM-NET
 10
720.475146
 20
53.149425
 30
160.0
 70
    64
  0
VERTEX
  5
D4
  8
TEAM-NET
 10
720.042164
 20
2.088719
 30
160.0
 70
    64
  0
VERTEX
  5
D5
  8
TEAM-NET
 10
-490.0
 20
0.035776
 30
160.0
 70
    64
  0
VERTEX
  5
D6
  8
TEAM-NET
 10
-488.572646
 20
-50.997017
 30
160.0
 70
    64
  0
VERTEX
  5
D7
  8
TEAM-NET
 10
-482.057918
 20
-101.632395
 30
160.0
 70
    64
  0
VERTEX
  5
D8
  8
TEAM-NET
 10
-470.520901
 20
-151.364482
 30
160.0
 70
    64
  0
VERTEX
  5
D9
  8
TEAM-NET
 10
-453.358435
 20
-199.377121
 30
160.0
 70
    64
  0
VERTEX
  5
DA
  8
TEAM-NET
 10
-418.819069
 20
-236.246815
 30
160.0
 70
    64
  0
VERTEX
  5
DB
  8
TEAM-NET
 10
-370.664757
 20
-251.527664
 30
160.0
 70
    64
  0
VERTEX
  5
DC
  8
TEAM-NET
 10
-319.702033
 20
-248.585769
 30
160.0
 70
    64
  0
VERTEX
  5
DD
  8
TEAM-NET
 10
-268.763417
 20
-244.869122
 30
160.0
 70
    64
  0
VERTEX
  5
DE
  8
TEAM-NET
 10
-217.824801
 20
-241.152475
 30
160.0
 70
    64
  0
VERTEX
  5
DF
  8
TEAM-NET
 10
-166.886185
 20
-237.435828
 30
160.0
 70
    64
  0
VERTEX
  5
E0
  8
TEAM-NET
 10
-115.947569
 20
-233.719182
 30
160.0
 70
    64
  0
VERTEX
  5
E1
  8
TEAM-NET
 10
-65.008953
 20
-230.002535
 30
160.0
 70
    64
  0
VERTEX
  5
E2
  8
TEAM-NET
 10
-14.070337
 20
-226.285888
 30
160.0
 70
    64
  0
VERTEX
  5
E3
  8
TEAM-NET
 10
36.183316
 20
-232.006513
 30
160.0
 70
    64
  0
VERTEX
  5
E4
  8
TEAM-NET
 10
81.813875
 20
-254.903649
 30
160.0
 70
    64
  0
VERTEX
  5
E5
  8
TEAM-NET
 10
128.999579
 20
-273.691334
 30
160.0
 70
    64
  0
VERTEX
  5
E6
  8
TEAM-NET
 10
180.005776
 20
-274.964224
 30
160.0
 70
    64
  0
VERTEX
  5
E7
  8
TEAM-NET
 10
231.079801
 20
-274.964224
 30
160.0
 70
    64
  0
VERTEX
  5
E8
  8
TEAM-NET
 10
282.153826
 20
-274.964224
 30
160.0
 70
    64
  0
VERTEX
  5
E9
  8
TEAM-NET
 10
333.227851
 20
-274.964224
 30
160.0
 70
    64
  0
VERTEX
  5
EA
  8
TEAM-NET
 10
384.301877
 20
-274.964224
 30
160.0
 70
    64
  0
VERTEX
  5
EB
  8
TEAM-NET
 10
435.375902
 20
-274.964224
 30
160.0
 70
    64
  0
VERTEX
  5
EC
  8
TEAM-NET
 10
486.449927
 20
-274.964224
 30
160.0
 70
    64
  0
VERTEX
  5
ED
  8
TEAM-NET
 10
537.523952
 20
-274.964224
 30
160.0
 70
    64
  0
VERTEX
  5
EE
  8
TEAM-NET
 10
588.597977
 20
-274.964224
 30
160.0
 70
    64
  0
VERTEX
  5
EF
  8
TEAM-NET
 10
639.672002
 20
-274.964224
 30
160.0
 70
    64
  0
VERTEX
  5
F0
  8
TEAM-NET
 10
683.248209
 20
-252.772844
 30
160.0
 70
    64
  0
VERTEX
  5
F1
  8
TEAM-NET
 10
699.372875
 20
-204.526972
 30
160.0
 70
    64
  0
VERTEX
  5
F2
  8
TEAM-NET
 10
710.112552
 20
-154.606611
 30
160.0
 70
    64
  0
VERTEX
  5
F3
  8
TEAM-NET
 10
717.159313
 20
-104.032642
 30
160.0
 70
    64
  0
VERTEX
  5
F4
  8
TEAM-NET
 10
720.475146
 20
-53.077874
 30
160.0
 70
    64
  0
VERTEX
  5
F5
  8
TEAM-NET
 10
720.042164
 20
-2.017168
 30
160.0
 70
    64
  0
SEQEND
  5
F6
  8
TEAM-NET
  0
POLYLINE
  5
F7
  8
TEAM-DET1
 66
     1
 10
0.0
 20
0.0
 30
160.0
  0
VERTEX
  5
23D
  8
TEAM-DET1
 10
720.042164
 20
-2.017168
 30
160.0
 42
-0.086309
  0
VERTEX
  5
23E
  8
TEAM-DET1
 10
689.870573
 20
-238.347081
 30
160.0
 42
-0.336902
  0
VERTEX
  5
23F
  8
TEAM-DET1
 10
641.694862
 20
-274.964224
 30
160.0
  0
VERTEX
  5
240
  8
TEAM-DET1
 10
144.904226
 20
-274.964224
 30
160.0
 42
-0.120054
  0
VERTEX
  5
241
  8
TEAM-DET1
 10
98.910167
 20
-263.759193
 30
160.0
  0
VERTEX
  5
242
  8
TEAM-DET1
 10
46.637854
 20
-236.683157
 30
160.0
 42
0.138567
  0
VERTEX
  5
243
  8
TEAM-DET1
 10
-6.633186
 20
-225.743249
 30
160.0
  0
VERTEX
  5
244
  8
TEAM-DET1
 10
-357.481312
 20
-251.342268
 30
160.0
 42
-0.351513
  0
VERTEX
  5
245
  8
TEAM-DET1
 10
-461.046885
 20
-181.094117
 30
160.0
 42
-0.090517
  0
VERTEX
  5
246
  8
TEAM-DET1
 10
-490.0
 20
0.035776
 30
160.0
 42
-0.090517
  0
SEQEND
  5
247
  8
TEAM-DET1
  0
CIRCLE
  5
F8
  8
TEAM-KAN
 10
-0.035473
 20
579.437582
 30
-693.566837
 40
20.0
210
-0.992546
220
-0.000001
230
0.121869
  0
POLYLINE
  5
F9
  8
TEAM-BODY
 66
     1
 10
0.0
 20
0.0
 30
580.0
 39
-20.0
  0
VERTEX
  5
248
  8
TEAM-BODY
 10
850.0
 20
0.035776
 30
580.0
  0
VERTEX
  5
249
  8
TEAM-BODY
 10
850.0
 20
355.035776
 30
580.0
 42
0.414214
  0
VERTEX
  5
24A
  8
TEAM-BODY
 10
830.0
 20
375.035776
 30
580.0
  0
VERTEX
  5
24B
  8
TEAM-BODY
 10
-830.0
 20
375.035776
 30
580.0
 42
0.414214
  0
VERTEX
  5
24C
  8
TEAM-BODY
 10
-850.0
 20
355.035776
 30
580.0
  0
VERTEX
  5
24D
  8
TEAM-BODY
 10
-850.0
 20
0.035776
 30
580.0
  0
SEQEND
  5
24E
  8
TEAM-BODY
  0
POLYLINE
  5
FB
  8
TEAM-BODY
 66
     1
 10
0.0
 20
0.0
 30
580.0
 39
-20.0
  0
VERTEX
  5
24F
  8
TEAM-BODY
 10
850.0
 20
0.035776
 30
580.0
  0
VERTEX
  5
250
  8
TEAM-BODY
 10
850.0
 20
-354.964224
 30
580.0
 42
-0.414214
  0
VERTEX
  5
251
  8
TEAM-BODY
 10
830.0
 20
-374.964224
 30
580.0
  0
VERTEX
  5
252
  8
TEAM-BODY
 10
-830.0
 20
-374.964224
 30
580.0
 42
-0.414214
  0
VERTEX
  5
253
  8
TEAM-BODY
 10
-850.0
 20
-354.964224
 30
580.0
  0
VERTEX
  5
254
  8
TEAM-BODY
 10
-850.0
 20
0.035776
 30
580.0
  0
SEQEND
  5
255
  8
TEAM-BODY
  0
POLYLINE
  5
FC
  8
TEAM-BODY
 66
     1
 10
0.0
 20
0.0
 30
580.0
  0
VERTEX
  5
256
  8
TEAM-BODY
 10
770.0
 20
0.035776
 30
580.0
 42
0.085811
  0
VERTEX
  5
257
  8
TEAM-BODY
 10
738.046284
 20
251.801489
 30
580.0
 42
0.336902
  0
VERTEX
  5
258
  8
TEAM-BODY
 10
641.694862
 20
325.035776
 30
580.0
  0
VERTEX
  5
259
  8
TEAM-BODY
 10
136.818199
 20
325.035776
 30
580.0
 42
0.121466
  0
VERTEX
  5
25A
  8
TEAM-BODY
 10
90.330453
 20
313.573279
 30
580.0
  0
VERTEX
  5
25B
  8
TEAM-BODY
 10
40.856543
 20
287.596371
 30
580.0
 42
-0.140795
  0
VERTEX
  5
25C
  8
TEAM-BODY
 10
-13.224332
 20
276.422569
 30
580.0
  0
VERTEX
  5
25D
  8
TEAM-BODY
 10
-619.900414
 20
322.621645
 30
580.0
 42
0.375271
  0
VERTEX
  5
25E
  8
TEAM-BODY
 10
-778.445535
 20
205.074326
 30
580.0
 42
0.068092
  0
VERTEX
  5
25F
  8
TEAM-BODY
 10
-800.0
 20
0.035776
 30
580.0
 42
0.068092
  0
SEQEND
  5
260
  8
TEAM-BODY
  0
POLYLINE
  5
FD
  8
TEAM-NET
 66
     1
 10
0.0
 20
0.0
 30
0.0
 70
    16
 71
     2
 72
    33
  0
VERTEX
  5
FE
  8
TEAM-NET
 10
-850.0
 20
0.035776
 30
580.0
 70
    64
  0
VERTEX
  5
FF
  8
TEAM-NET
 10
-850.0
 20
76.061771
 30
580.0
 70
    64
  0
VERTEX
  5
100
  8
TEAM-NET
 10
-850.0
 20
152.087766
 30
580.0
 70
    64
  0
VERTEX
  5
101
  8
TEAM-NET
 10
-850.0
 20
228.113762
 30
580.0
 70
    64
  0
VERTEX
  5
102
  8
TEAM-NET
 10
-850.0
 20
304.139757
 30
580.0
 70
    64
  0
VERTEX
  5
103
  8
TEAM-NET
 10
-836.182969
 20
374.056051
 30
580.0
 70
    64
  0
VERTEX
  5
104
  8
TEAM-NET
 10
-760.259954
 20
375.035776
 30
580.0
 70
    64
  0
VERTEX
  5
105
  8
TEAM-NET
 10
-684.233959
 20
375.035776
 30
580.0
 70
    64
  0
VERTEX
  5
106
  8
TEAM-NET
 10
-608.207963
 20
375.035776
 30
580.0
 70
    64
  0
VERTEX
  5
107
  8
TEAM-NET
 10
-532.181968
 20
375.035776
 30
580.0
 70
    64
  0
VERTEX
  5
108
  8
TEAM-NET
 10
-456.155972
 20
375.035776
 30
580.0
 70
    64
  0
VERTEX
  5
109
  8
TEAM-NET
 10
-380.129977
 20
375.035776
 30
580.0
 70
    64
  0
VERTEX
  5
10A
  8
TEAM-NET
 10
-304.103982
 20
375.035776
 30
580.0
 70
    64
  0
VERTEX
  5
10B
  8
TEAM-NET
 10
-228.077986
 20
375.035776
 30
580.0
 70
    64
  0
VERTEX
  5
10C
  8
TEAM-NET
 10
-152.051991
 20
375.035776
 30
580.0
 70
    64
  0
VERTEX
  5
10D
  8
TEAM-NET
 10
-76.025995
 20
375.035776
 30
580.0
 70
    64
  0
VERTEX
  5
10E
  8
TEAM-NET
 10
0.0
 20
375.035776
 30
580.0
 70
    64
  0
VERTEX
  5
10F
  8
TEAM-NET
 10
76.025995
 20
375.035776
 30
580.0
 70
    64
  0
VERTEX
  5
110
  8
TEAM-NET
 10
152.051991
 20
375.035776
 30
580.0
 70
    64
  0
VERTEX
  5
111
  8
TEAM-NET
 10
228.077986
 20
375.035776
 30
580.0
 70
    64
  0
VERTEX
  5
112
  8
TEAM-NET
 10
304.103982
 20
375.035776
 30
580.0
 70
    64
  0
VERTEX
  5
113
  8
TEAM-NET
 10
380.129977
 20
375.035776
 30
580.0
 70
    64
  0
VERTEX
  5
114
  8
TEAM-NET
 10
456.155972
 20
375.035776
 30
580.0
 70
    64
  0
VERTEX
  5
115
  8
TEAM-NET
 10
532.181968
 20
375.035776
 30
580.0
 70
    64
  0
VERTEX
  5
116
  8
TEAM-NET
 10
608.207963
 20
375.035776
 30
580.0
 70
    64
  0
VERTEX
  5
117
  8
TEAM-NET
 10
684.233959
 20
375.035776
 30
580.0
 70
    64
  0
VERTEX
  5
118
  8
TEAM-NET
 10
760.259954
 20
375.035776
 30
580.0
 70
    64
  0
VERTEX
  5
119
  8
TEAM-NET
 10
836.182969
 20
374.056051
 30
580.0
 70
    64
  0
VERTEX
  5
11A
  8
TEAM-NET
 10
850.0
 20
304.139757
 30
580.0
 70
    64
  0
VERTEX
  5
11B
  8
TEAM-NET
 10
850.0
 20
228.113762
 30
580.0
 70
    64
  0
VERTEX
  5
11C
  8
TEAM-NET
 10
850.0
 20
152.087766
 30
580.0
 70
    64
  0
VERTEX
  5
11D
  8
TEAM-NET
 10
850.0
 20
76.061771
 30
580.0
 70
    64
  0
VERTEX
  5
11E
  8
TEAM-NET
 10
850.0
 20
0.035776
 30
580.0
 70
    64
  0
VERTEX
  5
11F
  8
TEAM-NET
 10
-800.0
 20
0.035776
 30
580.0
 70
    64
  0
VERTEX
  5
120
  8
TEAM-NET
 10
-799.251389
 20
65.033869
 30
580.0
 70
    64
  0
VERTEX
  5
121
  8
TEAM-NET
 10
-792.954664
 20
129.730576
 30
580.0
 70
    64
  0
VERTEX
  5
122
  8
TEAM-NET
 10
-781.155835
 20
193.653188
 30
580.0
 70
    64
  0
VERTEX
  5
123
  8
TEAM-NET
 10
-758.175877
 20
254.049545
 30
580.0
 70
    64
  0
VERTEX
  5
124
  8
TEAM-NET
 10
-712.495098
 20
299.605705
 30
580.0
 70
    64
  0
VERTEX
  5
125
  8
TEAM-NET
 10
-651.904304
 20
321.760905
 30
580.0
 70
    64
  0
VERTEX
  5
126
  8
TEAM-NET
 10
-587.049861
 20
320.120038
 30
580.0
 70
    64
  0
VERTEX
  5
127
  8
TEAM-NET
 10
-522.215367
 20
315.182817
 30
580.0
 70
    64
  0
VERTEX
  5
128
  8
TEAM-NET
 10
-457.380872
 20
310.245596
 30
580.0
 70
    64
  0
VERTEX
  5
129
  8
TEAM-NET
 10
-392.546377
 20
305.308376
 30
580.0
 70
    64
  0
VERTEX
  5
12A
  8
TEAM-NET
 10
-327.711883
 20
300.371155
 30
580.0
 70
    64
  0
VERTEX
  5
12B
  8
TEAM-NET
 10
-262.877388
 20
295.433934
 30
580.0
 70
    64
  0
VERTEX
  5
12C
  8
TEAM-NET
 10
-198.042894
 20
290.496713
 30
580.0
 70
    64
  0
VERTEX
  5
12D
  8
TEAM-NET
 10
-133.208399
 20
285.559493
 30
580.0
 70
    64
  0
VERTEX
  5
12E
  8
TEAM-NET
 10
-68.373904
 20
280.622272
 30
580.0
 70
    64
  0
VERTEX
  5
12F
  8
TEAM-NET
 10
-3.518841
 20
276.156187
 30
580.0
 70
    64
  0
VERTEX
  5
130
  8
TEAM-NET
 10
57.48841
 20
296.329145
 30
580.0
 70
    64
  0
VERTEX
  5
131
  8
TEAM-NET
 10
116.538498
 20
322.957855
 30
580.0
 70
    64
  0
VERTEX
  5
132
  8
TEAM-NET
 10
181.419065
 20
325.035776
 30
580.0
 70
    64
  0
VERTEX
  5
133
  8
TEAM-NET
 10
246.441276
 20
325.035776
 30
580.0
 70
    64
  0
VERTEX
  5
134
  8
TEAM-NET
 10
311.463486
 20
325.035776
 30
580.0
 70
    64
  0
VERTEX
  5
135
  8
TEAM-NET
 10
376.485696
 20
325.035776
 30
580.0
 70
    64
  0
VERTEX
  5
136
  8
TEAM-NET
 10
441.507907
 20
325.035776
 30
580.0
 70
    64
  0
VERTEX
  5
137
  8
TEAM-NET
 10
506.530117
 20
325.035776
 30
580.0
 70
    64
  0
VERTEX
  5
138
  8
TEAM-NET
 10
571.552328
 20
325.035776
 30
580.0
 70
    64
  0
VERTEX
  5
139
  8
TEAM-NET
 10
636.574538
 20
325.035776
 30
580.0
 70
    64
  0
VERTEX
  5
13A
  8
TEAM-NET
 10
698.078105
 20
307.624696
 30
580.0
 70
    64
  0
VERTEX
  5
13B
  8
TEAM-NET
 10
736.569363
 20
256.640034
 30
580.0
 70
    64
  0
VERTEX
  5
13C
  8
TEAM-NET
 10
753.294655
 20
193.826706
 30
580.0
 70
    64
  0
VERTEX
  5
13D
  8
TEAM-NET
 10
764.502452
 20
129.798675
 30
580.0
 70
    64
  0
VERTEX
  5
13E
  8
TEAM-NET
 10
770.085074
 20
65.037285
 30
580.0
 70
    64
  0
VERTEX
  5
13F
  8
TEAM-NET
 10
770.0
 20
0.035776
 30
580.0
 70
    64
  0
SEQEND
  5
140
  8
TEAM-NET
  0
POLYLINE
  5
141
  8
TEAM-NET
 66
     1
 10
0.0
 20
0.0
 30
0.0
 70
    16
 71
     2
 72
    33
  0
VERTEX
  5
142
  8
TEAM-NET
 10
-850.0
 20
0.035776
 30
580.0
 70
    64
  0
VERTEX
  5
143
  8
TEAM-NET
 10
-850.0
 20
-75.99022
 30
580.0
 70
    64
  0
VERTEX
  5
144
  8
TEAM-NET
 10
-850.0
 20
-152.016215
 30
580.0
 70
    64
  0
VERTEX
  5
145
  8
TEAM-NET
 10
-850.0
 20
-228.042211
 30
580.0
 70
    64
  0
VERTEX
  5
146
  8
TEAM-NET
 10
-850.0
 20
-304.068206
 30
580.0
 70
    64
  0
VERTEX
  5
147
  8
TEAM-NET
 10
-836.182969
 20
-373.9845
 30
580.0
 70
    64
  0
VERTEX
  5
148
  8
TEAM-NET
 10
-760.259954
 20
-374.964224
 30
580.0
 70
    64
  0
VERTEX
  5
149
  8
TEAM-NET
 10
-684.233959
 20
-374.964224
 30
580.0
 70
    64
  0
VERTEX
  5
14A
  8
TEAM-NET
 10
-608.207963
 20
-374.964224
 30
580.0
 70
    64
  0
VERTEX
  5
14B
  8
TEAM-NET
 10
-532.181968
 20
-374.964224
 30
580.0
 70
    64
  0
VERTEX
  5
14C
  8
TEAM-NET
 10
-456.155972
 20
-374.964224
 30
580.0
 70
    64
  0
VERTEX
  5
14D
  8
TEAM-NET
 10
-380.129977
 20
-374.964224
 30
580.0
 70
    64
  0
VERTEX
  5
14E
  8
TEAM-NET
 10
-304.103982
 20
-374.964224
 30
580.0
 70
    64
  0
VERTEX
  5
14F
  8
TEAM-NET
 10
-228.077986
 20
-374.964224
 30
580.0
 70
    64
  0
VERTEX
  5
150
  8
TEAM-NET
 10
-152.051991
 20
-374.964224
 30
580.0
 70
    64
  0
VERTEX
  5
151
  8
TEAM-NET
 10
-76.025995
 20
-374.964224
 30
580.0
 70
    64
  0
VERTEX
  5
152
  8
TEAM-NET
 10
0.0
 20
-374.964224
 30
580.0
 70
    64
  0
VERTEX
  5
153
  8
TEAM-NET
 10
76.025995
 20
-374.964224
 30
580.0
 70
    64
  0
VERTEX
  5
154
  8
TEAM-NET
 10
152.051991
 20
-374.964224
 30
580.0
 70
    64
  0
VERTEX
  5
155
  8
TEAM-NET
 10
228.077986
 20
-374.964224
 30
580.0
 70
    64
  0
VERTEX
  5
156
  8
TEAM-NET
 10
304.103982
 20
-374.964224
 30
580.0
 70
    64
  0
VERTEX
  5
157
  8
TEAM-NET
 10
380.129977
 20
-374.964224
 30
580.0
 70
    64
  0
VERTEX
  5
158
  8
TEAM-NET
 10
456.155972
 20
-374.964224
 30
580.0
 70
    64
  0
VERTEX
  5
159
  8
TEAM-NET
 10
532.181968
 20
-374.964224
 30
580.0
 70
    64
  0
VERTEX
  5
15A
  8
TEAM-NET
 10
608.207963
 20
-374.964224
 30
580.0
 70
    64
  0
VERTEX
  5
15B
  8
TEAM-NET
 10
684.233959
 20
-374.964224
 30
580.0
 70
    64
  0
VERTEX
  5
15C
  8
TEAM-NET
 10
760.259954
 20
-374.964224
 30
580.0
 70
    64
  0
VERTEX
  5
15D
  8
TEAM-NET
 10
836.182969
 20
-373.9845
 30
580.0
 70
    64
  0
VERTEX
  5
15E
  8
TEAM-NET
 10
850.0
 20
-304.068206
 30
580.0
 70
    64
  0
VERTEX
  5
15F
  8
TEAM-NET
 10
850.0
 20
-228.042211
 30
580.0
 70
    64
  0
VERTEX
  5
160
  8
TEAM-NET
 10
850.0
 20
-152.016215
 30
580.0
 70
    64
  0
VERTEX
  5
161
  8
TEAM-NET
 10
850.0
 20
-75.99022
 30
580.0
 70
    64
  0
VERTEX
  5
162
  8
TEAM-NET
 10
850.0
 20
0.035776
 30
580.0
 70
    64
  0
VERTEX
  5
163
  8
TEAM-NET
 10
-800.0
 20
0.035776
 30
580.0
 70
    64
  0
VERTEX
  5
164
  8
TEAM-NET
 10
-799.251389
 20
-64.962318
 30
580.0
 70
    64
  0
VERTEX
  5
165
  8
TEAM-NET
 10
-792.954664
 20
-129.659025
 30
580.0
 70
    64
  0
VERTEX
  5
166
  8
TEAM-NET
 10
-781.155835
 20
-193.581637
 30
580.0
 70
    64
  0
VERTEX
  5
167
  8
TEAM-NET
 10
-758.175877
 20
-253.977994
 30
580.0
 70
    64
  0
VERTEX
  5
168
  8
TEAM-NET
 10
-712.495098
 20
-299.534154
 30
580.0
 70
    64
  0
VERTEX
  5
169
  8
TEAM-NET
 10
-651.904304
 20
-321.689354
 30
580.0
 70
    64
  0
VERTEX
  5
16A
  8
TEAM-NET
 10
-587.049861
 20
-320.048487
 30
580.0
 70
    64
  0
VERTEX
  5
16B
  8
TEAM-NET
 10
-522.215367
 20
-315.111266
 30
580.0
 70
    64
  0
VERTEX
  5
16C
  8
TEAM-NET
 10
-457.380872
 20
-310.174045
 30
580.0
 70
    64
  0
VERTEX
  5
16D
  8
TEAM-NET
 10
-392.546377
 20
-305.236825
 30
580.0
 70
    64
  0
VERTEX
  5
16E
  8
TEAM-NET
 10
-327.711883
 20
-300.299604
 30
580.0
 70
    64
  0
VERTEX
  5
16F
  8
TEAM-NET
 10
-262.877388
 20
-295.362383
 30
580.0
 70
    64
  0
VERTEX
  5
170
  8
TEAM-NET
 10
-198.042894
 20
-290.425162
 30
580.0
 70
    64
  0
VERTEX
  5
171
  8
TEAM-NET
 10
-133.208399
 20
-285.487942
 30
580.0
 70
    64
  0
VERTEX
  5
172
  8
TEAM-NET
 10
-68.373904
 20
-280.550721
 30
580.0
 70
    64
  0
VERTEX
  5
173
  8
TEAM-NET
 10
-3.518841
 20
-276.084636
 30
580.0
 70
    64
  0
VERTEX
  5
174
  8
TEAM-NET
 10
57.48841
 20
-296.257594
 30
580.0
 70
    64
  0
VERTEX
  5
175
  8
TEAM-NET
 10
116.538498
 20
-322.886304
 30
580.0
 70
    64
  0
VERTEX
  5
176
  8
TEAM-NET
 10
181.419065
 20
-324.964224
 30
580.0
 70
    64
  0
VERTEX
  5
177
  8
TEAM-NET
 10
246.441276
 20
-324.964224
 30
580.0
 70
    64
  0
VERTEX
  5
178
  8
TEAM-NET
 10
311.463486
 20
-324.964224
 30
580.0
 70
    64
  0
VERTEX
  5
179
  8
TEAM-NET
 10
376.485696
 20
-324.964224
 30
580.0
 70
    64
  0
VERTEX
  5
17A
  8
TEAM-NET
 10
441.507907
 20
-324.964224
 30
580.0
 70
    64
  0
VERTEX
  5
17B
  8
TEAM-NET
 10
506.530117
 20
-324.964224
 30
580.0
 70
    64
  0
VERTEX
  5
17C
  8
TEAM-NET
 10
571.552328
 20
-324.964224
 30
580.0
 70
    64
  0
VERTEX
  5
17D
  8
TEAM-NET
 10
636.574538
 20
-324.964224
 30
580.0
 70
    64
  0
VERTEX
  5
17E
  8
TEAM-NET
 10
698.078105
 20
-307.553145
 30
580.0
 70
    64
  0
VERTEX
  5
17F
  8
TEAM-NET
 10
736.569363
 20
-256.568483
 30
580.0
 70
    64
  0
VERTEX
  5
180
  8
TEAM-NET
 10
753.294655
 20
-193.755155
 30
580.0
 70
    64
  0
VERTEX
  5
181
  8
TEAM-NET
 10
764.502452
 20
-129.727124
 30
580.0
 70
    64
  0
VERTEX
  5
182
  8
TEAM-NET
 10
770.085074
 20
-64.965734
 30
580.0
 70
    64
  0
VERTEX
  5
183
  8
TEAM-NET
 10
770.0
 20
0.035776
 30
580.0
 70
    64
  0
SEQEND
  5
184
  8
TEAM-NET
  0
POLYLINE
  5
185
  8
TEAM-BODY
 66
     1
 10
0.0
 20
0.0
 30
580.0
  0
VERTEX
  5
261
  8
TEAM-BODY
 10
770.0
 20
0.035776
 30
580.0
 42
-0.085811
  0
VERTEX
  5
262
  8
TEAM-BODY
 10
738.046284
 20
-251.729938
 30
580.0
 42
-0.336902
  0
VERTEX
  5
263
  8
TEAM-BODY
 10
641.694862
 20
-324.964224
 30
580.0
  0
VERTEX
  5
264
  8
TEAM-BODY
 10
136.818199
 20
-324.964224
 30
580.0
 42
-0.121466
  0
VERTEX
  5
265
  8
TEAM-BODY
 10
90.330453
 20
-313.501728
 30
580.0
  0
VERTEX
  5
266
  8
TEAM-BODY
 10
40.856543
 20
-287.52482
 30
580.0
 42
0.140795
  0
VERTEX
  5
267
  8
TEAM-BODY
 10
-13.224332
 20
-276.351018
 30
580.0
  0
VERTEX
  5
268
  8
TEAM-BODY
 10
-619.900414
 20
-322.550094
 30
580.0
 42
-0.375271
  0
VERTEX
  5
269
  8
TEAM-BODY
 10
-778.445535
 20
-205.002775
 30
580.0
 42
-0.068092
  0
VERTEX
  5
26A
  8
TEAM-BODY
 10
-800.0
 20
0.035776
 30
580.0
 42
-0.068092
  0
SEQEND
  5
26B
  8
TEAM-BODY
  0
TEXT
  5
186
  8
TEAM-TXT
 10
-834.7049
 20
336.042548
 30
580.0
 40
30.0
  1
team 111315
 41
0.7
 51
15.0
  7
TEAM
  0
ENDSEC
  0
EOF
