  0
SECTION
  2
HEADER
  9
$ACADVER
  1
AC1009
  9
$INSBASE
 10
0.0
 20
0.0
 30
0.0
  9
$EXTMIN
 10
-804.174686
 20
-354.176202
 30
-0.008844
  9
$EXTMAX
 10
804.174683
 20
354.176211
 30
580.008852
  9
$LIMMIN
 10
-804.174686
 20
-354.176202
  9
$LIMMAX
 10
804.174683
 20
354.176211
  9
$ORTHOMODE
 70
     1
  9
$REGENMODE
 70
     1
  9
$FILLMODE
 70
     1
  9
$QTEXTMODE
 70
     0
  9
$MIRRTEXT
 70
     0
  9
$DRAGMODE
 70
     2
  9
$LTSCALE
 40
25.0
  9
$OSMODE
 70
     0
  9
$ATTMODE
 70
     1
  9
$TEXTSIZE
 40
200.0
  9
$TRACEWID
 40
1.0
  9
$TEXTSTYLE
  7
STANDARD
  9
$CLAYER
  8
TEAM-MAS
  9
$CELTYPE
  6
BYLAYER
  9
$CECOLOR
 62
   256
  9
$DIMSCALE
 40
0.0
  9
$DIMASZ
 40
20.0
  9
$DIMEXO
 40
10.0
  9
$DIMDLI
 40
1.0
  9
$DIMRND
 40
0.0
  9
$DIMDLE
 40
0.0
  9
$DIMEXE
 40
1.0
  9
$DIMTP
 40
0.0
  9
$DIMTM
 40
0.0
  9
$DIMTXT
 40
35.0
  9
$DIMCEN
 40
1.0
  9
$DIMTSZ
 40
0.0
  9
$DIMTOL
 70
     0
  9
$DIMLIM
 70
     0
  9
$DIMTIH
 70
     0
  9
$DIMTOH
 70
     0
  9
$DIMSE1
 70
     0
  9
$DIMSE2
 70
     0
  9
$DIMTAD
 70
     0
  9
$DIMZIN
 70
     0
  9
$DIMBLK
  1

  9
$DIMASO
 70
     1
  9
$DIMSHO
 70
     0
  9
$DIMPOST
  1

  9
$DIMAPOST
  1

  9
$DIMALT
 70
     0
  9
$DIMALTD
 70
     2
  9
$DIMALTF
 40
25.4
  9
$DIMLFAC
 40
1.0
  9
$DIMTOFL
 70
     0
  9
$DIMTVP
 40
0.0
  9
$DIMTIX
 70
     0
  9
$DIMSOXD
 70
     0
  9
$DIMSAH
 70
     0
  9
$DIMBLK1
  1

  9
$DIMBLK2
  1

  9
$DIMSTYLE
  2
TEAM
  9
$DIMCLRD
 70
     9
  9
$DIMCLRE
 70
     9
  9
$DIMCLRT
 70
    11
  9
$DIMTFAC
 40
1.0
  9
$DIMGAP
 40
15.0
  9
$LUNITS
 70
     2
  9
$LUPREC
 70
     1
  9
$SKETCHINC
 40
1.0
  9
$FILLETRAD
 40
50.0
  9
$AUNITS
 70
     0
  9
$AUPREC
 70
     0
  9
$MENU
  1
ROPLANS
  9
$ELEVATION
 40
0.0
  9
$PELEVATION
 40
0.0
  9
$THICKNESS
 40
0.0
  9
$LIMCHECK
 70
     0
  9
$BLIPMODE
 70
     1
  9
$CHAMFERA
 40
0.0
  9
$CHAMFERB
 40
0.0
  9
$SKPOLY
 70
     0
  9
$TDCREATE
 40
2450392.957851
  9
$TDUPDATE
 40
2455493.646255
  9
$TDINDWG
 40
2.091996
  9
$TDUSRTIMER
 40
2.091996
  9
$USRTIMER
 70
     1
  9
$ANGBASE
 50
0.0
  9
$ANGDIR
 70
     0
  9
$PDMODE
 70
     0
  9
$PDSIZE
 40
0.0
  9
$PLINEWID
 40
0.0
  9
$COORDS
 70
     2
  9
$SPLFRAME
 70
     0
  9
$SPLINETYPE
 70
     6
  9
$SPLINESEGS
 70
     8
  9
$ATTDIA
 70
     0
  9
$ATTREQ
 70
     0
  9
$HANDLING
 70
     1
  9
$HANDSEED
  5
6B0
  9
$SURFTAB1
 70
    24
  9
$SURFTAB2
 70
    24
  9
$SURFTYPE
 70
     6
  9
$SURFU
 70
     6
  9
$SURFV
 70
     6
  9
$UCSNAME
  2

  9
$UCSORG
 10
0.0
 20
0.0
 30
0.0
  9
$UCSXDIR
 10
1.0
 20
0.0
 30
0.0
  9
$UCSYDIR
 10
0.0
 20
1.0
 30
0.0
  9
$PUCSNAME
  2

  9
$PUCSORG
 10
0.0
 20
0.0
 30
0.0
  9
$PUCSXDIR
 10
1.0
 20
0.0
 30
0.0
  9
$PUCSYDIR
 10
0.0
 20
1.0
 30
0.0
  9
$USERI1
 70
     0
  9
$USERI2
 70
     0
  9
$USERI3
 70
     0
  9
$USERI4
 70
     0
  9
$USERI5
 70
     0
  9
$USERR1
 40
0.0
  9
$USERR2
 40
0.0
  9
$USERR3
 40
0.0
  9
$USERR4
 40
0.0
  9
$USERR5
 40
0.0
  9
$WORLDVIEW
 70
     1
  9
$SHADEDGE
 70
     0
  9
$SHADEDIF
 70
    70
  9
$TILEMODE
 70
     1
  9
$MAXACTVP
 70
    16
  9
$PLIMCHECK
 70
     0
  9
$PEXTMIN
 10
-0.805942
 20
0.005011
 30
0.0
  9
$PEXTMAX
 10
20.250094
 20
11.356329
 30
0.0
  9
$PLIMMIN
 10
0.0
 20
0.0
  9
$PLIMMAX
 10
12.0
 20
9.0
  9
$UNITMODE
 70
     0
  9
$VISRETAIN
 70
     0
  9
$PLINEGEN
 70
     0
  9
$PSLTSCALE
 70
     0
  0
ENDSEC
  0
SECTION
  2
TABLES
  0
TABLE
  2
VPORT
 70
     2
  0
VPORT
  2
*ACTIVE
 70
     0
 10
0.0
 20
0.0
 11
1.0
 21
1.0
 12
-0.000002
 22
0.000005
 13
0.0
 23
0.0
 14
1.0
 24
1.0
 15
50.0
 25
50.0
 16
0.0
 26
0.0
 36
1.0
 17
0.0
 27
0.0
 37
0.0
 40
864.863177
 41
1.865779
 42
50.0
 43
0.0
 44
0.0
 50
0.0
 51
0.0
 71
     0
 72
   100
 73
     1
 74
     1
 75
     0
 76
     0
 77
     0
 78
     0
  0
ENDTAB
  0
TABLE
  2
LTYPE
 70
     1
  0
LTYPE
  2
CONTINUOUS
 70
     0
  3
Solid Line
 72
    65
 73
     0
 40
0.0
  0
ENDTAB
  0
TABLE
  2
LAYER
 70
     9
  0
LAYER
  2
0
 70
     0
 62
     7
  6
CONTINUOUS
  0
LAYER
  2
TEAM-BODY
 70
     0
 62
     2
  6
CONTINUOUS
  0
LAYER
  2
TEAM-MAS
 70
     0
 62
     9
  6
CONTINUOUS
  0
LAYER
  2
TEAM-TXT
 70
     0
 62
    11
  6
CONTINUOUS
  0
LAYER
  2
TEAM-DET1
 70
     0
 62
     4
  6
CONTINUOUS
  0
LAYER
  2
TEAM-KAN
 70
     0
 62
     6
  6
CONTINUOUS
  0
LAYER
  2
TEAM-DET3
 70
     0
 62
    14
  6
CONTINUOUS
  0
LAYER
  2
TEAM-NET
 70
     0
 62
    15
  6
CONTINUOUS
  0
LAYER
  2
TEAM-INSP
 70
     0
 62
     5
  6
CONTINUOUS
  0
ENDTAB
  0
TABLE
  2
STYLE
 70
     2
  0
STYLE
  2
STANDARD
 70
     0
 40
0.0
 41
1.0
 50
0.0
 71
     0
 42
200.0
  3
txt
  4

  0
STYLE
  2
TEAM
 70
     0
 40
0.0
 41
0.8
 50
15.0
 71
     0
 42
7.0
  3
ROMANS.shx
  4

  0
ENDTAB
  0
TABLE
  2
VIEW
 70
     0
  0
ENDTAB
  0
TABLE
  2
UCS
 70
     0
  0
ENDTAB
  0
TABLE
  2
APPID
 70
     1
  0
APPID
  2
ACAD
 70
     0
  0
ENDTAB
  0
TABLE
  2
DIMSTYLE
 70
     1
  0
DIMSTYLE
  2
TEAM
 70
     0
  3

  4

  5

  6

  7

 40
0.0
 41
20.0
 42
10.0
 43
1.0
 44
1.0
 45
0.0
 46
0.0
 47
0.0
 48
0.0
140
35.0
141
1.0
142
0.0
143
25.4
144
1.0
145
0.0
146
1.0
147
15.0
 71
     0
 72
     0
 73
     0
 74
     0
 75
     0
 76
     0
 77
     0
 78
     0
170
     0
171
     2
172
     0
173
     0
174
     0
175
     0
176
     9
177
     9
178
    11
  0
ENDTAB
  0
ENDSEC
  0
SECTION
  2
BLOCKS
  0
BLOCK
  8
0
  2
$MODEL_SPACE
 70
     0
 10
0.0
 20
0.0
 30
0.0
  3
$MODEL_SPACE
  1

  0
ENDBLK
  5
609
  8
0
  0
BLOCK
 67
     1
  8
0
  2
$PAPER_SPACE
 70
     0
 10
0.0
 20
0.0
 30
0.0
  3
$PAPER_SPACE
  1

  0
ENDBLK
  5
607
 67
     1
  8
0
  0
ENDSEC
  0
SECTION
  2
ENTITIES
  0
POLYLINE
  5
20
  8
TEAM-NET
 66
     1
 10
0.0
 20
0.0
 30
0.0
 70
    16
 71
     2
 72
    37
  0
VERTEX
  5
21
  8
TEAM-NET
 10
711.13922
 20
0.0
 30
580.0
 70
    64
  0
VERTEX
  5
22
  8
TEAM-NET
 10
705.417717
 20
48.611552
 30
580.0
 70
    64
  0
VERTEX
  5
23
  8
TEAM-NET
 10
691.88767
 20
95.651497
 30
580.0
 70
    64
  0
VERTEX
  5
24
  8
TEAM-NET
 10
670.907365
 20
139.874177
 30
580.0
 70
    64
  0
VERTEX
  5
25
  8
TEAM-NET
 10
643.03238
 20
180.108537
 30
580.0
 70
    64
  0
VERTEX
  5
26
  8
TEAM-NET
 10
609.000867
 20
215.289139
 30
580.0
 70
    64
  0
VERTEX
  5
27
  8
TEAM-NET
 10
569.71401
 20
244.484369
 30
580.0
 70
    64
  0
VERTEX
  5
28
  8
TEAM-NET
 10
526.212159
 20
266.921113
 30
580.0
 70
    64
  0
VERTEX
  5
29
  8
TEAM-NET
 10
479.647278
 20
282.005227
 30
580.0
 70
    64
  0
VERTEX
  5
2A
  8
TEAM-NET
 10
431.252447
 20
289.337271
 30
580.0
 70
    64
  0
VERTEX
  5
2B
  8
TEAM-NET
 10
382.26789
 20
290.000005
 30
580.0
 70
    64
  0
VERTEX
  5
2C
  8
TEAM-NET
 10
333.266622
 20
290.000005
 30
580.0
 70
    64
  0
VERTEX
  5
2D
  8
TEAM-NET
 10
284.265354
 20
290.000005
 30
580.0
 70
    64
  0
VERTEX
  5
2E
  8
TEAM-NET
 10
235.264086
 20
290.000005
 30
580.0
 70
    64
  0
VERTEX
  5
2F
  8
TEAM-NET
 10
186.262818
 20
290.000005
 30
580.0
 70
    64
  0
VERTEX
  5
30
  8
TEAM-NET
 10
137.26155
 20
290.000005
 30
580.0
 70
    64
  0
VERTEX
  5
31
  8
TEAM-NET
 10
88.260282
 20
290.000005
 30
580.0
 70
    64
  0
VERTEX
  5
32
  8
TEAM-NET
 10
39.259014
 20
290.000005
 30
580.0
 70
    64
  0
VERTEX
  5
33
  8
TEAM-NET
 10
-9.742255
 20
290.000005
 30
580.0
 70
    64
  0
VERTEX
  5
34
  8
TEAM-NET
 10
-58.743523
 20
290.000005
 30
580.0
 70
    64
  0
VERTEX
  5
35
  8
TEAM-NET
 10
-107.744791
 20
290.000005
 30
580.0
 70
    64
  0
VERTEX
  5
36
  8
TEAM-NET
 10
-156.746059
 20
290.000005
 30
580.0
 70
    64
  0
VERTEX
  5
37
  8
TEAM-NET
 10
-205.747327
 20
290.000005
 30
580.0
 70
    64
  0
VERTEX
  5
38
  8
TEAM-NET
 10
-254.748595
 20
290.000005
 30
580.0
 70
    64
  0
VERTEX
  5
39
  8
TEAM-NET
 10
-303.749863
 20
290.000005
 30
580.0
 70
    64
  0
VERTEX
  5
3A
  8
TEAM-NET
 10
-352.751131
 20
290.000005
 30
580.0
 70
    64
  0
VERTEX
  5
3B
  8
TEAM-NET
 10
-401.752399
 20
290.000005
 30
580.0
 70
    64
  0
VERTEX
  5
3C
  8
TEAM-NET
 10
-450.740208
 20
289.471293
 30
580.0
 70
    64
  0
VERTEX
  5
3D
  8
TEAM-NET
 10
-499.164788
 20
282.346117
 30
580.0
 70
    64
  0
VERTEX
  5
3E
  8
TEAM-NET
 10
-545.767354
 20
267.382533
 30
580.0
 70
    64
  0
VERTEX
  5
3F
  8
TEAM-NET
 10
-589.288156
 20
244.985036
 30
580.0
 70
    64
  0
VERTEX
  5
40
  8
TEAM-NET
 10
-628.550746
 20
215.759071
 30
580.0
 70
    64
  0
VERTEX
  5
41
  8
TEAM-NET
 10
-662.493786
 20
180.494668
 30
580.0
 70
    64
  0
VERTEX
  5
42
  8
TEAM-NET
 10
-690.199732
 20
140.145089
 30
580.0
 70
    64
  0
VERTEX
  5
43
  8
TEAM-NET
 10
-710.919644
 20
95.801055
 30
580.0
 70
    64
  0
VERTEX
  5
44
  8
TEAM-NET
 10
-724.093423
 20
48.661267
 30
580.0
 70
    64
  0
VERTEX
  5
45
  8
TEAM-NET
 10
-729.36496
 20
0.0
 30
580.0
 70
    64
  0
VERTEX
  5
46
  8
TEAM-NET
 10
580.625432
 20
0.0
 30
150.0
 70
    64
  0
VERTEX
  5
47
  8
TEAM-NET
 10
576.430191
 20
31.831791
 30
150.0
 70
    64
  0
VERTEX
  5
48
  8
TEAM-NET
 10
566.463737
 20
62.352811
 30
150.0
 70
    64
  0
VERTEX
  5
49
  8
TEAM-NET
 10
551.064692
 20
90.526068
 30
150.0
 70
    64
  0
VERTEX
  5
4A
  8
TEAM-NET
 10
530.756262
 20
115.394333
 30
150.0
 70
    64
  0
VERTEX
  5
4B
  8
TEAM-NET
 10
506.228455
 20
136.112672
 30
150.0
 70
    64
  0
VERTEX
  5
4C
  8
TEAM-NET
 10
478.314637
 20
151.977151
 30
150.0
 70
    64
  0
VERTEX
  5
4D
  8
TEAM-NET
 10
447.963219
 20
162.448751
 30
150.0
 70
    64
  0
VERTEX
  5
4E
  8
TEAM-NET
 10
416.205436
 20
167.171684
 30
150.0
 70
    64
  0
VERTEX
  5
4F
  8
TEAM-NET
 10
384.060847
 20
167.12056
 30
150.0
 70
    64
  0
VERTEX
  5
50
  8
TEAM-NET
 10
351.948027
 20
165.584096
 30
150.0
 70
    64
  0
VERTEX
  5
51
  8
TEAM-NET
 10
319.946883
 20
162.498537
 30
150.0
 70
    64
  0
VERTEX
  5
52
  8
TEAM-NET
 10
288.132098
 20
157.871081
 30
150.0
 70
    64
  0
VERTEX
  5
53
  8
TEAM-NET
 10
256.57792
 20
151.712531
 30
150.0
 70
    64
  0
VERTEX
  5
54
  8
TEAM-NET
 10
225.204695
 20
144.679961
 30
150.0
 70
    64
  0
VERTEX
  5
55
  8
TEAM-NET
 10
193.601472
 20
138.773031
 30
150.0
 70
    64
  0
VERTEX
  5
56
  8
TEAM-NET
 10
161.786237
 20
134.142006
 30
150.0
 70
    64
  0
VERTEX
  5
57
  8
TEAM-NET
 10
129.810482
 20
130.79438
 30
150.0
 70
    64
  0
VERTEX
  5
58
  8
TEAM-NET
 10
97.727022
 20
128.713789
 30
150.0
 70
    64
  0
VERTEX
  5
59
  8
TEAM-NET
 10
65.606761
 20
127.273828
 30
150.0
 70
    64
  0
VERTEX
  5
5A
  8
TEAM-NET
 10
33.472673
 20
126.185222
 30
150.0
 70
    64
  0
VERTEX
  5
5B
  8
TEAM-NET
 10
1.328601
 20
125.448102
 30
150.0
 70
    64
  0
VERTEX
  5
5C
  8
TEAM-NET
 10
-30.821609
 20
125.062556
 30
150.0
 70
    64
  0
VERTEX
  5
5D
  8
TEAM-NET
 10
-62.974156
 20
125.000002
 30
150.0
 70
    64
  0
VERTEX
  5
5E
  8
TEAM-NET
 10
-95.126838
 20
125.000002
 30
150.0
 70
    64
  0
VERTEX
  5
5F
  8
TEAM-NET
 10
-127.27952
 20
125.000002
 30
150.0
 70
    64
  0
VERTEX
  5
60
  8
TEAM-NET
 10
-159.432202
 20
125.000002
 30
150.0
 70
    64
  0
VERTEX
  5
61
  8
TEAM-NET
 10
-191.584885
 20
125.000002
 30
150.0
 70
    64
  0
VERTEX
  5
62
  8
TEAM-NET
 10
-223.737567
 20
125.000002
 30
150.0
 70
    64
  0
VERTEX
  5
63
  8
TEAM-NET
 10
-255.890249
 20
125.000002
 30
150.0
 70
    64
  0
VERTEX
  5
64
  8
TEAM-NET
 10
-288.034588
 20
124.807243
 30
150.0
 70
    64
  0
VERTEX
  5
65
  8
TEAM-NET
 10
-319.553956
 20
118.855512
 30
150.0
 70
    64
  0
VERTEX
  5
66
  8
TEAM-NET
 10
-348.771748
 20
105.618658
 30
150.0
 70
    64
  0
VERTEX
  5
67
  8
TEAM-NET
 10
-374.030406
 20
85.847623
 30
150.0
 70
    64
  0
VERTEX
  5
68
  8
TEAM-NET
 10
-393.896979
 20
60.664038
 30
150.0
 70
    64
  0
VERTEX
  5
69
  8
TEAM-NET
 10
-407.244415
 20
31.496597
 30
150.0
 70
    64
  0
VERTEX
  5
6A
  8
TEAM-NET
 10
-413.315498
 20
0.0
 30
150.0
 70
    64
  0
SEQEND
  5
6C
  8
TEAM-NET
  0
POLYLINE
  5
6D
  8
TEAM-NET
 66
     1
 10
0.0
 20
0.0
 30
0.0
 70
    16
 71
     2
 72
    37
  0
VERTEX
  5
6E
  8
TEAM-NET
 10
711.13922
 20
0.0
 30
580.0
 70
    64
  0
VERTEX
  5
6F
  8
TEAM-NET
 10
705.417717
 20
-48.611552
 30
580.0
 70
    64
  0
VERTEX
  5
70
  8
TEAM-NET
 10
691.88767
 20
-95.651497
 30
580.0
 70
    64
  0
VERTEX
  5
71
  8
TEAM-NET
 10
670.907365
 20
-139.874177
 30
580.0
 70
    64
  0
VERTEX
  5
72
  8
TEAM-NET
 10
643.03238
 20
-180.108537
 30
580.0
 70
    64
  0
VERTEX
  5
73
  8
TEAM-NET
 10
609.000867
 20
-215.289139
 30
580.0
 70
    64
  0
VERTEX
  5
74
  8
TEAM-NET
 10
569.71401
 20
-244.484369
 30
580.0
 70
    64
  0
VERTEX
  5
75
  8
TEAM-NET
 10
526.212159
 20
-266.921113
 30
580.0
 70
    64
  0
VERTEX
  5
76
  8
TEAM-NET
 10
479.647278
 20
-282.005227
 30
580.0
 70
    64
  0
VERTEX
  5
77
  8
TEAM-NET
 10
431.252447
 20
-289.337271
 30
580.0
 70
    64
  0
VERTEX
  5
78
  8
TEAM-NET
 10
382.26789
 20
-290.000005
 30
580.0
 70
    64
  0
VERTEX
  5
79
  8
TEAM-NET
 10
333.266622
 20
-290.000005
 30
580.0
 70
    64
  0
VERTEX
  5
7A
  8
TEAM-NET
 10
284.265354
 20
-290.000005
 30
580.0
 70
    64
  0
VERTEX
  5
7B
  8
TEAM-NET
 10
235.264086
 20
-290.000005
 30
580.0
 70
    64
  0
VERTEX
  5
7C
  8
TEAM-NET
 10
186.262818
 20
-290.000005
 30
580.0
 70
    64
  0
VERTEX
  5
7D
  8
TEAM-NET
 10
137.26155
 20
-290.000005
 30
580.0
 70
    64
  0
VERTEX
  5
7E
  8
TEAM-NET
 10
88.260282
 20
-290.000005
 30
580.0
 70
    64
  0
VERTEX
  5
7F
  8
TEAM-NET
 10
39.259014
 20
-290.000005
 30
580.0
 70
    64
  0
VERTEX
  5
80
  8
TEAM-NET
 10
-9.742255
 20
-290.000005
 30
580.0
 70
    64
  0
VERTEX
  5
81
  8
TEAM-NET
 10
-58.743523
 20
-290.000005
 30
580.0
 70
    64
  0
VERTEX
  5
82
  8
TEAM-NET
 10
-107.744791
 20
-290.000005
 30
580.0
 70
    64
  0
VERTEX
  5
83
  8
TEAM-NET
 10
-156.746059
 20
-290.000005
 30
580.0
 70
    64
  0
VERTEX
  5
84
  8
TEAM-NET
 10
-205.747327
 20
-290.000005
 30
580.0
 70
    64
  0
VERTEX
  5
85
  8
TEAM-NET
 10
-254.748595
 20
-290.000005
 30
580.0
 70
    64
  0
VERTEX
  5
86
  8
TEAM-NET
 10
-303.749863
 20
-290.000005
 30
580.0
 70
    64
  0
VERTEX
  5
87
  8
TEAM-NET
 10
-352.751131
 20
-290.000005
 30
580.0
 70
    64
  0
VERTEX
  5
88
  8
TEAM-NET
 10
-401.752399
 20
-290.000005
 30
580.0
 70
    64
  0
VERTEX
  5
89
  8
TEAM-NET
 10
-450.740208
 20
-289.471293
 30
580.0
 70
    64
  0
VERTEX
  5
8A
  8
TEAM-NET
 10
-499.164788
 20
-282.346117
 30
580.0
 70
    64
  0
VERTEX
  5
8B
  8
TEAM-NET
 10
-545.767354
 20
-267.382533
 30
580.0
 70
    64
  0
VERTEX
  5
8C
  8
TEAM-NET
 10
-589.288156
 20
-244.985036
 30
580.0
 70
    64
  0
VERTEX
  5
8D
  8
TEAM-NET
 10
-628.550746
 20
-215.759071
 30
580.0
 70
    64
  0
VERTEX
  5
8E
  8
TEAM-NET
 10
-662.493786
 20
-180.494668
 30
580.0
 70
    64
  0
VERTEX
  5
8F
  8
TEAM-NET
 10
-690.199732
 20
-140.145089
 30
580.0
 70
    64
  0
VERTEX
  5
90
  8
TEAM-NET
 10
-710.919644
 20
-95.801055
 30
580.0
 70
    64
  0
VERTEX
  5
91
  8
TEAM-NET
 10
-724.093423
 20
-48.661267
 30
580.0
 70
    64
  0
VERTEX
  5
92
  8
TEAM-NET
 10
-729.36496
 20
0.0
 30
580.0
 70
    64
  0
VERTEX
  5
93
  8
TEAM-NET
 10
580.625432
 20
0.0
 30
150.0
 70
    64
  0
VERTEX
  5
94
  8
TEAM-NET
 10
576.430191
 20
-31.831791
 30
150.0
 70
    64
  0
VERTEX
  5
95
  8
TEAM-NET
 10
566.463737
 20
-62.352811
 30
150.0
 70
    64
  0
VERTEX
  5
96
  8
TEAM-NET
 10
551.064692
 20
-90.526068
 30
150.0
 70
    64
  0
VERTEX
  5
97
  8
TEAM-NET
 10
530.756262
 20
-115.394333
 30
150.0
 70
    64
  0
VERTEX
  5
98
  8
TEAM-NET
 10
506.228455
 20
-136.112672
 30
150.0
 70
    64
  0
VERTEX
  5
99
  8
TEAM-NET
 10
478.314637
 20
-151.977151
 30
150.0
 70
    64
  0
VERTEX
  5
9A
  8
TEAM-NET
 10
447.963219
 20
-162.448751
 30
150.0
 70
    64
  0
VERTEX
  5
9B
  8
TEAM-NET
 10
416.205436
 20
-167.171684
 30
150.0
 70
    64
  0
VERTEX
  5
9C
  8
TEAM-NET
 10
384.060847
 20
-167.12056
 30
150.0
 70
    64
  0
VERTEX
  5
9D
  8
TEAM-NET
 10
351.948027
 20
-165.584096
 30
150.0
 70
    64
  0
VERTEX
  5
9E
  8
TEAM-NET
 10
319.946883
 20
-162.498537
 30
150.0
 70
    64
  0
VERTEX
  5
9F
  8
TEAM-NET
 10
288.132098
 20
-157.871081
 30
150.0
 70
    64
  0
VERTEX
  5
A0
  8
TEAM-NET
 10
256.57792
 20
-151.712531
 30
150.0
 70
    64
  0
VERTEX
  5
A1
  8
TEAM-NET
 10
225.204695
 20
-144.679961
 30
150.0
 70
    64
  0
VERTEX
  5
A2
  8
TEAM-NET
 10
193.601472
 20
-138.773031
 30
150.0
 70
    64
  0
VERTEX
  5
A3
  8
TEAM-NET
 10
161.786237
 20
-134.142006
 30
150.0
 70
    64
  0
VERTEX
  5
A4
  8
TEAM-NET
 10
129.810482
 20
-130.79438
 30
150.0
 70
    64
  0
VERTEX
  5
A5
  8
TEAM-NET
 10
97.727022
 20
-128.713789
 30
150.0
 70
    64
  0
VERTEX
  5
A6
  8
TEAM-NET
 10
65.606761
 20
-127.273828
 30
150.0
 70
    64
  0
VERTEX
  5
A7
  8
TEAM-NET
 10
33.472673
 20
-126.185222
 30
150.0
 70
    64
  0
VERTEX
  5
A8
  8
TEAM-NET
 10
1.328601
 20
-125.448102
 30
150.0
 70
    64
  0
VERTEX
  5
A9
  8
TEAM-NET
 10
-30.821609
 20
-125.062556
 30
150.0
 70
    64
  0
VERTEX
  5
AA
  8
TEAM-NET
 10
-62.974156
 20
-125.000002
 30
150.0
 70
    64
  0
VERTEX
  5
AB
  8
TEAM-NET
 10
-95.126838
 20
-125.000002
 30
150.0
 70
    64
  0
VERTEX
  5
AC
  8
TEAM-NET
 10
-127.27952
 20
-125.000002
 30
150.0
 70
    64
  0
VERTEX
  5
AD
  8
TEAM-NET
 10
-159.432202
 20
-125.000002
 30
150.0
 70
    64
  0
VERTEX
  5
AE
  8
TEAM-NET
 10
-191.584885
 20
-125.000002
 30
150.0
 70
    64
  0
VERTEX
  5
AF
  8
TEAM-NET
 10
-223.737567
 20
-125.000002
 30
150.0
 70
    64
  0
VERTEX
  5
B0
  8
TEAM-NET
 10
-255.890249
 20
-125.000002
 30
150.0
 70
    64
  0
VERTEX
  5
B1
  8
TEAM-NET
 10
-288.034588
 20
-124.807243
 30
150.0
 70
    64
  0
VERTEX
  5
B2
  8
TEAM-NET
 10
-319.553956
 20
-118.855512
 30
150.0
 70
    64
  0
VERTEX
  5
B3
  8
TEAM-NET
 10
-348.771748
 20
-105.618658
 30
150.0
 70
    64
  0
VERTEX
  5
B4
  8
TEAM-NET
 10
-374.030406
 20
-85.847623
 30
150.0
 70
    64
  0
VERTEX
  5
B5
  8
TEAM-NET
 10
-393.896979
 20
-60.664038
 30
150.0
 70
    64
  0
VERTEX
  5
B6
  8
TEAM-NET
 10
-407.244415
 20
-31.496597
 30
150.0
 70
    64
  0
VERTEX
  5
B7
  8
TEAM-NET
 10
-413.315498
 20
0.0
 30
150.0
 70
    64
  0
SEQEND
  5
B8
  8
TEAM-NET
  0
CIRCLE
  5
B9
  8
TEAM-INSP
 10
0.0
 20
0.0
 30
0.0
 40
10.0
  0
POLYLINE
  5
BB
  8
TEAM-NET
 66
     1
 10
0.0
 20
0.0
 30
0.0
 70
    16
 71
     2
 72
    37
  0
VERTEX
  5
BC
  8
TEAM-NET
 10
580.625432
 20
0.0
 30
150.0
 70
    64
  0
VERTEX
  5
BD
  8
TEAM-NET
 10
576.430191
 20
-31.831791
 30
150.0
 70
    64
  0
VERTEX
  5
BE
  8
TEAM-NET
 10
566.463737
 20
-62.352811
 30
150.0
 70
    64
  0
VERTEX
  5
BF
  8
TEAM-NET
 10
551.064692
 20
-90.526068
 30
150.0
 70
    64
  0
VERTEX
  5
C0
  8
TEAM-NET
 10
530.756262
 20
-115.394333
 30
150.0
 70
    64
  0
VERTEX
  5
C1
  8
TEAM-NET
 10
506.228455
 20
-136.112672
 30
150.0
 70
    64
  0
VERTEX
  5
C2
  8
TEAM-NET
 10
478.314637
 20
-151.977151
 30
150.0
 70
    64
  0
VERTEX
  5
C3
  8
TEAM-NET
 10
447.963219
 20
-162.448751
 30
150.0
 70
    64
  0
VERTEX
  5
C4
  8
TEAM-NET
 10
416.205436
 20
-167.171684
 30
150.0
 70
    64
  0
VERTEX
  5
C5
  8
TEAM-NET
 10
384.060847
 20
-167.12056
 30
150.0
 70
    64
  0
VERTEX
  5
C6
  8
TEAM-NET
 10
351.948027
 20
-165.584096
 30
150.0
 70
    64
  0
VERTEX
  5
C7
  8
TEAM-NET
 10
319.946883
 20
-162.498537
 30
150.0
 70
    64
  0
VERTEX
  5
C8
  8
TEAM-NET
 10
288.132098
 20
-157.871081
 30
150.0
 70
    64
  0
VERTEX
  5
C9
  8
TEAM-NET
 10
256.57792
 20
-151.712531
 30
150.0
 70
    64
  0
VERTEX
  5
CA
  8
TEAM-NET
 10
225.204695
 20
-144.679961
 30
150.0
 70
    64
  0
VERTEX
  5
CB
  8
TEAM-NET
 10
193.601472
 20
-138.773031
 30
150.0
 70
    64
  0
VERTEX
  5
CC
  8
TEAM-NET
 10
161.786237
 20
-134.142006
 30
150.0
 70
    64
  0
VERTEX
  5
CD
  8
TEAM-NET
 10
129.810482
 20
-130.79438
 30
150.0
 70
    64
  0
VERTEX
  5
CE
  8
TEAM-NET
 10
97.727022
 20
-128.713789
 30
150.0
 70
    64
  0
VERTEX
  5
CF
  8
TEAM-NET
 10
65.606761
 20
-127.273828
 30
150.0
 70
    64
  0
VERTEX
  5
D0
  8
TEAM-NET
 10
33.472673
 20
-126.185222
 30
150.0
 70
    64
  0
VERTEX
  5
D1
  8
TEAM-NET
 10
1.328601
 20
-125.448102
 30
150.0
 70
    64
  0
VERTEX
  5
D2
  8
TEAM-NET
 10
-30.821609
 20
-125.062556
 30
150.0
 70
    64
  0
VERTEX
  5
D3
  8
TEAM-NET
 10
-62.974156
 20
-125.000002
 30
150.0
 70
    64
  0
VERTEX
  5
D4
  8
TEAM-NET
 10
-95.126838
 20
-125.000002
 30
150.0
 70
    64
  0
VERTEX
  5
D5
  8
TEAM-NET
 10
-127.27952
 20
-125.000002
 30
150.0
 70
    64
  0
VERTEX
  5
D6
  8
TEAM-NET
 10
-159.432202
 20
-125.000002
 30
150.0
 70
    64
  0
VERTEX
  5
D7
  8
TEAM-NET
 10
-191.584885
 20
-125.000002
 30
150.0
 70
    64
  0
VERTEX
  5
D8
  8
TEAM-NET
 10
-223.737567
 20
-125.000002
 30
150.0
 70
    64
  0
VERTEX
  5
D9
  8
TEAM-NET
 10
-255.890249
 20
-125.000002
 30
150.0
 70
    64
  0
VERTEX
  5
DA
  8
TEAM-NET
 10
-288.034588
 20
-124.807243
 30
150.0
 70
    64
  0
VERTEX
  5
DB
  8
TEAM-NET
 10
-319.553956
 20
-118.855512
 30
150.0
 70
    64
  0
VERTEX
  5
DC
  8
TEAM-NET
 10
-348.771748
 20
-105.618658
 30
150.0
 70
    64
  0
VERTEX
  5
DD
  8
TEAM-NET
 10
-374.030406
 20
-85.847623
 30
150.0
 70
    64
  0
VERTEX
  5
DE
  8
TEAM-NET
 10
-393.896979
 20
-60.664038
 30
150.0
 70
    64
  0
VERTEX
  5
DF
  8
TEAM-NET
 10
-407.244415
 20
-31.496597
 30
150.0
 70
    64
  0
VERTEX
  5
E0
  8
TEAM-NET
 10
-413.315498
 20
0.0
 30
150.0
 70
    64
  0
VERTEX
  5
E1
  8
TEAM-NET
 10
580.625432
 20
0.0
 30
150.0
 70
    64
  0
VERTEX
  5
E2
  8
TEAM-NET
 10
576.430191
 20
31.831791
 30
150.0
 70
    64
  0
VERTEX
  5
E3
  8
TEAM-NET
 10
566.463737
 20
62.352811
 30
150.0
 70
    64
  0
VERTEX
  5
E4
  8
TEAM-NET
 10
551.064692
 20
90.526068
 30
150.0
 70
    64
  0
VERTEX
  5
E5
  8
TEAM-NET
 10
530.756262
 20
115.394333
 30
150.0
 70
    64
  0
VERTEX
  5
E6
  8
TEAM-NET
 10
506.228455
 20
136.112672
 30
150.0
 70
    64
  0
VERTEX
  5
E7
  8
TEAM-NET
 10
478.314637
 20
151.977151
 30
150.0
 70
    64
  0
VERTEX
  5
E8
  8
TEAM-NET
 10
447.963219
 20
162.448751
 30
150.0
 70
    64
  0
VERTEX
  5
E9
  8
TEAM-NET
 10
416.205436
 20
167.171684
 30
150.0
 70
    64
  0
VERTEX
  5
EA
  8
TEAM-NET
 10
384.060847
 20
167.12056
 30
150.0
 70
    64
  0
VERTEX
  5
EB
  8
TEAM-NET
 10
351.948027
 20
165.584096
 30
150.0
 70
    64
  0
VERTEX
  5
EC
  8
TEAM-NET
 10
319.946883
 20
162.498537
 30
150.0
 70
    64
  0
VERTEX
  5
ED
  8
TEAM-NET
 10
288.132098
 20
157.871081
 30
150.0
 70
    64
  0
VERTEX
  5
EE
  8
TEAM-NET
 10
256.57792
 20
151.712531
 30
150.0
 70
    64
  0
VERTEX
  5
EF
  8
TEAM-NET
 10
225.204695
 20
144.679961
 30
150.0
 70
    64
  0
VERTEX
  5
F0
  8
TEAM-NET
 10
193.601472
 20
138.773031
 30
150.0
 70
    64
  0
VERTEX
  5
F1
  8
TEAM-NET
 10
161.786237
 20
134.142006
 30
150.0
 70
    64
  0
VERTEX
  5
F2
  8
TEAM-NET
 10
129.810482
 20
130.79438
 30
150.0
 70
    64
  0
VERTEX
  5
F3
  8
TEAM-NET
 10
97.727022
 20
128.713789
 30
150.0
 70
    64
  0
VERTEX
  5
F4
  8
TEAM-NET
 10
65.606761
 20
127.273828
 30
150.0
 70
    64
  0
VERTEX
  5
F5
  8
TEAM-NET
 10
33.472673
 20
126.185222
 30
150.0
 70
    64
  0
VERTEX
  5
F6
  8
TEAM-NET
 10
1.328601
 20
125.448102
 30
150.0
 70
    64
  0
VERTEX
  5
F7
  8
TEAM-NET
 10
-30.821609
 20
125.062556
 30
150.0
 70
    64
  0
VERTEX
  5
F8
  8
TEAM-NET
 10
-62.974156
 20
125.000002
 30
150.0
 70
    64
  0
VERTEX
  5
F9
  8
TEAM-NET
 10
-95.126838
 20
125.000002
 30
150.0
 70
    64
  0
VERTEX
  5
FA
  8
TEAM-NET
 10
-127.27952
 20
125.000002
 30
150.0
 70
    64
  0
VERTEX
  5
FB
  8
TEAM-NET
 10
-159.432202
 20
125.000002
 30
150.0
 70
    64
  0
VERTEX
  5
FC
  8
TEAM-NET
 10
-191.584885
 20
125.000002
 30
150.0
 70
    64
  0
VERTEX
  5
FD
  8
TEAM-NET
 10
-223.737567
 20
125.000002
 30
150.0
 70
    64
  0
VERTEX
  5
FE
  8
TEAM-NET
 10
-255.890249
 20
125.000002
 30
150.0
 70
    64
  0
VERTEX
  5
FF
  8
TEAM-NET
 10
-288.034588
 20
124.807243
 30
150.0
 70
    64
  0
VERTEX
  5
100
  8
TEAM-NET
 10
-319.553956
 20
118.855512
 30
150.0
 70
    64
  0
VERTEX
  5
101
  8
TEAM-NET
 10
-348.771748
 20
105.618658
 30
150.0
 70
    64
  0
VERTEX
  5
102
  8
TEAM-NET
 10
-374.030406
 20
85.847623
 30
150.0
 70
    64
  0
VERTEX
  5
103
  8
TEAM-NET
 10
-393.896979
 20
60.664038
 30
150.0
 70
    64
  0
VERTEX
  5
104
  8
TEAM-NET
 10
-407.244415
 20
31.496597
 30
150.0
 70
    64
  0
VERTEX
  5
105
  8
TEAM-NET
 10
-413.315498
 20
0.0
 30
150.0
 70
    64
  0
SEQEND
  5
106
  8
TEAM-NET
  0
POLYLINE
  5
107
  8
TEAM-BODY
 66
     1
 10
0.0
 20
0.0
 30
150.0
  0
VERTEX
  5
60F
  8
TEAM-BODY
 10
580.625432
 20
0.0
 30
150.0
 42
-0.414254
  0
VERTEX
  5
610
  8
TEAM-BODY
 10
399.799994
 20
-167.306703
 30
150.0
 42
-0.058122
  0
VERTEX
  5
611
  8
TEAM-BODY
 10
246.638221
 20
-149.442097
 30
150.0
 42
0.044984
  0
VERTEX
  5
612
  8
TEAM-BODY
 10
104.582527
 20
-129.06672
 30
150.0
 42
0.013152
  0
VERTEX
  5
613
  8
TEAM-BODY
 10
-50.000013
 20
-125.000002
 30
150.0
  0
VERTEX
  5
614
  8
TEAM-BODY
 10
-273.500018
 20
-125.000002
 30
150.0
 42
-0.405363
  0
VERTEX
  5
615
  8
TEAM-BODY
 10
-413.315498
 20
0.0
 30
150.0
  0
SEQEND
  5
616
  8
TEAM-BODY
  0
POLYLINE
  5
109
  8
TEAM-BODY
 66
     1
 10
0.0
 20
0.0
 30
150.0
  0
VERTEX
  5
617
  8
TEAM-BODY
 10
580.625432
 20
0.0
 30
150.0
 42
0.414254
  0
VERTEX
  5
618
  8
TEAM-BODY
 10
399.799994
 20
167.306703
 30
150.0
 42
0.058122
  0
VERTEX
  5
619
  8
TEAM-BODY
 10
246.638221
 20
149.442097
 30
150.0
 42
-0.044984
  0
VERTEX
  5
61A
  8
TEAM-BODY
 10
104.582527
 20
129.06672
 30
150.0
 42
-0.013152
  0
VERTEX
  5
61B
  8
TEAM-BODY
 10
-50.000013
 20
125.000002
 30
150.0
  0
VERTEX
  5
61C
  8
TEAM-BODY
 10
-273.500018
 20
125.000002
 30
150.0
 42
0.405363
  0
VERTEX
  5
61D
  8
TEAM-BODY
 10
-413.315498
 20
0.0
 30
150.0
  0
SEQEND
  5
61E
  8
TEAM-BODY
  0
ARC
  5
10A
  8
TEAM-DET1
 10
294.451787
 20
1.35631
 30
150.0
 40
134.457139
 50
180.57797
 51
239.9263
  0
ARC
  5
10C
  8
TEAM-DET1
 10
294.451787
 20
-1.35631
 30
150.0
 40
134.457139
 50
120.0737
 51
179.42203
  0
CIRCLE
  5
10D
  8
TEAM-KAN
 10
224.999991
 20
0.0
 30
150.0
 40
26.0
  0
CIRCLE
  5
10F
  8
TEAM-DET1
 10
224.999991
 20
0.0
 30
150.0
 40
45.000001
  0
POLYLINE
  5
110
  8
TEAM-BODY
 66
     1
 10
0.0
 20
0.0
 30
580.0
 39
-30.0
  0
VERTEX
  5
61F
  8
TEAM-BODY
 10
800.0
 20
0.0
 30
580.0
  0
VERTEX
  5
620
  8
TEAM-BODY
 10
800.0
 20
-330.000006
 30
580.0
 42
-0.414214
  0
VERTEX
  5
621
  8
TEAM-BODY
 10
780.0
 20
-350.000006
 30
580.0
  0
VERTEX
  5
622
  8
TEAM-BODY
 10
-780.000025
 20
-350.000006
 30
580.0
 42
-0.414214
  0
VERTEX
  5
623
  8
TEAM-BODY
 10
-800.000025
 20
-330.000006
 30
580.0
  0
VERTEX
  5
624
  8
TEAM-BODY
 10
-800.000025
 20
0.0
 30
580.0
  0
SEQEND
  5
625
  8
TEAM-BODY
  0
POLYLINE
  5
111
  8
TEAM-BODY
 66
     1
 10
0.0
 20
0.0
 30
580.0
 39
-30.0
  0
VERTEX
  5
626
  8
TEAM-BODY
 10
800.0
 20
0.0
 30
580.0
  0
VERTEX
  5
627
  8
TEAM-BODY
 10
800.0
 20
330.000006
 30
580.0
 42
0.414214
  0
VERTEX
  5
628
  8
TEAM-BODY
 10
780.0
 20
350.000006
 30
580.0
  0
VERTEX
  5
629
  8
TEAM-BODY
 10
-780.000025
 20
350.000006
 30
580.0
 42
0.414214
  0
VERTEX
  5
62A
  8
TEAM-BODY
 10
-800.000025
 20
330.000006
 30
580.0
  0
VERTEX
  5
62B
  8
TEAM-BODY
 10
-800.000025
 20
0.0
 30
580.0
  0
SEQEND
  5
62C
  8
TEAM-BODY
  0
ARC
  5
112
  8
TEAM-DET3
 10
-52.50389
 20
-430.667
 30
530.0
 40
195.745875
 50
45.940702
 51
134.059298
  0
ARC
  5
114
  8
TEAM-DET3
 10
-52.50389
 20
430.667
 30
530.0
 40
195.745875
 50
225.940702
 51
314.059298
  0
ARC
  5
115
  8
TEAM-DET3
 10
-52.50389
 20
-430.667
 30
530.0
 40
175.745875
 50
53.168315
 51
126.831685
  0
ARC
  5
116
  8
TEAM-DET3
 10
-52.50389
 20
430.667
 30
530.0
 40
175.745875
 50
233.168315
 51
306.831685
  0
POLYLINE
  5
117
  8
TEAM-KAN
 66
     1
 10
0.0
 20
0.0
 30
530.0
  0
VERTEX
  5
62D
  8
TEAM-KAN
 10
249.179991
 20
-283.090005
 30
530.0
  0
VERTEX
  5
62E
  8
TEAM-KAN
 10
249.729991
 20
-282.900005
 30
530.0
  0
VERTEX
  5
62F
  8
TEAM-KAN
 10
250.189991
 20
-282.710005
 30
530.0
  0
VERTEX
  5
630
  8
TEAM-KAN
 10
250.539991
 20
-282.510005
 30
530.0
  0
VERTEX
  5
631
  8
TEAM-KAN
 10
250.799991
 20
-282.310005
 30
530.0
  0
VERTEX
  5
632
  8
TEAM-KAN
 10
250.949991
 20
-282.120005
 30
530.0
  0
VERTEX
  5
633
  8
TEAM-KAN
 10
250.999991
 20
-281.910005
 30
530.0
  0
SEQEND
  5
634
  8
TEAM-KAN
  0
POLYLINE
  5
118
  8
TEAM-KAN
 66
     1
 10
0.0
 20
0.0
 30
530.0
  0
VERTEX
  5
635
  8
TEAM-KAN
 10
199.45999
 20
-281.320005
 30
530.0
  0
VERTEX
  5
636
  8
TEAM-KAN
 10
199.20999
 20
-281.510005
 30
530.0
  0
VERTEX
  5
637
  8
TEAM-KAN
 10
199.05999
 20
-281.710005
 30
530.0
  0
VERTEX
  5
638
  8
TEAM-KAN
 10
198.99999
 20
-281.910005
 30
530.0
  0
VERTEX
  5
639
  8
TEAM-KAN
 10
199.05999
 20
-282.120005
 30
530.0
  0
VERTEX
  5
63A
  8
TEAM-KAN
 10
199.20999
 20
-282.310005
 30
530.0
  0
VERTEX
  5
63B
  8
TEAM-KAN
 10
199.45999
 20
-282.510005
 30
530.0
  0
VERTEX
  5
63C
  8
TEAM-KAN
 10
199.81999
 20
-282.710005
 30
530.0
  0
VERTEX
  5
63D
  8
TEAM-KAN
 10
200.27999
 20
-282.900005
 30
530.0
  0
VERTEX
  5
63E
  8
TEAM-KAN
 10
200.82999
 20
-283.090005
 30
530.0
  0
VERTEX
  5
63F
  8
TEAM-KAN
 10
201.47999
 20
-283.270005
 30
530.0
  0
VERTEX
  5
640
  8
TEAM-KAN
 10
202.21999
 20
-283.450005
 30
530.0
  0
VERTEX
  5
641
  8
TEAM-KAN
 10
203.04999
 20
-283.620005
 30
530.0
  0
VERTEX
  5
642
  8
TEAM-KAN
 10
203.96999
 20
-283.790005
 30
530.0
  0
VERTEX
  5
643
  8
TEAM-KAN
 10
204.96999
 20
-283.950005
 30
530.0
  0
VERTEX
  5
644
  8
TEAM-KAN
 10
206.04999
 20
-284.100005
 30
530.0
  0
VERTEX
  5
645
  8
TEAM-KAN
 10
207.19999
 20
-284.240005
 30
530.0
  0
VERTEX
  5
646
  8
TEAM-KAN
 10
208.42999
 20
-284.370005
 30
530.0
  0
VERTEX
  5
647
  8
TEAM-KAN
 10
209.71999
 20
-284.490005
 30
530.0
  0
VERTEX
  5
648
  8
TEAM-KAN
 10
211.06999
 20
-284.610005
 30
530.0
  0
VERTEX
  5
649
  8
TEAM-KAN
 10
212.47999
 20
-284.710005
 30
530.0
  0
VERTEX
  5
64A
  8
TEAM-KAN
 10
213.92999
 20
-284.800005
 30
530.0
  0
VERTEX
  5
64B
  8
TEAM-KAN
 10
215.42999
 20
-284.880005
 30
530.0
  0
VERTEX
  5
64C
  8
TEAM-KAN
 10
216.969991
 20
-284.950005
 30
530.0
  0
VERTEX
  5
64D
  8
TEAM-KAN
 10
218.539991
 20
-285.000005
 30
530.0
  0
VERTEX
  5
64E
  8
TEAM-KAN
 10
220.129991
 20
-285.050005
 30
530.0
  0
VERTEX
  5
64F
  8
TEAM-KAN
 10
221.749991
 20
-285.080005
 30
530.0
  0
VERTEX
  5
650
  8
TEAM-KAN
 10
223.369991
 20
-285.100005
 30
530.0
  0
VERTEX
  5
651
  8
TEAM-KAN
 10
224.999991
 20
-285.100005
 30
530.0
  0
VERTEX
  5
652
  8
TEAM-KAN
 10
226.639991
 20
-285.100005
 30
530.0
  0
VERTEX
  5
653
  8
TEAM-KAN
 10
228.259991
 20
-285.080005
 30
530.0
  0
VERTEX
  5
654
  8
TEAM-KAN
 10
229.879991
 20
-285.050005
 30
530.0
  0
VERTEX
  5
655
  8
TEAM-KAN
 10
231.469991
 20
-285.000005
 30
530.0
  0
VERTEX
  5
656
  8
TEAM-KAN
 10
233.039991
 20
-284.950005
 30
530.0
  0
VERTEX
  5
657
  8
TEAM-KAN
 10
234.579991
 20
-284.880005
 30
530.0
  0
VERTEX
  5
658
  8
TEAM-KAN
 10
236.069991
 20
-284.800005
 30
530.0
  0
VERTEX
  5
659
  8
TEAM-KAN
 10
237.529991
 20
-284.710005
 30
530.0
  0
VERTEX
  5
65A
  8
TEAM-KAN
 10
238.929991
 20
-284.610005
 30
530.0
  0
VERTEX
  5
65B
  8
TEAM-KAN
 10
240.289991
 20
-284.490005
 30
530.0
  0
VERTEX
  5
65C
  8
TEAM-KAN
 10
241.579991
 20
-284.370005
 30
530.0
  0
VERTEX
  5
65D
  8
TEAM-KAN
 10
242.799991
 20
-284.240005
 30
530.0
  0
VERTEX
  5
65E
  8
TEAM-KAN
 10
243.959991
 20
-284.100005
 30
530.0
  0
VERTEX
  5
65F
  8
TEAM-KAN
 10
245.039991
 20
-283.950005
 30
530.0
  0
VERTEX
  5
660
  8
TEAM-KAN
 10
246.039991
 20
-283.790005
 30
530.0
  0
VERTEX
  5
661
  8
TEAM-KAN
 10
246.959991
 20
-283.620005
 30
530.0
  0
VERTEX
  5
662
  8
TEAM-KAN
 10
247.789991
 20
-283.450005
 30
530.0
  0
VERTEX
  5
663
  8
TEAM-KAN
 10
248.529991
 20
-283.270005
 30
530.0
  0
VERTEX
  5
664
  8
TEAM-KAN
 10
249.179991
 20
-283.090005
 30
530.0
  0
SEQEND
  5
665
  8
TEAM-KAN
  0
POLYLINE
  5
119
  8
TEAM-KAN
 66
     1
 10
0.0
 20
0.0
 30
530.0
  0
VERTEX
  5
666
  8
TEAM-KAN
 10
250.999991
 20
-281.910005
 30
530.0
  0
VERTEX
  5
667
  8
TEAM-KAN
 10
250.949991
 20
-281.710005
 30
530.0
  0
VERTEX
  5
668
  8
TEAM-KAN
 10
250.799991
 20
-281.510005
 30
530.0
  0
VERTEX
  5
669
  8
TEAM-KAN
 10
250.539991
 20
-281.320005
 30
530.0
  0
VERTEX
  5
66A
  8
TEAM-KAN
 10
250.189991
 20
-281.120005
 30
530.0
  0
VERTEX
  5
66B
  8
TEAM-KAN
 10
249.729991
 20
-280.930005
 30
530.0
  0
VERTEX
  5
66C
  8
TEAM-KAN
 10
249.179991
 20
-280.740005
 30
530.0
  0
VERTEX
  5
66D
  8
TEAM-KAN
 10
248.529991
 20
-280.560005
 30
530.0
  0
VERTEX
  5
66E
  8
TEAM-KAN
 10
247.789991
 20
-280.380005
 30
530.0
  0
VERTEX
  5
66F
  8
TEAM-KAN
 10
246.959991
 20
-280.210005
 30
530.0
  0
VERTEX
  5
670
  8
TEAM-KAN
 10
246.039991
 20
-280.040005
 30
530.0
  0
VERTEX
  5
671
  8
TEAM-KAN
 10
245.039991
 20
-279.880005
 30
530.0
  0
VERTEX
  5
672
  8
TEAM-KAN
 10
243.959991
 20
-279.730005
 30
530.0
  0
VERTEX
  5
673
  8
TEAM-KAN
 10
242.799991
 20
-279.590005
 30
530.0
  0
VERTEX
  5
674
  8
TEAM-KAN
 10
241.579991
 20
-279.460005
 30
530.0
  0
VERTEX
  5
675
  8
TEAM-KAN
 10
240.289991
 20
-279.330005
 30
530.0
  0
VERTEX
  5
676
  8
TEAM-KAN
 10
238.929991
 20
-279.220005
 30
530.0
  0
VERTEX
  5
677
  8
TEAM-KAN
 10
237.529991
 20
-279.120005
 30
530.0
  0
VERTEX
  5
678
  8
TEAM-KAN
 10
236.069991
 20
-279.030005
 30
530.0
  0
VERTEX
  5
679
  8
TEAM-KAN
 10
234.579991
 20
-278.950005
 30
530.0
  0
VERTEX
  5
67A
  8
TEAM-KAN
 10
233.039991
 20
-278.880005
 30
530.0
  0
VERTEX
  5
67B
  8
TEAM-KAN
 10
231.469991
 20
-278.820005
 30
530.0
  0
VERTEX
  5
67C
  8
TEAM-KAN
 10
229.879991
 20
-278.780005
 30
530.0
  0
VERTEX
  5
67D
  8
TEAM-KAN
 10
228.259991
 20
-278.750005
 30
530.0
  0
VERTEX
  5
67E
  8
TEAM-KAN
 10
226.639991
 20
-278.730005
 30
530.0
  0
VERTEX
  5
67F
  8
TEAM-KAN
 10
224.999991
 20
-278.720005
 30
530.0
  0
VERTEX
  5
680
  8
TEAM-KAN
 10
223.369991
 20
-278.730005
 30
530.0
  0
VERTEX
  5
681
  8
TEAM-KAN
 10
221.749991
 20
-278.750005
 30
530.0
  0
VERTEX
  5
682
  8
TEAM-KAN
 10
220.129991
 20
-278.780005
 30
530.0
  0
VERTEX
  5
683
  8
TEAM-KAN
 10
218.539991
 20
-278.820005
 30
530.0
  0
VERTEX
  5
684
  8
TEAM-KAN
 10
216.969991
 20
-278.880005
 30
530.0
  0
VERTEX
  5
685
  8
TEAM-KAN
 10
215.42999
 20
-278.950005
 30
530.0
  0
VERTEX
  5
686
  8
TEAM-KAN
 10
213.92999
 20
-279.030005
 30
530.0
  0
VERTEX
  5
687
  8
TEAM-KAN
 10
212.47999
 20
-279.120005
 30
530.0
  0
VERTEX
  5
688
  8
TEAM-KAN
 10
211.06999
 20
-279.220005
 30
530.0
  0
VERTEX
  5
689
  8
TEAM-KAN
 10
209.71999
 20
-279.330005
 30
530.0
  0
VERTEX
  5
68A
  8
TEAM-KAN
 10
208.42999
 20
-279.460005
 30
530.0
  0
VERTEX
  5
68B
  8
TEAM-KAN
 10
207.19999
 20
-279.590005
 30
530.0
  0
VERTEX
  5
68C
  8
TEAM-KAN
 10
206.04999
 20
-279.730005
 30
530.0
  0
VERTEX
  5
68D
  8
TEAM-KAN
 10
204.96999
 20
-279.880005
 30
530.0
  0
VERTEX
  5
68E
  8
TEAM-KAN
 10
203.96999
 20
-280.040005
 30
530.0
  0
VERTEX
  5
68F
  8
TEAM-KAN
 10
203.04999
 20
-280.210005
 30
530.0
  0
VERTEX
  5
690
  8
TEAM-KAN
 10
202.21999
 20
-280.380005
 30
530.0
  0
VERTEX
  5
691
  8
TEAM-KAN
 10
201.47999
 20
-280.560005
 30
530.0
  0
VERTEX
  5
692
  8
TEAM-KAN
 10
200.82999
 20
-280.740005
 30
530.0
  0
VERTEX
  5
693
  8
TEAM-KAN
 10
200.27999
 20
-280.930005
 30
530.0
  0
VERTEX
  5
694
  8
TEAM-KAN
 10
199.81999
 20
-281.120005
 30
530.0
  0
VERTEX
  5
695
  8
TEAM-KAN
 10
199.45999
 20
-281.320005
 30
530.0
  0
SEQEND
  5
696
  8
TEAM-KAN
  0
LINE
  5
11A
  8
TEAM-KAN
 10
224.999991
 20
-285.100005
 30
530.0
 11
224.999991
 21
-278.720005
 31
530.0
  0
LINE
  5
11B
  8
TEAM-KAN
 10
250.999991
 20
-281.910005
 30
530.0
 11
198.99999
 21
-281.910005
 31
530.0
  0
TEXT
  5
11C
  8
TEAM-TXT
 10
-781.461361
 20
298.757617
 30
580.0
 40
30.0
  1
team 111371
 41
0.8
 51
15.0
  7
TEAM
  0
POLYLINE
  5
11F
  8
TEAM-NET
 66
     1
 10
0.0
 20
0.0
 30
0.0
 70
    16
 71
     2
 72
    37
  0
VERTEX
  5
120
  8
TEAM-NET
 10
711.13922
 20
0.0
 30
580.0
 70
    64
  0
VERTEX
  5
121
  8
TEAM-NET
 10
705.417717
 20
-48.611552
 30
580.0
 70
    64
  0
VERTEX
  5
122
  8
TEAM-NET
 10
691.88767
 20
-95.651497
 30
580.0
 70
    64
  0
VERTEX
  5
123
  8
TEAM-NET
 10
670.907365
 20
-139.874177
 30
580.0
 70
    64
  0
VERTEX
  5
124
  8
TEAM-NET
 10
643.03238
 20
-180.108537
 30
580.0
 70
    64
  0
VERTEX
  5
125
  8
TEAM-NET
 10
609.000867
 20
-215.289139
 30
580.0
 70
    64
  0
VERTEX
  5
126
  8
TEAM-NET
 10
569.71401
 20
-244.484369
 30
580.0
 70
    64
  0
VERTEX
  5
127
  8
TEAM-NET
 10
526.212159
 20
-266.921113
 30
580.0
 70
    64
  0
VERTEX
  5
128
  8
TEAM-NET
 10
479.647278
 20
-282.005227
 30
580.0
 70
    64
  0
VERTEX
  5
129
  8
TEAM-NET
 10
431.252447
 20
-289.337271
 30
580.0
 70
    64
  0
VERTEX
  5
12A
  8
TEAM-NET
 10
382.26789
 20
-290.000005
 30
580.0
 70
    64
  0
VERTEX
  5
12B
  8
TEAM-NET
 10
333.266622
 20
-290.000005
 30
580.0
 70
    64
  0
VERTEX
  5
12C
  8
TEAM-NET
 10
284.265354
 20
-290.000005
 30
580.0
 70
    64
  0
VERTEX
  5
12D
  8
TEAM-NET
 10
235.264086
 20
-290.000005
 30
580.0
 70
    64
  0
VERTEX
  5
12E
  8
TEAM-NET
 10
186.262818
 20
-290.000005
 30
580.0
 70
    64
  0
VERTEX
  5
12F
  8
TEAM-NET
 10
137.26155
 20
-290.000005
 30
580.0
 70
    64
  0
VERTEX
  5
130
  8
TEAM-NET
 10
88.260282
 20
-290.000005
 30
580.0
 70
    64
  0
VERTEX
  5
131
  8
TEAM-NET
 10
39.259014
 20
-290.000005
 30
580.0
 70
    64
  0
VERTEX
  5
132
  8
TEAM-NET
 10
-9.742255
 20
-290.000005
 30
580.0
 70
    64
  0
VERTEX
  5
133
  8
TEAM-NET
 10
-58.743523
 20
-290.000005
 30
580.0
 70
    64
  0
VERTEX
  5
134
  8
TEAM-NET
 10
-107.744791
 20
-290.000005
 30
580.0
 70
    64
  0
VERTEX
  5
135
  8
TEAM-NET
 10
-156.746059
 20
-290.000005
 30
580.0
 70
    64
  0
VERTEX
  5
136
  8
TEAM-NET
 10
-205.747327
 20
-290.000005
 30
580.0
 70
    64
  0
VERTEX
  5
137
  8
TEAM-NET
 10
-254.748595
 20
-290.000005
 30
580.0
 70
    64
  0
VERTEX
  5
138
  8
TEAM-NET
 10
-303.749863
 20
-290.000005
 30
580.0
 70
    64
  0
VERTEX
  5
139
  8
TEAM-NET
 10
-352.751131
 20
-290.000005
 30
580.0
 70
    64
  0
VERTEX
  5
13A
  8
TEAM-NET
 10
-401.752399
 20
-290.000005
 30
580.0
 70
    64
  0
VERTEX
  5
13B
  8
TEAM-NET
 10
-450.740208
 20
-289.471293
 30
580.0
 70
    64
  0
VERTEX
  5
13C
  8
TEAM-NET
 10
-499.164788
 20
-282.346117
 30
580.0
 70
    64
  0
VERTEX
  5
13D
  8
TEAM-NET
 10
-545.767354
 20
-267.382533
 30
580.0
 70
    64
  0
VERTEX
  5
13E
  8
TEAM-NET
 10
-589.288156
 20
-244.985036
 30
580.0
 70
    64
  0
VERTEX
  5
13F
  8
TEAM-NET
 10
-628.550746
 20
-215.759071
 30
580.0
 70
    64
  0
VERTEX
  5
140
  8
TEAM-NET
 10
-662.493786
 20
-180.494668
 30
580.0
 70
    64
  0
VERTEX
  5
141
  8
TEAM-NET
 10
-690.199732
 20
-140.145089
 30
580.0
 70
    64
  0
VERTEX
  5
142
  8
TEAM-NET
 10
-710.919644
 20
-95.801055
 30
580.0
 70
    64
  0
VERTEX
  5
143
  8
TEAM-NET
 10
-724.093423
 20
-48.661267
 30
580.0
 70
    64
  0
VERTEX
  5
144
  8
TEAM-NET
 10
-729.36496
 20
0.0
 30
580.0
 70
    64
  0
VERTEX
  5
145
  8
TEAM-NET
 10
800.0
 20
0.0
 30
580.0
 70
    64
  0
VERTEX
  5
146
  8
TEAM-NET
 10
800.0
 20
-63.411997
 30
580.0
 70
    64
  0
VERTEX
  5
147
  8
TEAM-NET
 10
800.0
 20
-126.823994
 30
580.0
 70
    64
  0
VERTEX
  5
148
  8
TEAM-NET
 10
800.0
 20
-190.235991
 30
580.0
 70
    64
  0
VERTEX
  5
149
  8
TEAM-NET
 10
800.0
 20
-253.647988
 30
580.0
 70
    64
  0
VERTEX
  5
14A
  8
TEAM-NET
 10
800.0
 20
-317.059985
 30
580.0
 70
    64
  0
VERTEX
  5
14B
  8
TEAM-NET
 10
760.943951
 20
-350.000006
 30
580.0
 70
    64
  0
VERTEX
  5
14C
  8
TEAM-NET
 10
697.531954
 20
-350.000006
 30
580.0
 70
    64
  0
VERTEX
  5
14D
  8
TEAM-NET
 10
634.119957
 20
-350.000006
 30
580.0
 70
    64
  0
VERTEX
  5
14E
  8
TEAM-NET
 10
570.70796
 20
-350.000006
 30
580.0
 70
    64
  0
VERTEX
  5
14F
  8
TEAM-NET
 10
507.295963
 20
-350.000006
 30
580.0
 70
    64
  0
VERTEX
  5
150
  8
TEAM-NET
 10
443.883966
 20
-350.000006
 30
580.0
 70
    64
  0
VERTEX
  5
151
  8
TEAM-NET
 10
380.471969
 20
-350.000006
 30
580.0
 70
    64
  0
VERTEX
  5
152
  8
TEAM-NET
 10
317.059972
 20
-350.000006
 30
580.0
 70
    64
  0
VERTEX
  5
153
  8
TEAM-NET
 10
253.647975
 20
-350.000006
 30
580.0
 70
    64
  0
VERTEX
  5
154
  8
TEAM-NET
 10
190.235978
 20
-350.000006
 30
580.0
 70
    64
  0
VERTEX
  5
155
  8
TEAM-NET
 10
126.823981
 20
-350.000006
 30
580.0
 70
    64
  0
VERTEX
  5
156
  8
TEAM-NET
 10
63.411984
 20
-350.000006
 30
580.0
 70
    64
  0
VERTEX
  5
157
  8
TEAM-NET
 10
-0.000013
 20
-350.000006
 30
580.0
 70
    64
  0
VERTEX
  5
158
  8
TEAM-NET
 10
-63.41201
 20
-350.000006
 30
580.0
 70
    64
  0
VERTEX
  5
159
  8
TEAM-NET
 10
-126.824007
 20
-350.000006
 30
580.0
 70
    64
  0
VERTEX
  5
15A
  8
TEAM-NET
 10
-190.236004
 20
-350.000006
 30
580.0
 70
    64
  0
VERTEX
  5
15B
  8
TEAM-NET
 10
-253.648001
 20
-350.000006
 30
580.0
 70
    64
  0
VERTEX
  5
15C
  8
TEAM-NET
 10
-317.059997
 20
-350.000006
 30
580.0
 70
    64
  0
VERTEX
  5
15D
  8
TEAM-NET
 10
-380.471994
 20
-350.000006
 30
580.0
 70
    64
  0
VERTEX
  5
15E
  8
TEAM-NET
 10
-443.883991
 20
-350.000006
 30
580.0
 70
    64
  0
VERTEX
  5
15F
  8
TEAM-NET
 10
-507.295988
 20
-350.000006
 30
580.0
 70
    64
  0
VERTEX
  5
160
  8
TEAM-NET
 10
-570.707985
 20
-350.000006
 30
580.0
 70
    64
  0
VERTEX
  5
161
  8
TEAM-NET
 10
-634.119982
 20
-350.000006
 30
580.0
 70
    64
  0
VERTEX
  5
162
  8
TEAM-NET
 10
-697.531979
 20
-350.000006
 30
580.0
 70
    64
  0
VERTEX
  5
163
  8
TEAM-NET
 10
-760.943976
 20
-350.000006
 30
580.0
 70
    64
  0
VERTEX
  5
164
  8
TEAM-NET
 10
-800.000025
 20
-317.059985
 30
580.0
 70
    64
  0
VERTEX
  5
165
  8
TEAM-NET
 10
-800.000025
 20
-253.647988
 30
580.0
 70
    64
  0
VERTEX
  5
166
  8
TEAM-NET
 10
-800.000025
 20
-190.235991
 30
580.0
 70
    64
  0
VERTEX
  5
167
  8
TEAM-NET
 10
-800.000025
 20
-126.823994
 30
580.0
 70
    64
  0
VERTEX
  5
168
  8
TEAM-NET
 10
-800.000025
 20
-63.411997
 30
580.0
 70
    64
  0
VERTEX
  5
169
  8
TEAM-NET
 10
-800.000025
 20
0.0
 30
580.0
 70
    64
  0
SEQEND
  5
16A
  8
TEAM-NET
  0
POLYLINE
  5
16B
  8
TEAM-NET
 66
     1
 10
0.0
 20
0.0
 30
0.0
 70
    16
 71
     2
 72
    37
  0
VERTEX
  5
16C
  8
TEAM-NET
 10
711.13922
 20
0.0
 30
580.0
 70
    64
  0
VERTEX
  5
16D
  8
TEAM-NET
 10
705.417717
 20
48.611552
 30
580.0
 70
    64
  0
VERTEX
  5
16E
  8
TEAM-NET
 10
691.88767
 20
95.651497
 30
580.0
 70
    64
  0
VERTEX
  5
16F
  8
TEAM-NET
 10
670.907365
 20
139.874177
 30
580.0
 70
    64
  0
VERTEX
  5
170
  8
TEAM-NET
 10
643.03238
 20
180.108537
 30
580.0
 70
    64
  0
VERTEX
  5
171
  8
TEAM-NET
 10
609.000867
 20
215.289139
 30
580.0
 70
    64
  0
VERTEX
  5
172
  8
TEAM-NET
 10
569.71401
 20
244.484369
 30
580.0
 70
    64
  0
VERTEX
  5
173
  8
TEAM-NET
 10
526.212159
 20
266.921113
 30
580.0
 70
    64
  0
VERTEX
  5
174
  8
TEAM-NET
 10
479.647278
 20
282.005227
 30
580.0
 70
    64
  0
VERTEX
  5
175
  8
TEAM-NET
 10
431.252447
 20
289.337271
 30
580.0
 70
    64
  0
VERTEX
  5
176
  8
TEAM-NET
 10
382.26789
 20
290.000005
 30
580.0
 70
    64
  0
VERTEX
  5
177
  8
TEAM-NET
 10
333.266622
 20
290.000005
 30
580.0
 70
    64
  0
VERTEX
  5
178
  8
TEAM-NET
 10
284.265354
 20
290.000005
 30
580.0
 70
    64
  0
VERTEX
  5
179
  8
TEAM-NET
 10
235.264086
 20
290.000005
 30
580.0
 70
    64
  0
VERTEX
  5
17A
  8
TEAM-NET
 10
186.262818
 20
290.000005
 30
580.0
 70
    64
  0
VERTEX
  5
17B
  8
TEAM-NET
 10
137.26155
 20
290.000005
 30
580.0
 70
    64
  0
VERTEX
  5
17C
  8
TEAM-NET
 10
88.260282
 20
290.000005
 30
580.0
 70
    64
  0
VERTEX
  5
17D
  8
TEAM-NET
 10
39.259014
 20
290.000005
 30
580.0
 70
    64
  0
VERTEX
  5
17E
  8
TEAM-NET
 10
-9.742255
 20
290.000005
 30
580.0
 70
    64
  0
VERTEX
  5
17F
  8
TEAM-NET
 10
-58.743523
 20
290.000005
 30
580.0
 70
    64
  0
VERTEX
  5
180
  8
TEAM-NET
 10
-107.744791
 20
290.000005
 30
580.0
 70
    64
  0
VERTEX
  5
181
  8
TEAM-NET
 10
-156.746059
 20
290.000005
 30
580.0
 70
    64
  0
VERTEX
  5
182
  8
TEAM-NET
 10
-205.747327
 20
290.000005
 30
580.0
 70
    64
  0
VERTEX
  5
183
  8
TEAM-NET
 10
-254.748595
 20
290.000005
 30
580.0
 70
    64
  0
VERTEX
  5
184
  8
TEAM-NET
 10
-303.749863
 20
290.000005
 30
580.0
 70
    64
  0
VERTEX
  5
185
  8
TEAM-NET
 10
-352.751131
 20
290.000005
 30
580.0
 70
    64
  0
VERTEX
  5
186
  8
TEAM-NET
 10
-401.752399
 20
290.000005
 30
580.0
 70
    64
  0
VERTEX
  5
187
  8
TEAM-NET
 10
-450.740208
 20
289.471293
 30
580.0
 70
    64
  0
VERTEX
  5
188
  8
TEAM-NET
 10
-499.164788
 20
282.346117
 30
580.0
 70
    64
  0
VERTEX
  5
189
  8
TEAM-NET
 10
-545.767354
 20
267.382533
 30
580.0
 70
    64
  0
VERTEX
  5
18A
  8
TEAM-NET
 10
-589.288156
 20
244.985036
 30
580.0
 70
    64
  0
VERTEX
  5
18B
  8
TEAM-NET
 10
-628.550746
 20
215.759071
 30
580.0
 70
    64
  0
VERTEX
  5
18C
  8
TEAM-NET
 10
-662.493786
 20
180.494668
 30
580.0
 70
    64
  0
VERTEX
  5
18D
  8
TEAM-NET
 10
-690.199732
 20
140.145089
 30
580.0
 70
    64
  0
VERTEX
  5
18E
  8
TEAM-NET
 10
-710.919644
 20
95.801055
 30
580.0
 70
    64
  0
VERTEX
  5
18F
  8
TEAM-NET
 10
-724.093423
 20
48.661267
 30
580.0
 70
    64
  0
VERTEX
  5
190
  8
TEAM-NET
 10
-729.36496
 20
0.0
 30
580.0
 70
    64
  0
VERTEX
  5
191
  8
TEAM-NET
 10
800.0
 20
0.0
 30
580.0
 70
    64
  0
VERTEX
  5
192
  8
TEAM-NET
 10
800.0
 20
63.411997
 30
580.0
 70
    64
  0
VERTEX
  5
193
  8
TEAM-NET
 10
800.0
 20
126.823994
 30
580.0
 70
    64
  0
VERTEX
  5
194
  8
TEAM-NET
 10
800.0
 20
190.235991
 30
580.0
 70
    64
  0
VERTEX
  5
195
  8
TEAM-NET
 10
800.0
 20
253.647988
 30
580.0
 70
    64
  0
VERTEX
  5
196
  8
TEAM-NET
 10
800.0
 20
317.059985
 30
580.0
 70
    64
  0
VERTEX
  5
197
  8
TEAM-NET
 10
760.943951
 20
350.000006
 30
580.0
 70
    64
  0
VERTEX
  5
198
  8
TEAM-NET
 10
697.531954
 20
350.000006
 30
580.0
 70
    64
  0
VERTEX
  5
199
  8
TEAM-NET
 10
634.119957
 20
350.000006
 30
580.0
 70
    64
  0
VERTEX
  5
19A
  8
TEAM-NET
 10
570.70796
 20
350.000006
 30
580.0
 70
    64
  0
VERTEX
  5
19B
  8
TEAM-NET
 10
507.295963
 20
350.000006
 30
580.0
 70
    64
  0
VERTEX
  5
19C
  8
TEAM-NET
 10
443.883966
 20
350.000006
 30
580.0
 70
    64
  0
VERTEX
  5
19D
  8
TEAM-NET
 10
380.471969
 20
350.000006
 30
580.0
 70
    64
  0
VERTEX
  5
19E
  8
TEAM-NET
 10
317.059972
 20
350.000006
 30
580.0
 70
    64
  0
VERTEX
  5
19F
  8
TEAM-NET
 10
253.647975
 20
350.000006
 30
580.0
 70
    64
  0
VERTEX
  5
1A0
  8
TEAM-NET
 10
190.235978
 20
350.000006
 30
580.0
 70
    64
  0
VERTEX
  5
1A1
  8
TEAM-NET
 10
126.823981
 20
350.000006
 30
580.0
 70
    64
  0
VERTEX
  5
1A2
  8
TEAM-NET
 10
63.411984
 20
350.000006
 30
580.0
 70
    64
  0
VERTEX
  5
1A3
  8
TEAM-NET
 10
-0.000013
 20
350.000006
 30
580.0
 70
    64
  0
VERTEX
  5
1A4
  8
TEAM-NET
 10
-63.41201
 20
350.000006
 30
580.0
 70
    64
  0
VERTEX
  5
1A5
  8
TEAM-NET
 10
-126.824007
 20
350.000006
 30
580.0
 70
    64
  0
VERTEX
  5
1A6
  8
TEAM-NET
 10
-190.236004
 20
350.000006
 30
580.0
 70
    64
  0
VERTEX
  5
1A7
  8
TEAM-NET
 10
-253.648001
 20
350.000006
 30
580.0
 70
    64
  0
VERTEX
  5
1A8
  8
TEAM-NET
 10
-317.059997
 20
350.000006
 30
580.0
 70
    64
  0
VERTEX
  5
1A9
  8
TEAM-NET
 10
-380.471994
 20
350.000006
 30
580.0
 70
    64
  0
VERTEX
  5
1AA
  8
TEAM-NET
 10
-443.883991
 20
350.000006
 30
580.0
 70
    64
  0
VERTEX
  5
1AB
  8
TEAM-NET
 10
-507.295988
 20
350.000006
 30
580.0
 70
    64
  0
VERTEX
  5
1AC
  8
TEAM-NET
 10
-570.707985
 20
350.000006
 30
580.0
 70
    64
  0
VERTEX
  5
1AD
  8
TEAM-NET
 10
-634.119982
 20
350.000006
 30
580.0
 70
    64
  0
VERTEX
  5
1AE
  8
TEAM-NET
 10
-697.531979
 20
350.000006
 30
580.0
 70
    64
  0
VERTEX
  5
1AF
  8
TEAM-NET
 10
-760.943976
 20
350.000006
 30
580.0
 70
    64
  0
VERTEX
  5
1B0
  8
TEAM-NET
 10
-800.000025
 20
317.059985
 30
580.0
 70
    64
  0
VERTEX
  5
1B1
  8
TEAM-NET
 10
-800.000025
 20
253.647988
 30
580.0
 70
    64
  0
VERTEX
  5
1B2
  8
TEAM-NET
 10
-800.000025
 20
190.235991
 30
580.0
 70
    64
  0
VERTEX
  5
1B3
  8
TEAM-NET
 10
-800.000025
 20
126.823994
 30
580.0
 70
    64
  0
VERTEX
  5
1B4
  8
TEAM-NET
 10
-800.000025
 20
63.411997
 30
580.0
 70
    64
  0
VERTEX
  5
1B5
  8
TEAM-NET
 10
-800.000025
 20
0.0
 30
580.0
 70
    64
  0
SEQEND
  5
1B6
  8
TEAM-NET
  0
POLYLINE
  5
1B7
  8
TEAM-DET1
 66
     1
 10
0.0
 20
0.0
 30
580.0
  0
VERTEX
  5
697
  8
TEAM-DET1
 10
-729.36496
 20
0.0
 30
580.0
 42
-0.413366
  0
VERTEX
  5
698
  8
TEAM-DET1
 10
-425.00002
 20
290.000005
 30
580.0
  0
VERTEX
  5
699
  8
TEAM-DET1
 10
404.999994
 20
290.000005
 30
580.0
 42
-0.409162
  0
VERTEX
  5
69A
  8
TEAM-DET1
 10
711.13922
 20
0.0
 30
580.0
  0
SEQEND
  5
69B
  8
TEAM-DET1
  0
POLYLINE
  5
1B8
  8
TEAM-DET1
 66
     1
 10
0.0
 20
0.0
 30
580.0
  0
VERTEX
  5
69C
  8
TEAM-DET1
 10
-729.36496
 20
0.0
 30
580.0
 42
0.413366
  0
VERTEX
  5
69D
  8
TEAM-DET1
 10
-425.00002
 20
-290.000005
 30
580.0
  0
VERTEX
  5
69E
  8
TEAM-DET1
 10
404.999994
 20
-290.000005
 30
580.0
 42
0.409162
  0
VERTEX
  5
69F
  8
TEAM-DET1
 10
711.13922
 20
0.0
 30
580.0
  0
SEQEND
  5
6A0
  8
TEAM-DET1
  0
POLYLINE
  5
1B9
  8
TEAM-DET1
 66
     1
 10
0.0
 20
0.0
 30
580.0
  0
VERTEX
  5
6A1
  8
TEAM-DET1
 10
-514.95667
 20
-178.257943
 30
580.0
 42
0.146584
  0
VERTEX
  5
6A2
  8
TEAM-DET1
 10
-350.000019
 20
-227.680004
 30
580.0
  0
VERTEX
  5
6A3
  8
TEAM-DET1
 10
-50.000013
 20
-227.680004
 30
580.0
 42
-0.01519
  0
VERTEX
  5
6A4
  8
TEAM-DET1
 10
122.439294
 20
-232.919928
 30
580.0
 42
-0.037297
  0
VERTEX
  5
6A5
  8
TEAM-DET1
 10
196.386699
 20
-242.998212
 30
580.0
 42
0.052588
  0
VERTEX
  5
6A6
  8
TEAM-DET1
 10
404.999994
 20
-265.000004
 30
580.0
  0
SEQEND
  5
6A7
  8
TEAM-DET1
  0
POLYLINE
  5
1BA
  8
TEAM-DET1
 66
     1
 10
0.0
 20
0.0
 30
580.0
  0
VERTEX
  5
6A8
  8
TEAM-DET1
 10
-514.95667
 20
178.257943
 30
580.0
 42
-0.146584
  0
VERTEX
  5
6A9
  8
TEAM-DET1
 10
-350.000019
 20
227.680004
 30
580.0
  0
VERTEX
  5
6AA
  8
TEAM-DET1
 10
-50.000013
 20
227.680004
 30
580.0
 42
0.01519
  0
VERTEX
  5
6AB
  8
TEAM-DET1
 10
122.439294
 20
232.919928
 30
580.0
 42
0.037297
  0
VERTEX
  5
6AC
  8
TEAM-DET1
 10
196.386699
 20
242.998212
 30
580.0
 42
-0.052588
  0
VERTEX
  5
6AD
  8
TEAM-DET1
 10
404.999994
 20
265.000004
 30
580.0
  0
SEQEND
  5
6AE
  8
TEAM-DET1
  0
ENDSEC
  0
EOF
