  0
SECTION
  2
HEADER
  9
$ACADVER
  1
AC1009
  9
$INSBASE
 10
0.0
 20
0.0
 30
0.0
  9
$EXTMIN
 10
-950.141134
 20
-500.0464
 30
-0.019935
  9
$EXTMAX
 10
950.109562
 20
500.015756
 30
601.023665
  9
$LIMMIN
 10
-946.75
 20
-496.75
  9
$LIMMAX
 10
946.75
 20
496.75
  9
$ORTHOMODE
 70
     1
  9
$REGENMODE
 70
     1
  9
$FILLMODE
 70
     1
  9
$QTEXTMODE
 70
     0
  9
$MIRRTEXT
 70
     0
  9
$DRAGMODE
 70
     2
  9
$LTSCALE
 40
50.0
  9
$OSMODE
 70
     7
  9
$ATTMODE
 70
     1
  9
$TEXTSIZE
 40
200.0
  9
$TRACEWID
 40
1.0
  9
$TEXTSTYLE
  7
STANDARD
  9
$CLAYER
  8
TEAM-MAS
  9
$CELTYPE
  6
BYLAYER
  9
$CECOLOR
 62
   256
  9
$DIMSCALE
 40
0.0
  9
$DIMASZ
 40
20.0
  9
$DIMEXO
 40
10.0
  9
$DIMDLI
 40
1.0
  9
$DIMRND
 40
0.0
  9
$DIMDLE
 40
0.0
  9
$DIMEXE
 40
1.0
  9
$DIMTP
 40
0.0
  9
$DIMTM
 40
0.0
  9
$DIMTXT
 40
35.0
  9
$DIMCEN
 40
1.0
  9
$DIMTSZ
 40
0.0
  9
$DIMTOL
 70
     0
  9
$DIMLIM
 70
     0
  9
$DIMTIH
 70
     0
  9
$DIMTOH
 70
     0
  9
$DIMSE1
 70
     0
  9
$DIMSE2
 70
     0
  9
$DIMTAD
 70
     0
  9
$DIMZIN
 70
     0
  9
$DIMBLK
  1

  9
$DIMASO
 70
     1
  9
$DIMSHO
 70
     0
  9
$DIMPOST
  1

  9
$DIMAPOST
  1

  9
$DIMALT
 70
     0
  9
$DIMALTD
 70
     2
  9
$DIMALTF
 40
25.4
  9
$DIMLFAC
 40
1.0
  9
$DIMTOFL
 70
     0
  9
$DIMTVP
 40
0.0
  9
$DIMTIX
 70
     0
  9
$DIMSOXD
 70
     0
  9
$DIMSAH
 70
     0
  9
$DIMBLK1
  1

  9
$DIMBLK2
  1

  9
$DIMSTYLE
  2
TEAM
  9
$DIMCLRD
 70
     9
  9
$DIMCLRE
 70
     9
  9
$DIMCLRT
 70
    11
  9
$DIMTFAC
 40
1.0
  9
$DIMGAP
 40
15.0
  9
$LUNITS
 70
     2
  9
$LUPREC
 70
     1
  9
$SKETCHINC
 40
1.0
  9
$FILLETRAD
 40
50.0
  9
$AUNITS
 70
     0
  9
$AUPREC
 70
     0
  9
$MENU
  1
ROPLANS
  9
$ELEVATION
 40
0.0
  9
$PELEVATION
 40
0.0
  9
$THICKNESS
 40
0.0
  9
$LIMCHECK
 70
     0
  9
$BLIPMODE
 70
     1
  9
$CHAMFERA
 40
0.0
  9
$CHAMFERB
 40
0.0
  9
$SKPOLY
 70
     0
  9
$TDCREATE
 40
2450392.957851
  9
$TDUPDATE
 40
2455817.684121
  9
$TDINDWG
 40
2.638353
  9
$TDUSRTIMER
 40
2.638353
  9
$USRTIMER
 70
     1
  9
$ANGBASE
 50
0.0
  9
$ANGDIR
 70
     0
  9
$PDMODE
 70
     0
  9
$PDSIZE
 40
0.0
  9
$PLINEWID
 40
0.0
  9
$COORDS
 70
     2
  9
$SPLFRAME
 70
     0
  9
$SPLINETYPE
 70
     6
  9
$SPLINESEGS
 70
     8
  9
$ATTDIA
 70
     0
  9
$ATTREQ
 70
     0
  9
$HANDLING
 70
     1
  9
$HANDSEED
  5
42B
  9
$SURFTAB1
 70
    36
  9
$SURFTAB2
 70
    36
  9
$SURFTYPE
 70
     6
  9
$SURFU
 70
     6
  9
$SURFV
 70
     6
  9
$UCSNAME
  2

  9
$UCSORG
 10
0.0
 20
0.0
 30
0.0
  9
$UCSXDIR
 10
1.0
 20
0.0
 30
0.0
  9
$UCSYDIR
 10
0.0
 20
1.0
 30
0.0
  9
$PUCSNAME
  2

  9
$PUCSORG
 10
0.0
 20
0.0
 30
0.0
  9
$PUCSXDIR
 10
1.0
 20
0.0
 30
0.0
  9
$PUCSYDIR
 10
0.0
 20
1.0
 30
0.0
  9
$USERI1
 70
     0
  9
$USERI2
 70
     0
  9
$USERI3
 70
     0
  9
$USERI4
 70
     0
  9
$USERI5
 70
     0
  9
$USERR1
 40
0.0
  9
$USERR2
 40
0.0
  9
$USERR3
 40
0.0
  9
$USERR4
 40
0.0
  9
$USERR5
 40
0.0
  9
$WORLDVIEW
 70
     1
  9
$SHADEDGE
 70
     1
  9
$SHADEDIF
 70
    70
  9
$TILEMODE
 70
     1
  9
$MAXACTVP
 70
    16
  9
$PLIMCHECK
 70
     0
  9
$PEXTMIN
 10
-0.805942
 20
0.005011
 30
0.0
  9
$PEXTMAX
 10
20.250094
 20
11.356329
 30
0.0
  9
$PLIMMIN
 10
0.0
 20
0.0
  9
$PLIMMAX
 10
12.0
 20
9.0
  9
$UNITMODE
 70
     0
  9
$VISRETAIN
 70
     0
  9
$PLINEGEN
 70
     0
  9
$PSLTSCALE
 70
     0
  0
ENDSEC
  0
SECTION
  2
TABLES
  0
TABLE
  2
VPORT
 70
     2
  0
VPORT
  2
*ACTIVE
 70
     0
 10
0.0
 20
0.0
 11
1.0
 21
1.0
 12
-0.015786
 22
-0.015322
 13
0.0
 23
0.0
 14
1.0
 24
1.0
 15
50.0
 25
50.0
 16
0.0
 26
0.0
 36
1.0
 17
0.0
 27
0.0
 37
0.0
 40
1006.332138
 41
1.903766
 42
50.0
 43
0.0
 44
0.0
 50
0.0
 51
0.0
 71
     0
 72
   100
 73
     1
 74
     1
 75
     0
 76
     0
 77
     0
 78
     0
  0
ENDTAB
  0
TABLE
  2
LTYPE
 70
     1
  0
LTYPE
  2
CONTINUOUS
 70
     0
  3
Solid Line
 72
    65
 73
     0
 40
0.0
  0
ENDTAB
  0
TABLE
  2
LAYER
 70
     5
  0
LAYER
  2
0
 70
     0
 62
     7
  6
CONTINUOUS
  0
LAYER
  2
TEAM-NET1
 70
     0
 62
    12
  6
CONTINUOUS
  0
LAYER
  2
TEAM-MAS
 70
     0
 62
     9
  6
CONTINUOUS
  0
LAYER
  2
TEAM-TXT
 70
     0
 62
    11
  6
CONTINUOUS
  0
LAYER
  2
TEAM-INSP
 70
     0
 62
     5
  6
CONTINUOUS
  0
ENDTAB
  0
TABLE
  2
STYLE
 70
     2
  0
STYLE
  2
STANDARD
 70
     0
 40
0.0
 41
1.0
 50
0.0
 71
     0
 42
200.0
  3
txt
  4

  0
STYLE
  2
TEAM
 70
     0
 40
0.0
 41
0.8
 50
15.0
 71
     0
 42
7.0
  3
ROMANS.shx
  4

  0
ENDTAB
  0
TABLE
  2
VIEW
 70
     0
  0
ENDTAB
  0
TABLE
  2
UCS
 70
     0
  0
ENDTAB
  0
TABLE
  2
APPID
 70
     1
  0
APPID
  2
ACAD
 70
     0
  0
ENDTAB
  0
TABLE
  2
DIMSTYLE
 70
     1
  0
DIMSTYLE
  2
TEAM
 70
     0
  3

  4

  5

  6

  7

 40
0.0
 41
20.0
 42
10.0
 43
1.0
 44
1.0
 45
0.0
 46
0.0
 47
0.0
 48
0.0
140
35.0
141
1.0
142
0.0
143
25.4
144
1.0
145
0.0
146
1.0
147
15.0
 71
     0
 72
     0
 73
     0
 74
     0
 75
     0
 76
     0
 77
     0
 78
     0
170
     0
171
     2
172
     0
173
     0
174
     0
175
     0
176
     9
177
     9
178
    11
  0
ENDTAB
  0
ENDSEC
  0
SECTION
  2
BLOCKS
  0
BLOCK
  8
0
  2
$MODEL_SPACE
 70
     0
 10
0.0
 20
0.0
 30
0.0
  3
$MODEL_SPACE
  1

  0
ENDBLK
  5
424
  8
0
  0
BLOCK
 67
     1
  8
0
  2
$PAPER_SPACE
 70
     0
 10
0.0
 20
0.0
 30
0.0
  3
$PAPER_SPACE
  1

  0
ENDBLK
  5
422
 67
     1
  8
0
  0
ENDSEC
  0
SECTION
  2
ENTITIES
  0
POLYLINE
  5
20
  8
TEAM-NET1
 66
     1
 10
0.0
 20
0.0
 30
0.0
 70
    64
 71
   470
 72
   500
  0
VERTEX
  5
21
  8
TEAM-NET1
 10
-950.0
 20
490.0
 30
570.0
 70
   192
  0
VERTEX
  5
22
  8
TEAM-NET1
 10
-950.0
 20
60.0
 30
570.0
 70
   192
  0
VERTEX
  5
23
  8
TEAM-NET1
 10
-950.0
 20
-490.0
 30
570.0
 70
   192
  0
VERTEX
  5
24
  8
TEAM-NET1
 10
-950.0
 20
490.0
 30
594.0
 70
   192
  0
VERTEX
  5
25
  8
TEAM-NET1
 10
-950.0
 20
60.0
 30
594.0
 70
   192
  0
VERTEX
  5
26
  8
TEAM-NET1
 10
-950.0
 20
-490.0
 30
594.0
 70
   192
  0
VERTEX
  5
27
  8
TEAM-NET1
 10
-948.6
 20
494.9
 30
570.0
 70
   192
  0
VERTEX
  5
28
  8
TEAM-NET1
 10
-948.6
 20
-494.9
 30
570.0
 70
   192
  0
VERTEX
  5
29
  8
TEAM-NET1
 10
-948.6
 20
494.9
 30
594.0
 70
   192
  0
VERTEX
  5
2A
  8
TEAM-NET1
 10
-948.6
 20
-494.9
 30
594.0
 70
   192
  0
VERTEX
  5
2B
  8
TEAM-NET1
 10
-948.0
 20
490.0
 30
568.0
 70
   192
  0
VERTEX
  5
2C
  8
TEAM-NET1
 10
-948.0
 20
60.0
 30
568.0
 70
   192
  0
VERTEX
  5
2D
  8
TEAM-NET1
 10
-948.0
 20
-490.0
 30
568.0
 70
   192
  0
VERTEX
  5
2E
  8
TEAM-NET1
 10
-948.0
 20
490.0
 30
598.0
 70
   192
  0
VERTEX
  5
2F
  8
TEAM-NET1
 10
-948.0
 20
60.0
 30
598.0
 70
   192
  0
VERTEX
  5
30
  8
TEAM-NET1
 10
-948.0
 20
-490.0
 30
598.0
 70
   192
  0
VERTEX
  5
31
  8
TEAM-NET1
 10
-946.9
 20
493.9
 30
568.0
 70
   192
  0
VERTEX
  5
32
  8
TEAM-NET1
 10
-946.9
 20
-493.9
 30
568.0
 70
   192
  0
VERTEX
  5
33
  8
TEAM-NET1
 10
-946.9
 20
493.9
 30
598.0
 70
   192
  0
VERTEX
  5
34
  8
TEAM-NET1
 10
-946.9
 20
-493.9
 30
598.0
 70
   192
  0
VERTEX
  5
35
  8
TEAM-NET1
 10
-944.9
 20
498.6
 30
570.0
 70
   192
  0
VERTEX
  5
36
  8
TEAM-NET1
 10
-944.9
 20
-498.6
 30
570.0
 70
   192
  0
VERTEX
  5
37
  8
TEAM-NET1
 10
-944.9
 20
498.6
 30
594.0
 70
   192
  0
VERTEX
  5
38
  8
TEAM-NET1
 10
-944.9
 20
-498.6
 30
594.0
 70
   192
  0
VERTEX
  5
39
  8
TEAM-NET1
 10
-944.0
 20
490.0
 30
600.0
 70
   192
  0
VERTEX
  5
3A
  8
TEAM-NET1
 10
-944.0
 20
60.0
 30
600.0
 70
   192
  0
VERTEX
  5
3B
  8
TEAM-NET1
 10
-944.0
 20
-490.0
 30
600.0
 70
   192
  0
VERTEX
  5
3C
  8
TEAM-NET1
 10
-943.9
 20
496.9
 30
568.0
 70
   192
  0
VERTEX
  5
3D
  8
TEAM-NET1
 10
-943.9
 20
-496.9
 30
568.0
 70
   192
  0
VERTEX
  5
3E
  8
TEAM-NET1
 10
-943.9
 20
496.9
 30
598.0
 70
   192
  0
VERTEX
  5
3F
  8
TEAM-NET1
 10
-943.9
 20
-496.9
 30
598.0
 70
   192
  0
VERTEX
  5
40
  8
TEAM-NET1
 10
-943.4
 20
491.9
 30
600.0
 70
   192
  0
VERTEX
  5
41
  8
TEAM-NET1
 10
-943.4
 20
-491.9
 30
600.0
 70
   192
  0
VERTEX
  5
42
  8
TEAM-NET1
 10
-941.9
 20
493.4
 30
600.0
 70
   192
  0
VERTEX
  5
43
  8
TEAM-NET1
 10
-941.9
 20
-493.4
 30
600.0
 70
   192
  0
VERTEX
  5
44
  8
TEAM-NET1
 10
-940.0
 20
498.0
 30
568.0
 70
   192
  0
VERTEX
  5
45
  8
TEAM-NET1
 10
-940.0
 20
-498.0
 30
568.0
 70
   192
  0
VERTEX
  5
46
  8
TEAM-NET1
 10
-940.0
 20
500.0
 30
570.0
 70
   192
  0
VERTEX
  5
47
  8
TEAM-NET1
 10
-940.0
 20
-500.0
 30
570.0
 70
   192
  0
VERTEX
  5
48
  8
TEAM-NET1
 10
-940.0
 20
500.0
 30
594.0
 70
   192
  0
VERTEX
  5
49
  8
TEAM-NET1
 10
-940.0
 20
-500.0
 30
594.0
 70
   192
  0
VERTEX
  5
4A
  8
TEAM-NET1
 10
-940.0
 20
498.0
 30
598.0
 70
   192
  0
VERTEX
  5
4B
  8
TEAM-NET1
 10
-940.0
 20
-498.0
 30
598.0
 70
   192
  0
VERTEX
  5
4C
  8
TEAM-NET1
 10
-940.0
 20
494.0
 30
600.0
 70
   192
  0
VERTEX
  5
4D
  8
TEAM-NET1
 10
-940.0
 20
-494.0
 30
600.0
 70
   192
  0
VERTEX
  5
4E
  8
TEAM-NET1
 10
-890.0
 20
385.0
 30
600.0
 70
   192
  0
VERTEX
  5
4F
  8
TEAM-NET1
 10
-890.0
 20
60.0
 30
600.0
 70
   192
  0
VERTEX
  5
50
  8
TEAM-NET1
 10
-890.0
 20
-325.0
 30
600.0
 70
   192
  0
VERTEX
  5
51
  8
TEAM-NET1
 10
-888.0
 20
400.0
 30
600.0
 70
   192
  0
VERTEX
  5
52
  8
TEAM-NET1
 10
-888.0
 20
-340.0
 30
600.0
 70
   192
  0
VERTEX
  5
53
  8
TEAM-NET1
 10
-885.0
 20
385.0
 30
599.0
 70
   192
  0
VERTEX
  5
54
  8
TEAM-NET1
 10
-885.0
 20
60.0
 30
599.0
 70
   192
  0
VERTEX
  5
55
  8
TEAM-NET1
 10
-885.0
 20
-325.0
 30
599.0
 70
   192
  0
VERTEX
  5
56
  8
TEAM-NET1
 10
-883.0
 20
398.5
 30
599.0
 70
   192
  0
VERTEX
  5
57
  8
TEAM-NET1
 10
-883.0
 20
-338.5
 30
599.0
 70
   192
  0
VERTEX
  5
58
  8
TEAM-NET1
 10
-881.0
 20
416.0
 30
600.0
 70
   192
  0
VERTEX
  5
59
  8
TEAM-NET1
 10
-881.0
 20
-356.0
 30
600.0
 70
   192
  0
VERTEX
  5
5A
  8
TEAM-NET1
 10
-880.0
 20
385.0
 30
595.0
 70
   192
  0
VERTEX
  5
5B
  8
TEAM-NET1
 10
-880.0
 20
60.0
 30
595.0
 70
   192
  0
VERTEX
  5
5C
  8
TEAM-NET1
 10
-880.0
 20
-325.0
 30
595.0
 70
   192
  0
VERTEX
  5
5D
  8
TEAM-NET1
 10
-878.5
 20
397.5
 30
595.0
 70
   192
  0
VERTEX
  5
5E
  8
TEAM-NET1
 10
-878.5
 20
-337.5
 30
595.0
 70
   192
  0
VERTEX
  5
5F
  8
TEAM-NET1
 10
-876.5
 20
413.0
 30
599.0
 70
   192
  0
VERTEX
  5
60
  8
TEAM-NET1
 10
-876.5
 20
-353.0
 30
599.0
 70
   192
  0
VERTEX
  5
61
  8
TEAM-NET1
 10
-876.0
 20
385.0
 30
588.0
 70
   192
  0
VERTEX
  5
62
  8
TEAM-NET1
 10
-876.0
 20
60.0
 30
588.0
 70
   192
  0
VERTEX
  5
63
  8
TEAM-NET1
 10
-876.0
 20
-325.0
 30
588.0
 70
   192
  0
VERTEX
  5
64
  8
TEAM-NET1
 10
-874.0
 20
397.5
 30
588.0
 70
   192
  0
VERTEX
  5
65
  8
TEAM-NET1
 10
-874.0
 20
-337.5
 30
588.0
 70
   192
  0
VERTEX
  5
66
  8
TEAM-NET1
 10
-873.0
 20
410.0
 30
595.0
 70
   192
  0
VERTEX
  5
67
  8
TEAM-NET1
 10
-873.0
 20
-350.0
 30
595.0
 70
   192
  0
VERTEX
  5
68
  8
TEAM-NET1
 10
-869.5
 20
428.0
 30
600.0
 70
   192
  0
VERTEX
  5
69
  8
TEAM-NET1
 10
-869.5
 20
-368.0
 30
600.0
 70
   192
  0
VERTEX
  5
6A
  8
TEAM-NET1
 10
-868.5
 20
409.0
 30
588.0
 70
   192
  0
VERTEX
  5
6B
  8
TEAM-NET1
 10
-868.5
 20
-349.0
 30
588.0
 70
   192
  0
VERTEX
  5
6C
  8
TEAM-NET1
 10
-865.0
 20
425.0
 30
599.0
 70
   192
  0
VERTEX
  5
6D
  8
TEAM-NET1
 10
-865.0
 20
-365.0
 30
599.0
 70
   192
  0
VERTEX
  5
6E
  8
TEAM-NET1
 10
-860.5
 20
421.5
 30
595.0
 70
   192
  0
VERTEX
  5
6F
  8
TEAM-NET1
 10
-860.5
 20
-361.5
 30
595.0
 70
   192
  0
VERTEX
  5
70
  8
TEAM-NET1
 10
-858.5
 20
418.5
 30
588.0
 70
   192
  0
VERTEX
  5
71
  8
TEAM-NET1
 10
-858.5
 20
-358.5
 30
588.0
 70
   192
  0
VERTEX
  5
72
  8
TEAM-NET1
 10
-854.5
 20
436.5
 30
600.0
 70
   192
  0
VERTEX
  5
73
  8
TEAM-NET1
 10
-854.5
 20
-376.5
 30
600.0
 70
   192
  0
VERTEX
  5
74
  8
TEAM-NET1
 10
-851.5
 20
432.0
 30
599.0
 70
   192
  0
VERTEX
  5
75
  8
TEAM-NET1
 10
-851.5
 20
-372.0
 30
599.0
 70
   192
  0
VERTEX
  5
76
  8
TEAM-NET1
 10
-848.5
 20
428.0
 30
595.0
 70
   192
  0
VERTEX
  5
77
  8
TEAM-NET1
 10
-848.5
 20
-368.0
 30
595.0
 70
   192
  0
VERTEX
  5
78
  8
TEAM-NET1
 10
-846.5
 20
424.5
 30
588.0
 70
   192
  0
VERTEX
  5
79
  8
TEAM-NET1
 10
-846.5
 20
-364.5
 30
588.0
 70
   192
  0
VERTEX
  5
7A
  8
TEAM-NET1
 10
-835.0
 20
426.0
 30
588.0
 70
   192
  0
VERTEX
  5
7B
  8
TEAM-NET1
 10
-835.0
 20
-366.0
 30
588.0
 70
   192
  0
VERTEX
  5
7C
  8
TEAM-NET1
 10
-835.0
 20
430.0
 30
595.0
 70
   192
  0
VERTEX
  5
7D
  8
TEAM-NET1
 10
-835.0
 20
-370.0
 30
595.0
 70
   192
  0
VERTEX
  5
7E
  8
TEAM-NET1
 10
-835.0
 20
435.0
 30
599.0
 70
   192
  0
VERTEX
  5
7F
  8
TEAM-NET1
 10
-835.0
 20
-375.0
 30
599.0
 70
   192
  0
VERTEX
  5
80
  8
TEAM-NET1
 10
-835.0
 20
440.0
 30
600.0
 70
   192
  0
VERTEX
  5
81
  8
TEAM-NET1
 10
-835.0
 20
-380.0
 30
600.0
 70
   192
  0
VERTEX
  5
82
  8
TEAM-NET1
 10
-720.0
 20
240.0
 30
220.0
 70
   192
  0
VERTEX
  5
83
  8
TEAM-NET1
 10
-720.0
 20
60.0
 30
220.0
 70
   192
  0
VERTEX
  5
84
  8
TEAM-NET1
 10
-720.0
 20
-180.0
 30
220.0
 70
   192
  0
VERTEX
  5
85
  8
TEAM-NET1
 10
-717.476
 20
265.027
 30
220.0
 70
   192
  0
VERTEX
  5
86
  8
TEAM-NET1
 10
-717.476
 20
-205.027
 30
220.0
 70
   192
  0
VERTEX
  5
87
  8
TEAM-NET1
 10
-711.595
 20
287.804
 30
220.0
 70
   192
  0
VERTEX
  5
88
  8
TEAM-NET1
 10
-711.595
 20
-227.804
 30
220.0
 70
   192
  0
VERTEX
  5
89
  8
TEAM-NET1
 10
-706.0
 20
240.0
 30
201.0
 70
   192
  0
VERTEX
  5
8A
  8
TEAM-NET1
 10
-706.0
 20
60.0
 30
201.0
 70
   192
  0
VERTEX
  5
8B
  8
TEAM-NET1
 10
-706.0
 20
-180.0
 30
201.0
 70
   192
  0
VERTEX
  5
8C
  8
TEAM-NET1
 10
-703.876
 20
263.557
 30
201.0
 70
   192
  0
VERTEX
  5
8D
  8
TEAM-NET1
 10
-703.876
 20
-203.557
 30
201.0
 70
   192
  0
VERTEX
  5
8E
  8
TEAM-NET1
 10
-702.406
 20
306.907
 30
220.0
 70
   192
  0
VERTEX
  5
8F
  8
TEAM-NET1
 10
-702.406
 20
-246.907
 30
220.0
 70
   192
  0
VERTEX
  5
90
  8
TEAM-NET1
 10
-699.098
 20
283.396
 30
201.0
 70
   192
  0
VERTEX
  5
91
  8
TEAM-NET1
 10
-699.098
 20
-223.396
 30
201.0
 70
   192
  0
VERTEX
  5
92
  8
TEAM-NET1
 10
-692.849
 20
322.704
 30
220.0
 70
   192
  0
VERTEX
  5
93
  8
TEAM-NET1
 10
-692.849
 20
-262.704
 30
220.0
 70
   192
  0
VERTEX
  5
94
  8
TEAM-NET1
 10
-691.011
 20
300.295
 30
201.0
 70
   192
  0
VERTEX
  5
95
  8
TEAM-NET1
 10
-691.011
 20
-240.295
 30
201.0
 70
   192
  0
VERTEX
  5
96
  8
TEAM-NET1
 10
-685.0
 20
240.0
 30
187.0
 70
   192
  0
VERTEX
  5
97
  8
TEAM-NET1
 10
-685.0
 20
60.0
 30
187.0
 70
   192
  0
VERTEX
  5
98
  8
TEAM-NET1
 10
-685.0
 20
-180.0
 30
187.0
 70
   192
  0
VERTEX
  5
99
  8
TEAM-NET1
 10
-683.292
 20
260.251
 30
187.0
 70
   192
  0
VERTEX
  5
9A
  8
TEAM-NET1
 10
-683.292
 20
-200.251
 30
187.0
 70
   192
  0
VERTEX
  5
9B
  8
TEAM-NET1
 10
-680.719
 20
315.724
 30
201.0
 70
   192
  0
VERTEX
  5
9C
  8
TEAM-NET1
 10
-680.719
 20
-255.724
 30
201.0
 70
   192
  0
VERTEX
  5
9D
  8
TEAM-NET1
 10
-679.249
 20
339.236
 30
220.0
 70
   192
  0
VERTEX
  5
9E
  8
TEAM-NET1
 10
-679.249
 20
-279.236
 30
220.0
 70
   192
  0
VERTEX
  5
9F
  8
TEAM-NET1
 10
-678.146
 20
277.518
 30
187.0
 70
   192
  0
VERTEX
  5
A0
  8
TEAM-NET1
 10
-678.146
 20
-217.518
 30
187.0
 70
   192
  0
VERTEX
  5
A1
  8
TEAM-NET1
 10
-672.265
 20
291.11
 30
187.0
 70
   192
  0
VERTEX
  5
A2
  8
TEAM-NET1
 10
-672.265
 20
-231.11
 30
187.0
 70
   192
  0
VERTEX
  5
A3
  8
TEAM-NET1
 10
-668.582
 20
329.325
 30
201.0
 70
   192
  0
VERTEX
  5
A4
  8
TEAM-NET1
 10
-668.582
 20
-269.325
 30
201.0
 70
   192
  0
VERTEX
  5
A5
  8
TEAM-NET1
 10
-663.444
 20
303.968
 30
187.0
 70
   192
  0
VERTEX
  5
A6
  8
TEAM-NET1
 10
-663.444
 20
-243.968
 30
187.0
 70
   192
  0
VERTEX
  5
A7
  8
TEAM-NET1
 10
-662.704
 20
352.849
 30
220.0
 70
   192
  0
VERTEX
  5
A8
  8
TEAM-NET1
 10
-662.704
 20
-292.849
 30
220.0
 70
   192
  0
VERTEX
  5
A9
  8
TEAM-NET1
 10
-659.0
 20
240.0
 30
180.0
 70
   192
  0
VERTEX
  5
AA
  8
TEAM-NET1
 10
-659.0
 20
60.0
 30
180.0
 70
   192
  0
VERTEX
  5
AB
  8
TEAM-NET1
 10
-659.0
 20
-180.0
 30
180.0
 70
   192
  0
VERTEX
  5
AC
  8
TEAM-NET1
 10
-657.563
 20
255.475
 30
180.0
 70
   192
  0
VERTEX
  5
AD
  8
TEAM-NET1
 10
-657.563
 20
-195.475
 30
180.0
 70
   192
  0
VERTEX
  5
AE
  8
TEAM-NET1
 10
-655.724
 20
340.719
 30
201.0
 70
   192
  0
VERTEX
  5
AF
  8
TEAM-NET1
 10
-655.724
 20
-280.719
 30
201.0
 70
   192
  0
VERTEX
  5
B0
  8
TEAM-NET1
 10
-653.52
 20
314.254
 30
187.0
 70
   192
  0
VERTEX
  5
B1
  8
TEAM-NET1
 10
-653.52
 20
-254.254
 30
187.0
 70
   192
  0
VERTEX
  5
B2
  8
TEAM-NET1
 10
-653.519
 20
267.966
 30
180.0
 70
   192
  0
VERTEX
  5
B3
  8
TEAM-NET1
 10
-653.519
 20
-207.966
 30
180.0
 70
   192
  0
VERTEX
  5
B4
  8
TEAM-NET1
 10
-649.844
 20
277.885
 30
180.0
 70
   192
  0
VERTEX
  5
B5
  8
TEAM-NET1
 10
-649.844
 20
-217.885
 30
180.0
 70
   192
  0
VERTEX
  5
B6
  8
TEAM-NET1
 10
-646.907
 20
362.406
 30
220.0
 70
   192
  0
VERTEX
  5
B7
  8
TEAM-NET1
 10
-646.907
 20
-302.406
 30
220.0
 70
   192
  0
VERTEX
  5
B8
  8
TEAM-NET1
 10
-643.968
 20
323.444
 30
187.0
 70
   192
  0
VERTEX
  5
B9
  8
TEAM-NET1
 10
-643.968
 20
-263.444
 30
187.0
 70
   192
  0
VERTEX
  5
BA
  8
TEAM-NET1
 10
-643.227
 20
287.437
 30
180.0
 70
   192
  0
VERTEX
  5
BB
  8
TEAM-NET1
 10
-643.227
 20
-227.437
 30
180.0
 70
   192
  0
VERTEX
  5
BC
  8
TEAM-NET1
 10
-640.295
 20
351.011
 30
201.0
 70
   192
  0
VERTEX
  5
BD
  8
TEAM-NET1
 10
-640.295
 20
-291.011
 30
201.0
 70
   192
  0
VERTEX
  5
BE
  8
TEAM-NET1
 10
-635.876
 20
295.519
 30
180.0
 70
   192
  0
VERTEX
  5
BF
  8
TEAM-NET1
 10
-635.876
 20
-235.519
 30
180.0
 70
   192
  0
VERTEX
  5
C0
  8
TEAM-NET1
 10
-631.11
 20
332.265
 30
187.0
 70
   192
  0
VERTEX
  5
C1
  8
TEAM-NET1
 10
-631.11
 20
-272.265
 30
187.0
 70
   192
  0
VERTEX
  5
C2
  8
TEAM-NET1
 10
-627.804
 20
371.595
 30
220.0
 70
   192
  0
VERTEX
  5
C3
  8
TEAM-NET1
 10
-627.804
 20
-311.595
 30
220.0
 70
   192
  0
VERTEX
  5
C4
  8
TEAM-NET1
 10
-627.437
 20
303.227
 30
180.0
 70
   192
  0
VERTEX
  5
C5
  8
TEAM-NET1
 10
-627.437
 20
-243.227
 30
180.0
 70
   192
  0
VERTEX
  5
C6
  8
TEAM-NET1
 10
-623.396
 20
359.098
 30
201.0
 70
   192
  0
VERTEX
  5
C7
  8
TEAM-NET1
 10
-623.396
 20
-299.098
 30
201.0
 70
   192
  0
VERTEX
  5
C8
  8
TEAM-NET1
 10
-617.885
 20
309.844
 30
180.0
 70
   192
  0
VERTEX
  5
C9
  8
TEAM-NET1
 10
-617.885
 20
-249.844
 30
180.0
 70
   192
  0
VERTEX
  5
CA
  8
TEAM-NET1
 10
-617.518
 20
338.146
 30
187.0
 70
   192
  0
VERTEX
  5
CB
  8
TEAM-NET1
 10
-617.518
 20
-278.146
 30
187.0
 70
   192
  0
VERTEX
  5
CC
  8
TEAM-NET1
 10
-607.966
 20
313.519
 30
180.0
 70
   192
  0
VERTEX
  5
CD
  8
TEAM-NET1
 10
-607.966
 20
-253.519
 30
180.0
 70
   192
  0
VERTEX
  5
CE
  8
TEAM-NET1
 10
-605.027
 20
377.476
 30
220.0
 70
   192
  0
VERTEX
  5
CF
  8
TEAM-NET1
 10
-605.027
 20
-317.476
 30
220.0
 70
   192
  0
VERTEX
  5
D0
  8
TEAM-NET1
 10
-603.557
 20
363.876
 30
201.0
 70
   192
  0
VERTEX
  5
D1
  8
TEAM-NET1
 10
-603.557
 20
-303.876
 30
201.0
 70
   192
  0
VERTEX
  5
D2
  8
TEAM-NET1
 10
-600.251
 20
343.292
 30
187.0
 70
   192
  0
VERTEX
  5
D3
  8
TEAM-NET1
 10
-600.251
 20
-283.292
 30
187.0
 70
   192
  0
VERTEX
  5
D4
  8
TEAM-NET1
 10
-595.475
 20
317.563
 30
180.0
 70
   192
  0
VERTEX
  5
D5
  8
TEAM-NET1
 10
-595.475
 20
-257.563
 30
180.0
 70
   192
  0
VERTEX
  5
D6
  8
TEAM-NET1
 10
-580.0
 20
319.0
 30
180.0
 70
   192
  0
VERTEX
  5
D7
  8
TEAM-NET1
 10
-580.0
 20
-259.0
 30
180.0
 70
   192
  0
VERTEX
  5
D8
  8
TEAM-NET1
 10
-580.0
 20
345.0
 30
187.0
 70
   192
  0
VERTEX
  5
D9
  8
TEAM-NET1
 10
-580.0
 20
-285.0
 30
187.0
 70
   192
  0
VERTEX
  5
DA
  8
TEAM-NET1
 10
-580.0
 20
366.0
 30
201.0
 70
   192
  0
VERTEX
  5
DB
  8
TEAM-NET1
 10
-580.0
 20
-306.0
 30
201.0
 70
   192
  0
VERTEX
  5
DC
  8
TEAM-NET1
 10
-580.0
 20
380.0
 30
220.0
 70
   192
  0
VERTEX
  5
DD
  8
TEAM-NET1
 10
-580.0
 20
-320.0
 30
220.0
 70
   192
  0
VERTEX
  5
DE
  8
TEAM-NET1
 10
-60.0
 20
90.0
 30
170.0
 70
   192
  0
VERTEX
  5
DF
  8
TEAM-NET1
 10
-60.0
 20
60.0
 30
170.0
 70
   192
  0
VERTEX
  5
E0
  8
TEAM-NET1
 10
-60.0
 20
30.0
 30
170.0
 70
   192
  0
VERTEX
  5
E1
  8
TEAM-NET1
 10
-60.0
 20
90.0
 30
180.0
 70
   192
  0
VERTEX
  5
E2
  8
TEAM-NET1
 10
-60.0
 20
60.0
 30
180.0
 70
   192
  0
VERTEX
  5
E3
  8
TEAM-NET1
 10
-60.0
 20
30.0
 30
180.0
 70
   192
  0
VERTEX
  5
E4
  8
TEAM-NET1
 10
-57.0
 20
97.0
 30
170.0
 70
   192
  0
VERTEX
  5
E5
  8
TEAM-NET1
 10
-57.0
 20
90.0
 30
170.0
 70
   192
  0
VERTEX
  5
E6
  8
TEAM-NET1
 10
-57.0
 20
60.0
 30
170.0
 70
   192
  0
VERTEX
  5
E7
  8
TEAM-NET1
 10
-57.0
 20
30.0
 30
170.0
 70
   192
  0
VERTEX
  5
E8
  8
TEAM-NET1
 10
-57.0
 20
23.0
 30
170.0
 70
   192
  0
VERTEX
  5
E9
  8
TEAM-NET1
 10
-57.0
 20
97.0
 30
180.0
 70
   192
  0
VERTEX
  5
EA
  8
TEAM-NET1
 10
-57.0
 20
90.0
 30
180.0
 70
   192
  0
VERTEX
  5
EB
  8
TEAM-NET1
 10
-57.0
 20
60.0
 30
180.0
 70
   192
  0
VERTEX
  5
EC
  8
TEAM-NET1
 10
-57.0
 20
30.0
 30
180.0
 70
   192
  0
VERTEX
  5
ED
  8
TEAM-NET1
 10
-57.0
 20
23.0
 30
180.0
 70
   192
  0
VERTEX
  5
EE
  8
TEAM-NET1
 10
-54.5
 20
94.5
 30
170.0
 70
   192
  0
VERTEX
  5
EF
  8
TEAM-NET1
 10
-54.5
 20
25.5
 30
170.0
 70
   192
  0
VERTEX
  5
F0
  8
TEAM-NET1
 10
-54.5
 20
94.5
 30
180.0
 70
   192
  0
VERTEX
  5
F1
  8
TEAM-NET1
 10
-54.5
 20
25.5
 30
180.0
 70
   192
  0
VERTEX
  5
F2
  8
TEAM-NET1
 10
-50.0
 20
100.0
 30
170.0
 70
   192
  0
VERTEX
  5
F3
  8
TEAM-NET1
 10
-50.0
 20
97.0
 30
170.0
 70
   192
  0
VERTEX
  5
F4
  8
TEAM-NET1
 10
-50.0
 20
23.0
 30
170.0
 70
   192
  0
VERTEX
  5
F5
  8
TEAM-NET1
 10
-50.0
 20
20.0
 30
170.0
 70
   192
  0
VERTEX
  5
F6
  8
TEAM-NET1
 10
-50.0
 20
100.0
 30
180.0
 70
   192
  0
VERTEX
  5
F7
  8
TEAM-NET1
 10
-50.0
 20
97.0
 30
180.0
 70
   192
  0
VERTEX
  5
F8
  8
TEAM-NET1
 10
-50.0
 20
23.0
 30
180.0
 70
   192
  0
VERTEX
  5
F9
  8
TEAM-NET1
 10
-50.0
 20
20.0
 30
180.0
 70
   192
  0
VERTEX
  5
FA
  8
TEAM-NET1
 10
0.0
 20
100.0
 30
170.0
 70
   192
  0
VERTEX
  5
FB
  8
TEAM-NET1
 10
0.0
 20
97.0
 30
170.0
 70
   192
  0
VERTEX
  5
FC
  8
TEAM-NET1
 10
0.0
 20
60.0
 30
170.0
 70
   192
  0
VERTEX
  5
FD
  8
TEAM-NET1
 10
0.0
 20
23.0
 30
170.0
 70
   192
  0
VERTEX
  5
FE
  8
TEAM-NET1
 10
0.0
 20
20.0
 30
170.0
 70
   192
  0
VERTEX
  5
FF
  8
TEAM-NET1
 10
0.0
 20
319.0
 30
180.0
 70
   192
  0
VERTEX
  5
100
  8
TEAM-NET1
 10
0.0
 20
100.0
 30
180.0
 70
   192
  0
VERTEX
  5
101
  8
TEAM-NET1
 10
0.0
 20
97.0
 30
180.0
 70
   192
  0
VERTEX
  5
102
  8
TEAM-NET1
 10
0.0
 20
60.0
 30
180.0
 70
   192
  0
VERTEX
  5
103
  8
TEAM-NET1
 10
0.0
 20
23.0
 30
180.0
 70
   192
  0
VERTEX
  5
104
  8
TEAM-NET1
 10
0.0
 20
20.0
 30
180.0
 70
   192
  0
VERTEX
  5
105
  8
TEAM-NET1
 10
0.0
 20
-259.0
 30
180.0
 70
   192
  0
VERTEX
  5
106
  8
TEAM-NET1
 10
0.0
 20
345.0
 30
187.0
 70
   192
  0
VERTEX
  5
107
  8
TEAM-NET1
 10
0.0
 20
-285.0
 30
187.0
 70
   192
  0
VERTEX
  5
108
  8
TEAM-NET1
 10
0.0
 20
366.0
 30
201.0
 70
   192
  0
VERTEX
  5
109
  8
TEAM-NET1
 10
0.0
 20
-306.0
 30
201.0
 70
   192
  0
VERTEX
  5
10A
  8
TEAM-NET1
 10
0.0
 20
380.0
 30
220.0
 70
   192
  0
VERTEX
  5
10B
  8
TEAM-NET1
 10
0.0
 20
-320.0
 30
220.0
 70
   192
  0
VERTEX
  5
10C
  8
TEAM-NET1
 10
0.0
 20
498.0
 30
568.0
 70
   192
  0
VERTEX
  5
10D
  8
TEAM-NET1
 10
0.0
 20
-498.0
 30
568.0
 70
   192
  0
VERTEX
  5
10E
  8
TEAM-NET1
 10
0.0
 20
500.0
 30
570.0
 70
   192
  0
VERTEX
  5
10F
  8
TEAM-NET1
 10
0.0
 20
-500.0
 30
570.0
 70
   192
  0
VERTEX
  5
110
  8
TEAM-NET1
 10
0.0
 20
426.0
 30
588.0
 70
   192
  0
VERTEX
  5
111
  8
TEAM-NET1
 10
0.0
 20
-366.0
 30
588.0
 70
   192
  0
VERTEX
  5
112
  8
TEAM-NET1
 10
0.0
 20
500.0
 30
594.0
 70
   192
  0
VERTEX
  5
113
  8
TEAM-NET1
 10
0.0
 20
-500.0
 30
594.0
 70
   192
  0
VERTEX
  5
114
  8
TEAM-NET1
 10
0.0
 20
430.0
 30
595.0
 70
   192
  0
VERTEX
  5
115
  8
TEAM-NET1
 10
0.0
 20
-370.0
 30
595.0
 70
   192
  0
VERTEX
  5
116
  8
TEAM-NET1
 10
0.0
 20
498.0
 30
598.0
 70
   192
  0
VERTEX
  5
117
  8
TEAM-NET1
 10
0.0
 20
-498.0
 30
598.0
 70
   192
  0
VERTEX
  5
118
  8
TEAM-NET1
 10
0.0
 20
435.0
 30
599.0
 70
   192
  0
VERTEX
  5
119
  8
TEAM-NET1
 10
0.0
 20
-375.0
 30
599.0
 70
   192
  0
VERTEX
  5
11A
  8
TEAM-NET1
 10
0.0
 20
494.0
 30
600.0
 70
   192
  0
VERTEX
  5
11B
  8
TEAM-NET1
 10
0.0
 20
440.0
 30
600.0
 70
   192
  0
VERTEX
  5
11C
  8
TEAM-NET1
 10
0.0
 20
-380.0
 30
600.0
 70
   192
  0
VERTEX
  5
11D
  8
TEAM-NET1
 10
0.0
 20
-494.0
 30
600.0
 70
   192
  0
VERTEX
  5
11E
  8
TEAM-NET1
 10
50.0
 20
100.0
 30
170.0
 70
   192
  0
VERTEX
  5
11F
  8
TEAM-NET1
 10
50.0
 20
97.0
 30
170.0
 70
   192
  0
VERTEX
  5
120
  8
TEAM-NET1
 10
50.0
 20
23.0
 30
170.0
 70
   192
  0
VERTEX
  5
121
  8
TEAM-NET1
 10
50.0
 20
20.0
 30
170.0
 70
   192
  0
VERTEX
  5
122
  8
TEAM-NET1
 10
50.0
 20
100.0
 30
180.0
 70
   192
  0
VERTEX
  5
123
  8
TEAM-NET1
 10
50.0
 20
97.0
 30
180.0
 70
   192
  0
VERTEX
  5
124
  8
TEAM-NET1
 10
50.0
 20
23.0
 30
180.0
 70
   192
  0
VERTEX
  5
125
  8
TEAM-NET1
 10
50.0
 20
20.0
 30
180.0
 70
   192
  0
VERTEX
  5
126
  8
TEAM-NET1
 10
54.5
 20
94.5
 30
170.0
 70
   192
  0
VERTEX
  5
127
  8
TEAM-NET1
 10
54.5
 20
25.5
 30
170.0
 70
   192
  0
VERTEX
  5
128
  8
TEAM-NET1
 10
54.5
 20
94.5
 30
180.0
 70
   192
  0
VERTEX
  5
129
  8
TEAM-NET1
 10
54.5
 20
25.5
 30
180.0
 70
   192
  0
VERTEX
  5
12A
  8
TEAM-NET1
 10
57.0
 20
97.0
 30
170.0
 70
   192
  0
VERTEX
  5
12B
  8
TEAM-NET1
 10
57.0
 20
90.0
 30
170.0
 70
   192
  0
VERTEX
  5
12C
  8
TEAM-NET1
 10
57.0
 20
60.0
 30
170.0
 70
   192
  0
VERTEX
  5
12D
  8
TEAM-NET1
 10
57.0
 20
30.0
 30
170.0
 70
   192
  0
VERTEX
  5
12E
  8
TEAM-NET1
 10
57.0
 20
23.0
 30
170.0
 70
   192
  0
VERTEX
  5
12F
  8
TEAM-NET1
 10
57.0
 20
97.0
 30
180.0
 70
   192
  0
VERTEX
  5
130
  8
TEAM-NET1
 10
57.0
 20
90.0
 30
180.0
 70
   192
  0
VERTEX
  5
131
  8
TEAM-NET1
 10
57.0
 20
60.0
 30
180.0
 70
   192
  0
VERTEX
  5
132
  8
TEAM-NET1
 10
57.0
 20
30.0
 30
180.0
 70
   192
  0
VERTEX
  5
133
  8
TEAM-NET1
 10
57.0
 20
23.0
 30
180.0
 70
   192
  0
VERTEX
  5
134
  8
TEAM-NET1
 10
60.0
 20
90.0
 30
170.0
 70
   192
  0
VERTEX
  5
135
  8
TEAM-NET1
 10
60.0
 20
60.0
 30
170.0
 70
   192
  0
VERTEX
  5
136
  8
TEAM-NET1
 10
60.0
 20
30.0
 30
170.0
 70
   192
  0
VERTEX
  5
137
  8
TEAM-NET1
 10
60.0
 20
90.0
 30
180.0
 70
   192
  0
VERTEX
  5
138
  8
TEAM-NET1
 10
60.0
 20
60.0
 30
180.0
 70
   192
  0
VERTEX
  5
139
  8
TEAM-NET1
 10
60.0
 20
30.0
 30
180.0
 70
   192
  0
VERTEX
  5
13A
  8
TEAM-NET1
 10
580.0
 20
319.0
 30
180.0
 70
   192
  0
VERTEX
  5
13B
  8
TEAM-NET1
 10
580.0
 20
-259.0
 30
180.0
 70
   192
  0
VERTEX
  5
13C
  8
TEAM-NET1
 10
580.0
 20
345.0
 30
187.0
 70
   192
  0
VERTEX
  5
13D
  8
TEAM-NET1
 10
580.0
 20
-285.0
 30
187.0
 70
   192
  0
VERTEX
  5
13E
  8
TEAM-NET1
 10
580.0
 20
366.0
 30
201.0
 70
   192
  0
VERTEX
  5
13F
  8
TEAM-NET1
 10
580.0
 20
-306.0
 30
201.0
 70
   192
  0
VERTEX
  5
140
  8
TEAM-NET1
 10
580.0
 20
380.0
 30
220.0
 70
   192
  0
VERTEX
  5
141
  8
TEAM-NET1
 10
580.0
 20
-320.0
 30
220.0
 70
   192
  0
VERTEX
  5
142
  8
TEAM-NET1
 10
595.47
 20
317.563
 30
180.0
 70
   192
  0
VERTEX
  5
143
  8
TEAM-NET1
 10
595.47
 20
-257.563
 30
180.0
 70
   192
  0
VERTEX
  5
144
  8
TEAM-NET1
 10
600.25
 20
343.292
 30
187.0
 70
   192
  0
VERTEX
  5
145
  8
TEAM-NET1
 10
600.25
 20
-283.292
 30
187.0
 70
   192
  0
VERTEX
  5
146
  8
TEAM-NET1
 10
603.56
 20
363.876
 30
201.0
 70
   192
  0
VERTEX
  5
147
  8
TEAM-NET1
 10
603.56
 20
-303.876
 30
201.0
 70
   192
  0
VERTEX
  5
148
  8
TEAM-NET1
 10
605.03
 20
377.476
 30
220.0
 70
   192
  0
VERTEX
  5
149
  8
TEAM-NET1
 10
605.03
 20
-317.476
 30
220.0
 70
   192
  0
VERTEX
  5
14A
  8
TEAM-NET1
 10
607.97
 20
313.519
 30
180.0
 70
   192
  0
VERTEX
  5
14B
  8
TEAM-NET1
 10
607.97
 20
-253.519
 30
180.0
 70
   192
  0
VERTEX
  5
14C
  8
TEAM-NET1
 10
617.52
 20
338.146
 30
187.0
 70
   192
  0
VERTEX
  5
14D
  8
TEAM-NET1
 10
617.52
 20
-278.146
 30
187.0
 70
   192
  0
VERTEX
  5
14E
  8
TEAM-NET1
 10
617.89
 20
309.844
 30
180.0
 70
   192
  0
VERTEX
  5
14F
  8
TEAM-NET1
 10
617.89
 20
-249.844
 30
180.0
 70
   192
  0
VERTEX
  5
150
  8
TEAM-NET1
 10
623.4
 20
359.098
 30
201.0
 70
   192
  0
VERTEX
  5
151
  8
TEAM-NET1
 10
623.4
 20
-299.098
 30
201.0
 70
   192
  0
VERTEX
  5
152
  8
TEAM-NET1
 10
627.44
 20
303.227
 30
180.0
 70
   192
  0
VERTEX
  5
153
  8
TEAM-NET1
 10
627.44
 20
-243.227
 30
180.0
 70
   192
  0
VERTEX
  5
154
  8
TEAM-NET1
 10
627.8
 20
371.595
 30
220.0
 70
   192
  0
VERTEX
  5
155
  8
TEAM-NET1
 10
627.8
 20
-311.595
 30
220.0
 70
   192
  0
VERTEX
  5
156
  8
TEAM-NET1
 10
631.11
 20
332.265
 30
187.0
 70
   192
  0
VERTEX
  5
157
  8
TEAM-NET1
 10
631.11
 20
-272.265
 30
187.0
 70
   192
  0
VERTEX
  5
158
  8
TEAM-NET1
 10
635.88
 20
295.519
 30
180.0
 70
   192
  0
VERTEX
  5
159
  8
TEAM-NET1
 10
635.88
 20
-235.519
 30
180.0
 70
   192
  0
VERTEX
  5
15A
  8
TEAM-NET1
 10
640.3
 20
351.011
 30
201.0
 70
   192
  0
VERTEX
  5
15B
  8
TEAM-NET1
 10
640.3
 20
-291.011
 30
201.0
 70
   192
  0
VERTEX
  5
15C
  8
TEAM-NET1
 10
643.23
 20
287.437
 30
180.0
 70
   192
  0
VERTEX
  5
15D
  8
TEAM-NET1
 10
643.23
 20
-227.437
 30
180.0
 70
   192
  0
VERTEX
  5
15E
  8
TEAM-NET1
 10
643.97
 20
323.444
 30
187.0
 70
   192
  0
VERTEX
  5
15F
  8
TEAM-NET1
 10
643.97
 20
-263.444
 30
187.0
 70
   192
  0
VERTEX
  5
160
  8
TEAM-NET1
 10
646.91
 20
362.406
 30
220.0
 70
   192
  0
VERTEX
  5
161
  8
TEAM-NET1
 10
646.91
 20
-302.406
 30
220.0
 70
   192
  0
VERTEX
  5
162
  8
TEAM-NET1
 10
649.84
 20
277.885
 30
180.0
 70
   192
  0
VERTEX
  5
163
  8
TEAM-NET1
 10
649.84
 20
-217.885
 30
180.0
 70
   192
  0
VERTEX
  5
164
  8
TEAM-NET1
 10
653.52
 20
267.966
 30
180.0
 70
   192
  0
VERTEX
  5
165
  8
TEAM-NET1
 10
653.52
 20
-207.966
 30
180.0
 70
   192
  0
VERTEX
  5
166
  8
TEAM-NET1
 10
653.52
 20
314.254
 30
187.0
 70
   192
  0
VERTEX
  5
167
  8
TEAM-NET1
 10
653.52
 20
-254.254
 30
187.0
 70
   192
  0
VERTEX
  5
168
  8
TEAM-NET1
 10
655.72
 20
340.719
 30
201.0
 70
   192
  0
VERTEX
  5
169
  8
TEAM-NET1
 10
655.72
 20
-280.719
 30
201.0
 70
   192
  0
VERTEX
  5
16A
  8
TEAM-NET1
 10
657.56
 20
255.475
 30
180.0
 70
   192
  0
VERTEX
  5
16B
  8
TEAM-NET1
 10
657.56
 20
-195.475
 30
180.0
 70
   192
  0
VERTEX
  5
16C
  8
TEAM-NET1
 10
659.0
 20
240.0
 30
180.0
 70
   192
  0
VERTEX
  5
16D
  8
TEAM-NET1
 10
659.0
 20
60.0
 30
180.0
 70
   192
  0
VERTEX
  5
16E
  8
TEAM-NET1
 10
659.0
 20
-180.0
 30
180.0
 70
   192
  0
VERTEX
  5
16F
  8
TEAM-NET1
 10
662.7
 20
352.849
 30
220.0
 70
   192
  0
VERTEX
  5
170
  8
TEAM-NET1
 10
662.7
 20
-292.849
 30
220.0
 70
   192
  0
VERTEX
  5
171
  8
TEAM-NET1
 10
663.44
 20
303.968
 30
187.0
 70
   192
  0
VERTEX
  5
172
  8
TEAM-NET1
 10
663.44
 20
-243.968
 30
187.0
 70
   192
  0
VERTEX
  5
173
  8
TEAM-NET1
 10
668.58
 20
329.325
 30
201.0
 70
   192
  0
VERTEX
  5
174
  8
TEAM-NET1
 10
668.58
 20
-269.325
 30
201.0
 70
   192
  0
VERTEX
  5
175
  8
TEAM-NET1
 10
672.27
 20
291.11
 30
187.0
 70
   192
  0
VERTEX
  5
176
  8
TEAM-NET1
 10
672.27
 20
-231.11
 30
187.0
 70
   192
  0
VERTEX
  5
177
  8
TEAM-NET1
 10
678.15
 20
277.518
 30
187.0
 70
   192
  0
VERTEX
  5
178
  8
TEAM-NET1
 10
678.15
 20
-217.518
 30
187.0
 70
   192
  0
VERTEX
  5
179
  8
TEAM-NET1
 10
679.25
 20
339.236
 30
220.0
 70
   192
  0
VERTEX
  5
17A
  8
TEAM-NET1
 10
679.25
 20
-279.236
 30
220.0
 70
   192
  0
VERTEX
  5
17B
  8
TEAM-NET1
 10
680.72
 20
315.724
 30
201.0
 70
   192
  0
VERTEX
  5
17C
  8
TEAM-NET1
 10
680.72
 20
-255.724
 30
201.0
 70
   192
  0
VERTEX
  5
17D
  8
TEAM-NET1
 10
683.29
 20
260.251
 30
187.0
 70
   192
  0
VERTEX
  5
17E
  8
TEAM-NET1
 10
683.29
 20
-200.251
 30
187.0
 70
   192
  0
VERTEX
  5
17F
  8
TEAM-NET1
 10
685.0
 20
240.0
 30
187.0
 70
   192
  0
VERTEX
  5
180
  8
TEAM-NET1
 10
685.0
 20
60.0
 30
187.0
 70
   192
  0
VERTEX
  5
181
  8
TEAM-NET1
 10
685.0
 20
-180.0
 30
187.0
 70
   192
  0
VERTEX
  5
182
  8
TEAM-NET1
 10
691.01
 20
300.295
 30
201.0
 70
   192
  0
VERTEX
  5
183
  8
TEAM-NET1
 10
691.01
 20
-240.295
 30
201.0
 70
   192
  0
VERTEX
  5
184
  8
TEAM-NET1
 10
692.85
 20
322.704
 30
220.0
 70
   192
  0
VERTEX
  5
185
  8
TEAM-NET1
 10
692.85
 20
-262.704
 30
220.0
 70
   192
  0
VERTEX
  5
186
  8
TEAM-NET1
 10
699.1
 20
283.396
 30
201.0
 70
   192
  0
VERTEX
  5
187
  8
TEAM-NET1
 10
699.1
 20
-223.396
 30
201.0
 70
   192
  0
VERTEX
  5
188
  8
TEAM-NET1
 10
702.41
 20
306.907
 30
220.0
 70
   192
  0
VERTEX
  5
189
  8
TEAM-NET1
 10
702.41
 20
-246.907
 30
220.0
 70
   192
  0
VERTEX
  5
18A
  8
TEAM-NET1
 10
703.88
 20
263.557
 30
201.0
 70
   192
  0
VERTEX
  5
18B
  8
TEAM-NET1
 10
703.88
 20
-203.557
 30
201.0
 70
   192
  0
VERTEX
  5
18C
  8
TEAM-NET1
 10
706.0
 20
240.0
 30
201.0
 70
   192
  0
VERTEX
  5
18D
  8
TEAM-NET1
 10
706.0
 20
60.0
 30
201.0
 70
   192
  0
VERTEX
  5
18E
  8
TEAM-NET1
 10
706.0
 20
-180.0
 30
201.0
 70
   192
  0
VERTEX
  5
18F
  8
TEAM-NET1
 10
711.59
 20
287.804
 30
220.0
 70
   192
  0
VERTEX
  5
190
  8
TEAM-NET1
 10
711.59
 20
-227.804
 30
220.0
 70
   192
  0
VERTEX
  5
191
  8
TEAM-NET1
 10
717.48
 20
265.027
 30
220.0
 70
   192
  0
VERTEX
  5
192
  8
TEAM-NET1
 10
717.48
 20
-205.027
 30
220.0
 70
   192
  0
VERTEX
  5
193
  8
TEAM-NET1
 10
720.0
 20
240.0
 30
220.0
 70
   192
  0
VERTEX
  5
194
  8
TEAM-NET1
 10
720.0
 20
60.0
 30
220.0
 70
   192
  0
VERTEX
  5
195
  8
TEAM-NET1
 10
720.0
 20
-180.0
 30
220.0
 70
   192
  0
VERTEX
  5
196
  8
TEAM-NET1
 10
835.0
 20
426.0
 30
588.0
 70
   192
  0
VERTEX
  5
197
  8
TEAM-NET1
 10
835.0
 20
-366.0
 30
588.0
 70
   192
  0
VERTEX
  5
198
  8
TEAM-NET1
 10
835.0
 20
430.0
 30
595.0
 70
   192
  0
VERTEX
  5
199
  8
TEAM-NET1
 10
835.0
 20
-370.0
 30
595.0
 70
   192
  0
VERTEX
  5
19A
  8
TEAM-NET1
 10
835.0
 20
435.0
 30
599.0
 70
   192
  0
VERTEX
  5
19B
  8
TEAM-NET1
 10
835.0
 20
-375.0
 30
599.0
 70
   192
  0
VERTEX
  5
19C
  8
TEAM-NET1
 10
835.0
 20
440.0
 30
600.0
 70
   192
  0
VERTEX
  5
19D
  8
TEAM-NET1
 10
835.0
 20
-380.0
 30
600.0
 70
   192
  0
VERTEX
  5
19E
  8
TEAM-NET1
 10
846.5
 20
424.5
 30
588.0
 70
   192
  0
VERTEX
  5
19F
  8
TEAM-NET1
 10
846.5
 20
-364.5
 30
588.0
 70
   192
  0
VERTEX
  5
1A0
  8
TEAM-NET1
 10
848.5
 20
428.0
 30
595.0
 70
   192
  0
VERTEX
  5
1A1
  8
TEAM-NET1
 10
848.5
 20
-368.0
 30
595.0
 70
   192
  0
VERTEX
  5
1A2
  8
TEAM-NET1
 10
851.5
 20
432.0
 30
599.0
 70
   192
  0
VERTEX
  5
1A3
  8
TEAM-NET1
 10
851.5
 20
-372.0
 30
599.0
 70
   192
  0
VERTEX
  5
1A4
  8
TEAM-NET1
 10
854.5
 20
436.5
 30
600.0
 70
   192
  0
VERTEX
  5
1A5
  8
TEAM-NET1
 10
854.5
 20
-376.5
 30
600.0
 70
   192
  0
VERTEX
  5
1A6
  8
TEAM-NET1
 10
858.5
 20
418.5
 30
588.0
 70
   192
  0
VERTEX
  5
1A7
  8
TEAM-NET1
 10
858.5
 20
-358.5
 30
588.0
 70
   192
  0
VERTEX
  5
1A8
  8
TEAM-NET1
 10
860.5
 20
421.5
 30
595.0
 70
   192
  0
VERTEX
  5
1A9
  8
TEAM-NET1
 10
860.5
 20
-361.5
 30
595.0
 70
   192
  0
VERTEX
  5
1AA
  8
TEAM-NET1
 10
865.0
 20
425.0
 30
599.0
 70
   192
  0
VERTEX
  5
1AB
  8
TEAM-NET1
 10
865.0
 20
-365.0
 30
599.0
 70
   192
  0
VERTEX
  5
1AC
  8
TEAM-NET1
 10
868.5
 20
409.0
 30
588.0
 70
   192
  0
VERTEX
  5
1AD
  8
TEAM-NET1
 10
868.5
 20
-349.0
 30
588.0
 70
   192
  0
VERTEX
  5
1AE
  8
TEAM-NET1
 10
869.5
 20
428.0
 30
600.0
 70
   192
  0
VERTEX
  5
1AF
  8
TEAM-NET1
 10
869.5
 20
-368.0
 30
600.0
 70
   192
  0
VERTEX
  5
1B0
  8
TEAM-NET1
 10
873.0
 20
410.0
 30
595.0
 70
   192
  0
VERTEX
  5
1B1
  8
TEAM-NET1
 10
873.0
 20
-350.0
 30
595.0
 70
   192
  0
VERTEX
  5
1B2
  8
TEAM-NET1
 10
874.0
 20
397.5
 30
588.0
 70
   192
  0
VERTEX
  5
1B3
  8
TEAM-NET1
 10
874.0
 20
-337.5
 30
588.0
 70
   192
  0
VERTEX
  5
1B4
  8
TEAM-NET1
 10
876.0
 20
385.0
 30
588.0
 70
   192
  0
VERTEX
  5
1B5
  8
TEAM-NET1
 10
876.0
 20
60.0
 30
588.0
 70
   192
  0
VERTEX
  5
1B6
  8
TEAM-NET1
 10
876.0
 20
-325.0
 30
588.0
 70
   192
  0
VERTEX
  5
1B7
  8
TEAM-NET1
 10
876.5
 20
413.0
 30
599.0
 70
   192
  0
VERTEX
  5
1B8
  8
TEAM-NET1
 10
876.5
 20
-353.0
 30
599.0
 70
   192
  0
VERTEX
  5
1B9
  8
TEAM-NET1
 10
878.5
 20
397.5
 30
595.0
 70
   192
  0
VERTEX
  5
1BA
  8
TEAM-NET1
 10
878.5
 20
-337.5
 30
595.0
 70
   192
  0
VERTEX
  5
1BB
  8
TEAM-NET1
 10
880.0
 20
385.0
 30
595.0
 70
   192
  0
VERTEX
  5
1BC
  8
TEAM-NET1
 10
880.0
 20
60.0
 30
595.0
 70
   192
  0
VERTEX
  5
1BD
  8
TEAM-NET1
 10
880.0
 20
-325.0
 30
595.0
 70
   192
  0
VERTEX
  5
1BE
  8
TEAM-NET1
 10
881.0
 20
416.0
 30
600.0
 70
   192
  0
VERTEX
  5
1BF
  8
TEAM-NET1
 10
881.0
 20
-356.0
 30
600.0
 70
   192
  0
VERTEX
  5
1C0
  8
TEAM-NET1
 10
883.0
 20
398.5
 30
599.0
 70
   192
  0
VERTEX
  5
1C1
  8
TEAM-NET1
 10
883.0
 20
-338.5
 30
599.0
 70
   192
  0
VERTEX
  5
1C2
  8
TEAM-NET1
 10
885.0
 20
385.0
 30
599.0
 70
   192
  0
VERTEX
  5
1C3
  8
TEAM-NET1
 10
885.0
 20
60.0
 30
599.0
 70
   192
  0
VERTEX
  5
1C4
  8
TEAM-NET1
 10
885.0
 20
-325.0
 30
599.0
 70
   192
  0
VERTEX
  5
1C5
  8
TEAM-NET1
 10
888.0
 20
400.0
 30
600.0
 70
   192
  0
VERTEX
  5
1C6
  8
TEAM-NET1
 10
888.0
 20
-340.0
 30
600.0
 70
   192
  0
VERTEX
  5
1C7
  8
TEAM-NET1
 10
890.0
 20
385.0
 30
600.0
 70
   192
  0
VERTEX
  5
1C8
  8
TEAM-NET1
 10
890.0
 20
60.0
 30
600.0
 70
   192
  0
VERTEX
  5
1C9
  8
TEAM-NET1
 10
890.0
 20
-325.0
 30
600.0
 70
   192
  0
VERTEX
  5
1CA
  8
TEAM-NET1
 10
940.0
 20
498.0
 30
568.0
 70
   192
  0
VERTEX
  5
1CB
  8
TEAM-NET1
 10
940.0
 20
-498.0
 30
568.0
 70
   192
  0
VERTEX
  5
1CC
  8
TEAM-NET1
 10
940.0
 20
500.0
 30
570.0
 70
   192
  0
VERTEX
  5
1CD
  8
TEAM-NET1
 10
940.0
 20
-500.0
 30
570.0
 70
   192
  0
VERTEX
  5
1CE
  8
TEAM-NET1
 10
940.0
 20
500.0
 30
594.0
 70
   192
  0
VERTEX
  5
1CF
  8
TEAM-NET1
 10
940.0
 20
-500.0
 30
594.0
 70
   192
  0
VERTEX
  5
1D0
  8
TEAM-NET1
 10
940.0
 20
498.0
 30
598.0
 70
   192
  0
VERTEX
  5
1D1
  8
TEAM-NET1
 10
940.0
 20
-498.0
 30
598.0
 70
   192
  0
VERTEX
  5
1D2
  8
TEAM-NET1
 10
940.0
 20
494.0
 30
600.0
 70
   192
  0
VERTEX
  5
1D3
  8
TEAM-NET1
 10
940.0
 20
-494.0
 30
600.0
 70
   192
  0
VERTEX
  5
1D4
  8
TEAM-NET1
 10
941.9
 20
493.4
 30
600.0
 70
   192
  0
VERTEX
  5
1D5
  8
TEAM-NET1
 10
941.9
 20
-493.4
 30
600.0
 70
   192
  0
VERTEX
  5
1D6
  8
TEAM-NET1
 10
943.4
 20
491.9
 30
600.0
 70
   192
  0
VERTEX
  5
1D7
  8
TEAM-NET1
 10
943.4
 20
-491.9
 30
600.0
 70
   192
  0
VERTEX
  5
1D8
  8
TEAM-NET1
 10
943.9
 20
496.9
 30
568.0
 70
   192
  0
VERTEX
  5
1D9
  8
TEAM-NET1
 10
943.9
 20
-496.9
 30
568.0
 70
   192
  0
VERTEX
  5
1DA
  8
TEAM-NET1
 10
943.9
 20
496.9
 30
598.0
 70
   192
  0
VERTEX
  5
1DB
  8
TEAM-NET1
 10
943.9
 20
-496.9
 30
598.0
 70
   192
  0
VERTEX
  5
1DC
  8
TEAM-NET1
 10
944.0
 20
490.0
 30
600.0
 70
   192
  0
VERTEX
  5
1DD
  8
TEAM-NET1
 10
944.0
 20
60.0
 30
600.0
 70
   192
  0
VERTEX
  5
1DE
  8
TEAM-NET1
 10
944.0
 20
-490.0
 30
600.0
 70
   192
  0
VERTEX
  5
1DF
  8
TEAM-NET1
 10
944.9
 20
498.6
 30
570.0
 70
   192
  0
VERTEX
  5
1E0
  8
TEAM-NET1
 10
944.9
 20
-498.6
 30
570.0
 70
   192
  0
VERTEX
  5
1E1
  8
TEAM-NET1
 10
944.9
 20
498.6
 30
594.0
 70
   192
  0
VERTEX
  5
1E2
  8
TEAM-NET1
 10
944.9
 20
-498.6
 30
594.0
 70
   192
  0
VERTEX
  5
1E3
  8
TEAM-NET1
 10
946.9
 20
493.9
 30
568.0
 70
   192
  0
VERTEX
  5
1E4
  8
TEAM-NET1
 10
946.9
 20
-493.9
 30
568.0
 70
   192
  0
VERTEX
  5
1E5
  8
TEAM-NET1
 10
946.9
 20
493.9
 30
598.0
 70
   192
  0
VERTEX
  5
1E6
  8
TEAM-NET1
 10
946.9
 20
-493.9
 30
598.0
 70
   192
  0
VERTEX
  5
1E7
  8
TEAM-NET1
 10
948.0
 20
490.0
 30
568.0
 70
   192
  0
VERTEX
  5
1E8
  8
TEAM-NET1
 10
948.0
 20
60.0
 30
568.0
 70
   192
  0
VERTEX
  5
1E9
  8
TEAM-NET1
 10
948.0
 20
-490.0
 30
568.0
 70
   192
  0
VERTEX
  5
1EA
  8
TEAM-NET1
 10
948.0
 20
490.0
 30
598.0
 70
   192
  0
VERTEX
  5
1EB
  8
TEAM-NET1
 10
948.0
 20
60.0
 30
598.0
 70
   192
  0
VERTEX
  5
1EC
  8
TEAM-NET1
 10
948.0
 20
-490.0
 30
598.0
 70
   192
  0
VERTEX
  5
1ED
  8
TEAM-NET1
 10
948.6
 20
494.9
 30
570.0
 70
   192
  0
VERTEX
  5
1EE
  8
TEAM-NET1
 10
948.6
 20
-494.9
 30
570.0
 70
   192
  0
VERTEX
  5
1EF
  8
TEAM-NET1
 10
948.6
 20
494.9
 30
594.0
 70
   192
  0
VERTEX
  5
1F0
  8
TEAM-NET1
 10
948.6
 20
-494.9
 30
594.0
 70
   192
  0
VERTEX
  5
1F1
  8
TEAM-NET1
 10
950.0
 20
490.0
 30
570.0
 70
   192
  0
VERTEX
  5
1F2
  8
TEAM-NET1
 10
950.0
 20
60.0
 30
570.0
 70
   192
  0
VERTEX
  5
1F3
  8
TEAM-NET1
 10
950.0
 20
-490.0
 30
570.0
 70
   192
  0
VERTEX
  5
1F4
  8
TEAM-NET1
 10
950.0
 20
490.0
 30
594.0
 70
   192
  0
VERTEX
  5
1F5
  8
TEAM-NET1
 10
950.0
 20
60.0
 30
594.0
 70
   192
  0
VERTEX
  5
1F6
  8
TEAM-NET1
 10
950.0
 20
-490.0
 30
594.0
 70
   192
  0
VERTEX
  5
1F7
  8
TEAM-NET1
 10
0.0
 20
0.0
 30
0.0
 70
   128
 71
    36
 72
   236
 73
   238
 74
    38
  0
VERTEX
  5
1F8
  8
TEAM-NET1
 10
0.0
 20
0.0
 30
0.0
 70
   128
 71
    38
 72
   238
 73
   242
 74
    40
  0
VERTEX
  5
1F9
  8
TEAM-NET1
 10
0.0
 20
0.0
 30
0.0
 70
   128
 71
    40
 72
   242
 73
   246
 74
    42
  0
VERTEX
  5
1FA
  8
TEAM-NET1
 10
0.0
 20
0.0
 30
0.0
 70
   128
 71
    42
 72
   246
 73
   250
 74
    44
  0
VERTEX
  5
1FB
  8
TEAM-NET1
 10
0.0
 20
0.0
 30
0.0
 70
   128
 71
     1
 72
     2
 73
    12
 74
    11
  0
VERTEX
  5
1FC
  8
TEAM-NET1
 10
0.0
 20
0.0
 30
0.0
 70
   128
 71
     4
 72
     5
 73
     2
 74
     1
  0
VERTEX
  5
1FD
  8
TEAM-NET1
 10
0.0
 20
0.0
 30
0.0
 70
   128
 71
    14
 72
    15
 73
     5
 74
     4
  0
VERTEX
  5
1FE
  8
TEAM-NET1
 10
0.0
 20
0.0
 30
0.0
 70
   128
 71
    25
 72
    26
 73
    15
 74
    14
  0
VERTEX
  5
1FF
  8
TEAM-NET1
 10
0.0
 20
0.0
 30
0.0
 70
   128
 71
    17
 72
     7
 73
     1
 74
    11
  0
VERTEX
  5
200
  8
TEAM-NET1
 10
0.0
 20
0.0
 30
0.0
 70
   128
 71
    28
 72
    21
 73
     7
 74
    17
  0
VERTEX
  5
201
  8
TEAM-NET1
 10
0.0
 20
0.0
 30
0.0
 70
   128
 71
    36
 72
    38
 73
    21
 74
    28
  0
VERTEX
  5
202
  8
TEAM-NET1
 10
0.0
 20
0.0
 30
0.0
 70
   128
 71
     7
 72
     9
 73
     4
 74
     1
  0
VERTEX
  5
203
  8
TEAM-NET1
 10
0.0
 20
0.0
 30
0.0
 70
   128
 71
    21
 72
    23
 73
     9
 74
     7
  0
VERTEX
  5
204
  8
TEAM-NET1
 10
0.0
 20
0.0
 30
0.0
 70
   128
 71
    38
 72
    40
 73
    23
 74
    21
  0
VERTEX
  5
205
  8
TEAM-NET1
 10
0.0
 20
0.0
 30
0.0
 70
   128
 71
     9
 72
    19
 73
    14
 74
     4
  0
VERTEX
  5
206
  8
TEAM-NET1
 10
0.0
 20
0.0
 30
0.0
 70
   128
 71
    23
 72
    30
 73
    19
 74
     9
  0
VERTEX
  5
207
  8
TEAM-NET1
 10
0.0
 20
0.0
 30
0.0
 70
   128
 71
    40
 72
    42
 73
    30
 74
    23
  0
VERTEX
  5
208
  8
TEAM-NET1
 10
0.0
 20
0.0
 30
0.0
 70
   128
 71
    19
 72
    32
 73
    25
 74
    14
  0
VERTEX
  5
209
  8
TEAM-NET1
 10
0.0
 20
0.0
 30
0.0
 70
   128
 71
    30
 72
    34
 73
    32
 74
    19
  0
VERTEX
  5
20A
  8
TEAM-NET1
 10
0.0
 20
0.0
 30
0.0
 70
   128
 71
    42
 72
    44
 73
    34
 74
    30
  0
VERTEX
  5
20B
  8
TEAM-NET1
 10
0.0
 20
0.0
 30
0.0
 70
   128
 71
    96
 72
    94
 73
    84
 74
    82
  0
VERTEX
  5
20C
  8
TEAM-NET1
 10
0.0
 20
0.0
 30
0.0
 70
   128
 71
    82
 72
    84
 73
    76
 74
    72
  0
VERTEX
  5
20D
  8
TEAM-NET1
 10
0.0
 20
0.0
 30
0.0
 70
   128
 71
    72
 72
    76
 73
    63
 74
    56
  0
VERTEX
  5
20E
  8
TEAM-NET1
 10
0.0
 20
0.0
 30
0.0
 70
   128
 71
    56
 72
    63
 73
    54
 74
    49
  0
VERTEX
  5
20F
  8
TEAM-NET1
 10
0.0
 20
0.0
 30
0.0
 70
   128
 71
    49
 72
    54
 73
    51
 74
    46
  0
VERTEX
  5
210
  8
TEAM-NET1
 10
0.0
 20
0.0
 30
0.0
 70
   128
 71
    47
 72
    46
 73
    51
 74
    52
  0
VERTEX
  5
211
  8
TEAM-NET1
 10
0.0
 20
0.0
 30
0.0
 70
   128
 71
    94
 72
    92
 73
    86
 74
    84
  0
VERTEX
  5
212
  8
TEAM-NET1
 10
0.0
 20
0.0
 30
0.0
 70
   128
 71
    84
 72
    86
 73
    78
 74
    76
  0
VERTEX
  5
213
  8
TEAM-NET1
 10
0.0
 20
0.0
 30
0.0
 70
   128
 71
    76
 72
    78
 73
    70
 74
    63
  0
VERTEX
  5
214
  8
TEAM-NET1
 10
0.0
 20
0.0
 30
0.0
 70
   128
 71
    63
 72
    70
 73
    61
 74
    54
  0
VERTEX
  5
215
  8
TEAM-NET1
 10
0.0
 20
0.0
 30
0.0
 70
   128
 71
    54
 72
    61
 73
    58
 74
    51
  0
VERTEX
  5
216
  8
TEAM-NET1
 10
0.0
 20
0.0
 30
0.0
 70
   128
 71
    52
 72
    51
 73
    58
 74
    59
  0
VERTEX
  5
217
  8
TEAM-NET1
 10
0.0
 20
0.0
 30
0.0
 70
   128
 71
    92
 72
    90
 73
    88
 74
    86
  0
VERTEX
  5
218
  8
TEAM-NET1
 10
0.0
 20
0.0
 30
0.0
 70
   128
 71
    86
 72
    88
 73
    80
 74
    78
  0
VERTEX
  5
219
  8
TEAM-NET1
 10
0.0
 20
0.0
 30
0.0
 70
   128
 71
    78
 72
    80
 73
    74
 74
    70
  0
VERTEX
  5
21A
  8
TEAM-NET1
 10
0.0
 20
0.0
 30
0.0
 70
   128
 71
    70
 72
    74
 73
    68
 74
    61
  0
VERTEX
  5
21B
  8
TEAM-NET1
 10
0.0
 20
0.0
 30
0.0
 70
   128
 71
    61
 72
    68
 73
    65
 74
    58
  0
VERTEX
  5
21C
  8
TEAM-NET1
 10
0.0
 20
0.0
 30
0.0
 70
   128
 71
    59
 72
    58
 73
    65
 74
    66
  0
VERTEX
  5
21D
  8
TEAM-NET1
 10
0.0
 20
0.0
 30
0.0
 70
   128
 71
    96
 72
   251
 73
   248
 74
    94
  0
VERTEX
  5
21E
  8
TEAM-NET1
 10
0.0
 20
0.0
 30
0.0
 70
   128
 71
    94
 72
   248
 73
   244
 74
    92
  0
VERTEX
  5
21F
  8
TEAM-NET1
 10
0.0
 20
0.0
 30
0.0
 70
   128
 71
    92
 72
   244
 73
   240
 74
    90
  0
VERTEX
  5
220
  8
TEAM-NET1
 10
0.0
 20
0.0
 30
0.0
 70
   128
 71
   101
 72
   108
 73
   105
 74
    98
  0
VERTEX
  5
221
  8
TEAM-NET1
 10
0.0
 20
0.0
 30
0.0
 70
   128
 71
   103
 72
   112
 73
   108
 74
   101
  0
VERTEX
  5
222
  8
TEAM-NET1
 10
0.0
 20
0.0
 30
0.0
 70
   128
 71
   110
 72
   116
 73
   112
 74
   103
  0
VERTEX
  5
223
  8
TEAM-NET1
 10
0.0
 20
0.0
 30
0.0
 70
   128
 71
   114
 72
   123
 73
   116
 74
   110
  0
VERTEX
  5
224
  8
TEAM-NET1
 10
0.0
 20
0.0
 30
0.0
 70
   128
 71
   125
 72
   131
 73
   123
 74
   114
  0
VERTEX
  5
225
  8
TEAM-NET1
 10
0.0
 20
0.0
 30
0.0
 70
   128
 71
   108
 72
   121
 73
   118
 74
   105
  0
VERTEX
  5
226
  8
TEAM-NET1
 10
0.0
 20
0.0
 30
0.0
 70
   128
 71
   112
 72
   127
 73
   121
 74
   108
  0
VERTEX
  5
227
  8
TEAM-NET1
 10
0.0
 20
0.0
 30
0.0
 70
   128
 71
   116
 72
   129
 73
   127
 74
   112
  0
VERTEX
  5
228
  8
TEAM-NET1
 10
0.0
 20
0.0
 30
0.0
 70
   128
 71
   123
 72
   133
 73
   129
 74
   116
  0
VERTEX
  5
229
  8
TEAM-NET1
 10
0.0
 20
0.0
 30
0.0
 70
   128
 71
   131
 72
   144
 73
   133
 74
   123
  0
VERTEX
  5
22A
  8
TEAM-NET1
 10
0.0
 20
0.0
 30
0.0
 70
   128
 71
   121
 72
   140
 73
   137
 74
   118
  0
VERTEX
  5
22B
  8
TEAM-NET1
 10
0.0
 20
0.0
 30
0.0
 70
   128
 71
   127
 72
   146
 73
   140
 74
   121
  0
VERTEX
  5
22C
  8
TEAM-NET1
 10
0.0
 20
0.0
 30
0.0
 70
   128
 71
   129
 72
   148
 73
   146
 74
   127
  0
VERTEX
  5
22D
  8
TEAM-NET1
 10
0.0
 20
0.0
 30
0.0
 70
   128
 71
   133
 72
   154
 73
   148
 74
   129
  0
VERTEX
  5
22E
  8
TEAM-NET1
 10
0.0
 20
0.0
 30
0.0
 70
   128
 71
   144
 72
   158
 73
   154
 74
   133
  0
VERTEX
  5
22F
  8
TEAM-NET1
 10
0.0
 20
0.0
 30
0.0
 70
   128
 71
   188
 72
   186
 73
   176
 74
   174
  0
VERTEX
  5
230
  8
TEAM-NET1
 10
0.0
 20
0.0
 30
0.0
 70
   128
 71
   174
 72
   176
 73
   166
 74
   162
  0
VERTEX
  5
231
  8
TEAM-NET1
 10
0.0
 20
0.0
 30
0.0
 70
   128
 71
   162
 72
   166
 73
   156
 74
   150
  0
VERTEX
  5
232
  8
TEAM-NET1
 10
0.0
 20
0.0
 30
0.0
 70
   128
 71
   150
 72
   156
 73
   142
 74
   135
  0
VERTEX
  5
233
  8
TEAM-NET1
 10
0.0
 20
0.0
 30
0.0
 70
   128
 71
   135
 72
   142
 73
   131
 74
   125
  0
VERTEX
  5
234
  8
TEAM-NET1
 10
0.0
 20
0.0
 30
0.0
 70
   128
 71
   186
 72
   184
 73
   178
 74
   176
  0
VERTEX
  5
235
  8
TEAM-NET1
 10
0.0
 20
0.0
 30
0.0
 70
   128
 71
   176
 72
   178
 73
   170
 74
   166
  0
VERTEX
  5
236
  8
TEAM-NET1
 10
0.0
 20
0.0
 30
0.0
 70
   128
 71
   166
 72
   170
 73
   160
 74
   156
  0
VERTEX
  5
237
  8
TEAM-NET1
 10
0.0
 20
0.0
 30
0.0
 70
   128
 71
   156
 72
   160
 73
   152
 74
   142
  0
VERTEX
  5
238
  8
TEAM-NET1
 10
0.0
 20
0.0
 30
0.0
 70
   128
 71
   142
 72
   152
 73
   144
 74
   131
  0
VERTEX
  5
239
  8
TEAM-NET1
 10
0.0
 20
0.0
 30
0.0
 70
   128
 71
   184
 72
   182
 73
   180
 74
   178
  0
VERTEX
  5
23A
  8
TEAM-NET1
 10
0.0
 20
0.0
 30
0.0
 70
   128
 71
   178
 72
   180
 73
   172
 74
   170
  0
VERTEX
  5
23B
  8
TEAM-NET1
 10
0.0
 20
0.0
 30
0.0
 70
   128
 71
   170
 72
   172
 73
   168
 74
   160
  0
VERTEX
  5
23C
  8
TEAM-NET1
 10
0.0
 20
0.0
 30
0.0
 70
   128
 71
   160
 72
   168
 73
   164
 74
   152
  0
VERTEX
  5
23D
  8
TEAM-NET1
 10
0.0
 20
0.0
 30
0.0
 70
   128
 71
   152
 72
   164
 73
   158
 74
   144
  0
VERTEX
  5
23E
  8
TEAM-NET1
 10
0.0
 20
0.0
 30
0.0
 70
   128
 71
   105
 72
   106
 73
    99
 74
    98
  0
VERTEX
  5
23F
  8
TEAM-NET1
 10
0.0
 20
0.0
 30
0.0
 70
   128
 71
   118
 72
   119
 73
   106
 74
   105
  0
VERTEX
  5
240
  8
TEAM-NET1
 10
0.0
 20
0.0
 30
0.0
 70
   128
 71
   137
 72
   138
 73
   119
 74
   118
  0
VERTEX
  5
241
  8
TEAM-NET1
 10
0.0
 20
0.0
 30
0.0
 70
   128
 71
    99
 72
    66
 73
    65
 74
    98
  0
VERTEX
  5
242
  8
TEAM-NET1
 10
0.0
 20
0.0
 30
0.0
 70
   128
 71
    98
 72
    65
 73
    65
 74
   101
  0
VERTEX
  5
243
  8
TEAM-NET1
 10
0.0
 20
0.0
 30
0.0
 70
   128
 71
   101
 72
    65
 73
    68
 74
   103
  0
VERTEX
  5
244
  8
TEAM-NET1
 10
0.0
 20
0.0
 30
0.0
 70
   128
 71
   103
 72
    68
 73
    68
 74
   110
  0
VERTEX
  5
245
  8
TEAM-NET1
 10
0.0
 20
0.0
 30
0.0
 70
   128
 71
   110
 72
    68
 73
    74
 74
   114
  0
VERTEX
  5
246
  8
TEAM-NET1
 10
0.0
 20
0.0
 30
0.0
 70
   128
 71
   114
 72
    74
 73
    80
 74
   125
  0
VERTEX
  5
247
  8
TEAM-NET1
 10
0.0
 20
0.0
 30
0.0
 70
   128
 71
   125
 72
    80
 73
    80
 74
   135
  0
VERTEX
  5
248
  8
TEAM-NET1
 10
0.0
 20
0.0
 30
0.0
 70
   128
 71
   135
 72
    80
 73
    88
 74
   150
  0
VERTEX
  5
249
  8
TEAM-NET1
 10
0.0
 20
0.0
 30
0.0
 70
   128
 71
   150
 72
    88
 73
    88
 74
   162
  0
VERTEX
  5
24A
  8
TEAM-NET1
 10
0.0
 20
0.0
 30
0.0
 70
   128
 71
   162
 72
    88
 73
    90
 74
   174
  0
VERTEX
  5
24B
  8
TEAM-NET1
 10
0.0
 20
0.0
 30
0.0
 70
   128
 71
   174
 72
    90
 73
    90
 74
   188
  0
VERTEX
  5
24C
  8
TEAM-NET1
 10
0.0
 20
0.0
 30
0.0
 70
   128
 71
    90
 72
   240
 73
   234
 74
   188
  0
VERTEX
  5
24D
  8
TEAM-NET1
 10
0.0
 20
0.0
 30
0.0
 70
   128
 71
   188
 72
   234
 73
   232
 74
   186
  0
VERTEX
  5
24E
  8
TEAM-NET1
 10
0.0
 20
0.0
 30
0.0
 70
   128
 71
   186
 72
   232
 73
   230
 74
   184
  0
VERTEX
  5
24F
  8
TEAM-NET1
 10
0.0
 20
0.0
 30
0.0
 70
   128
 71
   184
 72
   230
 73
   223
 74
   182
  0
VERTEX
  5
250
  8
TEAM-NET1
 10
0.0
 20
0.0
 30
0.0
 70
   128
 71
    47
 72
    26
 73
    25
 74
    46
  0
VERTEX
  5
251
  8
TEAM-NET1
 10
0.0
 20
0.0
 30
0.0
 70
   128
 71
    46
 72
    25
 73
    32
 74
    49
  0
VERTEX
  5
252
  8
TEAM-NET1
 10
0.0
 20
0.0
 30
0.0
 70
   128
 71
    49
 72
    32
 73
    32
 74
    56
  0
VERTEX
  5
253
  8
TEAM-NET1
 10
0.0
 20
0.0
 30
0.0
 70
   128
 71
    56
 72
    32
 73
    34
 74
    72
  0
VERTEX
  5
254
  8
TEAM-NET1
 10
0.0
 20
0.0
 30
0.0
 70
   128
 71
    72
 72
    34
 73
    44
 74
    82
  0
VERTEX
  5
255
  8
TEAM-NET1
 10
0.0
 20
0.0
 30
0.0
 70
   128
 71
    82
 72
    44
 73
    44
 74
    96
  0
VERTEX
  5
256
  8
TEAM-NET1
 10
0.0
 20
0.0
 30
0.0
 70
   128
 71
    44
 72
   250
 73
   251
 74
    96
  0
VERTEX
  5
257
  8
TEAM-NET1
 10
0.0
 20
0.0
 30
0.0
 70
   128
 71
   194
 72
   193
 73
   190
 74
   191
  0
VERTEX
  5
258
  8
TEAM-NET1
 10
0.0
 20
0.0
 30
0.0
 70
   128
 71
   201
 72
   196
 73
   190
 74
   193
  0
VERTEX
  5
259
  8
TEAM-NET1
 10
0.0
 20
0.0
 30
0.0
 70
   128
 71
   214
 72
   210
 73
   196
 74
   201
  0
VERTEX
  5
25A
  8
TEAM-NET1
 10
0.0
 20
0.0
 30
0.0
 70
   128
 71
   224
 72
   218
 73
   210
 74
   214
  0
VERTEX
  5
25B
  8
TEAM-NET1
 10
0.0
 20
0.0
 30
0.0
 70
   128
 71
   191
 72
   190
 73
   220
  0
VERTEX
  5
25C
  8
TEAM-NET1
 10
0.0
 20
0.0
 30
0.0
 70
   128
 71
   196
 72
   220
 73
   220
 74
   190
  0
VERTEX
  5
25D
  8
TEAM-NET1
 10
0.0
 20
0.0
 30
0.0
 70
   128
 71
   210
 72
   220
 73
   220
 74
   196
  0
VERTEX
  5
25E
  8
TEAM-NET1
 10
0.0
 20
0.0
 30
0.0
 70
   128
 71
   218
 72
   220
 73
   220
 74
   210
  0
VERTEX
  5
25F
  8
TEAM-NET1
 10
0.0
 20
0.0
 30
0.0
 70
   128
 71
   138
 72
   137
 73
   193
 74
   194
  0
VERTEX
  5
260
  8
TEAM-NET1
 10
0.0
 20
0.0
 30
0.0
 70
   128
 71
   140
 72
   193
 73
   193
 74
   137
  0
VERTEX
  5
261
  8
TEAM-NET1
 10
0.0
 20
0.0
 30
0.0
 70
   128
 71
   146
 72
   193
 73
   193
 74
   140
  0
VERTEX
  5
262
  8
TEAM-NET1
 10
0.0
 20
0.0
 30
0.0
 70
   128
 71
   148
 72
   193
 73
   193
 74
   146
  0
VERTEX
  5
263
  8
TEAM-NET1
 10
0.0
 20
0.0
 30
0.0
 70
   128
 71
   154
 72
   201
 73
   193
 74
   148
  0
VERTEX
  5
264
  8
TEAM-NET1
 10
0.0
 20
0.0
 30
0.0
 70
   128
 71
   158
 72
   201
 73
   201
 74
   154
  0
VERTEX
  5
265
  8
TEAM-NET1
 10
0.0
 20
0.0
 30
0.0
 70
   128
 71
   164
 72
   201
 73
   201
 74
   158
  0
VERTEX
  5
266
  8
TEAM-NET1
 10
0.0
 20
0.0
 30
0.0
 70
   128
 71
   168
 72
   214
 73
   201
 74
   164
  0
VERTEX
  5
267
  8
TEAM-NET1
 10
0.0
 20
0.0
 30
0.0
 70
   128
 71
   172
 72
   214
 73
   214
 74
   168
  0
VERTEX
  5
268
  8
TEAM-NET1
 10
0.0
 20
0.0
 30
0.0
 70
   128
 71
   180
 72
   214
 73
   214
 74
   172
  0
VERTEX
  5
269
  8
TEAM-NET1
 10
0.0
 20
0.0
 30
0.0
 70
   128
 71
   182
 72
   214
 73
   214
 74
   180
  0
VERTEX
  5
26A
  8
TEAM-NET1
 10
0.0
 20
0.0
 30
0.0
 70
   128
 71
   182
 72
   224
 73
   214
  0
VERTEX
  5
26B
  8
TEAM-NET1
 10
0.0
 20
0.0
 30
0.0
 70
   128
 71
   198
 72
   197
 73
   202
 74
   203
  0
VERTEX
  5
26C
  8
TEAM-NET1
 10
0.0
 20
0.0
 30
0.0
 70
   128
 71
   206
 72
   208
 73
   202
 74
   197
  0
VERTEX
  5
26D
  8
TEAM-NET1
 10
0.0
 20
0.0
 30
0.0
 70
   128
 71
   211
 72
   215
 73
   208
 74
   206
  0
VERTEX
  5
26E
  8
TEAM-NET1
 10
0.0
 20
0.0
 30
0.0
 70
   128
 71
   219
 72
   225
 73
   215
 74
   211
  0
VERTEX
  5
26F
  8
TEAM-NET1
 10
0.0
 20
0.0
 30
0.0
 70
   128
 71
   203
 72
   202
 73
   226
  0
VERTEX
  5
270
  8
TEAM-NET1
 10
0.0
 20
0.0
 30
0.0
 70
   128
 71
   208
 72
   226
 73
   226
 74
   202
  0
VERTEX
  5
271
  8
TEAM-NET1
 10
0.0
 20
0.0
 30
0.0
 70
   128
 71
   215
 72
   226
 73
   226
 74
   208
  0
VERTEX
  5
272
  8
TEAM-NET1
 10
0.0
 20
0.0
 30
0.0
 70
   128
 71
   225
 72
   226
 73
   226
 74
   215
  0
VERTEX
  5
273
  8
TEAM-NET1
 10
0.0
 20
0.0
 30
0.0
 70
   128
 71
   223
 72
   224
 73
   182
  0
VERTEX
  5
274
  8
TEAM-NET1
 10
0.0
 20
0.0
 30
0.0
 70
   128
 71
    39
 72
   239
 73
   237
 74
    37
  0
VERTEX
  5
275
  8
TEAM-NET1
 10
0.0
 20
0.0
 30
0.0
 70
   128
 71
    41
 72
   243
 73
   239
 74
    39
  0
VERTEX
  5
276
  8
TEAM-NET1
 10
0.0
 20
0.0
 30
0.0
 70
   128
 71
    43
 72
   247
 73
   243
 74
    41
  0
VERTEX
  5
277
  8
TEAM-NET1
 10
0.0
 20
0.0
 30
0.0
 70
   128
 71
    45
 72
   253
 73
   247
 74
    43
  0
VERTEX
  5
278
  8
TEAM-NET1
 10
0.0
 20
0.0
 30
0.0
 70
   128
 71
    13
 72
    12
 73
     2
 74
     3
  0
VERTEX
  5
279
  8
TEAM-NET1
 10
0.0
 20
0.0
 30
0.0
 70
   128
 71
     3
 72
     2
 73
     5
 74
     6
  0
VERTEX
  5
27A
  8
TEAM-NET1
 10
0.0
 20
0.0
 30
0.0
 70
   128
 71
     6
 72
     5
 73
    15
 74
    16
  0
VERTEX
  5
27B
  8
TEAM-NET1
 10
0.0
 20
0.0
 30
0.0
 70
   128
 71
    16
 72
    15
 73
    26
 74
    27
  0
VERTEX
  5
27C
  8
TEAM-NET1
 10
0.0
 20
0.0
 30
0.0
 70
   128
 71
    13
 72
     3
 73
     8
 74
    18
  0
VERTEX
  5
27D
  8
TEAM-NET1
 10
0.0
 20
0.0
 30
0.0
 70
   128
 71
    18
 72
     8
 73
    22
 74
    29
  0
VERTEX
  5
27E
  8
TEAM-NET1
 10
0.0
 20
0.0
 30
0.0
 70
   128
 71
    29
 72
    22
 73
    39
 74
    37
  0
VERTEX
  5
27F
  8
TEAM-NET1
 10
0.0
 20
0.0
 30
0.0
 70
   128
 71
     3
 72
     6
 73
    10
 74
     8
  0
VERTEX
  5
280
  8
TEAM-NET1
 10
0.0
 20
0.0
 30
0.0
 70
   128
 71
     8
 72
    10
 73
    24
 74
    22
  0
VERTEX
  5
281
  8
TEAM-NET1
 10
0.0
 20
0.0
 30
0.0
 70
   128
 71
    22
 72
    24
 73
    41
 74
    39
  0
VERTEX
  5
282
  8
TEAM-NET1
 10
0.0
 20
0.0
 30
0.0
 70
   128
 71
     6
 72
    16
 73
    20
 74
    10
  0
VERTEX
  5
283
  8
TEAM-NET1
 10
0.0
 20
0.0
 30
0.0
 70
   128
 71
    10
 72
    20
 73
    31
 74
    24
  0
VERTEX
  5
284
  8
TEAM-NET1
 10
0.0
 20
0.0
 30
0.0
 70
   128
 71
    24
 72
    31
 73
    43
 74
    41
  0
VERTEX
  5
285
  8
TEAM-NET1
 10
0.0
 20
0.0
 30
0.0
 70
   128
 71
    16
 72
    27
 73
    33
 74
    20
  0
VERTEX
  5
286
  8
TEAM-NET1
 10
0.0
 20
0.0
 30
0.0
 70
   128
 71
    20
 72
    33
 73
    35
 74
    31
  0
VERTEX
  5
287
  8
TEAM-NET1
 10
0.0
 20
0.0
 30
0.0
 70
   128
 71
    31
 72
    35
 73
    45
 74
    43
  0
VERTEX
  5
288
  8
TEAM-NET1
 10
0.0
 20
0.0
 30
0.0
 70
   128
 71
    83
 72
    85
 73
    95
 74
    97
  0
VERTEX
  5
289
  8
TEAM-NET1
 10
0.0
 20
0.0
 30
0.0
 70
   128
 71
    73
 72
    77
 73
    85
 74
    83
  0
VERTEX
  5
28A
  8
TEAM-NET1
 10
0.0
 20
0.0
 30
0.0
 70
   128
 71
    57
 72
    64
 73
    77
 74
    73
  0
VERTEX
  5
28B
  8
TEAM-NET1
 10
0.0
 20
0.0
 30
0.0
 70
   128
 71
    50
 72
    55
 73
    64
 74
    57
  0
VERTEX
  5
28C
  8
TEAM-NET1
 10
0.0
 20
0.0
 30
0.0
 70
   128
 71
    48
 72
    53
 73
    55
 74
    50
  0
VERTEX
  5
28D
  8
TEAM-NET1
 10
0.0
 20
0.0
 30
0.0
 70
   128
 71
    52
 72
    53
 73
    48
 74
    47
  0
VERTEX
  5
28E
  8
TEAM-NET1
 10
0.0
 20
0.0
 30
0.0
 70
   128
 71
    85
 72
    87
 73
    93
 74
    95
  0
VERTEX
  5
28F
  8
TEAM-NET1
 10
0.0
 20
0.0
 30
0.0
 70
   128
 71
    77
 72
    79
 73
    87
 74
    85
  0
VERTEX
  5
290
  8
TEAM-NET1
 10
0.0
 20
0.0
 30
0.0
 70
   128
 71
    64
 72
    71
 73
    79
 74
    77
  0
VERTEX
  5
291
  8
TEAM-NET1
 10
0.0
 20
0.0
 30
0.0
 70
   128
 71
    55
 72
    62
 73
    71
 74
    64
  0
VERTEX
  5
292
  8
TEAM-NET1
 10
0.0
 20
0.0
 30
0.0
 70
   128
 71
    53
 72
    60
 73
    62
 74
    55
  0
VERTEX
  5
293
  8
TEAM-NET1
 10
0.0
 20
0.0
 30
0.0
 70
   128
 71
    59
 72
    60
 73
    53
 74
    52
  0
VERTEX
  5
294
  8
TEAM-NET1
 10
0.0
 20
0.0
 30
0.0
 70
   128
 71
    87
 72
    89
 73
    91
 74
    93
  0
VERTEX
  5
295
  8
TEAM-NET1
 10
0.0
 20
0.0
 30
0.0
 70
   128
 71
    79
 72
    81
 73
    89
 74
    87
  0
VERTEX
  5
296
  8
TEAM-NET1
 10
0.0
 20
0.0
 30
0.0
 70
   128
 71
    71
 72
    75
 73
    81
 74
    79
  0
VERTEX
  5
297
  8
TEAM-NET1
 10
0.0
 20
0.0
 30
0.0
 70
   128
 71
    62
 72
    69
 73
    75
 74
    71
  0
VERTEX
  5
298
  8
TEAM-NET1
 10
0.0
 20
0.0
 30
0.0
 70
   128
 71
    60
 72
    67
 73
    69
 74
    62
  0
VERTEX
  5
299
  8
TEAM-NET1
 10
0.0
 20
0.0
 30
0.0
 70
   128
 71
    66
 72
    67
 73
    60
 74
    59
  0
VERTEX
  5
29A
  8
TEAM-NET1
 10
0.0
 20
0.0
 30
0.0
 70
   128
 71
    95
 72
   249
 73
   252
 74
    97
  0
VERTEX
  5
29B
  8
TEAM-NET1
 10
0.0
 20
0.0
 30
0.0
 70
   128
 71
    93
 72
   245
 73
   249
 74
    95
  0
VERTEX
  5
29C
  8
TEAM-NET1
 10
0.0
 20
0.0
 30
0.0
 70
   128
 71
    91
 72
   241
 73
   245
 74
    93
  0
VERTEX
  5
29D
  8
TEAM-NET1
 10
0.0
 20
0.0
 30
0.0
 70
   128
 71
   100
 72
   107
 73
   109
 74
   102
  0
VERTEX
  5
29E
  8
TEAM-NET1
 10
0.0
 20
0.0
 30
0.0
 70
   128
 71
   102
 72
   109
 73
   113
 74
   104
  0
VERTEX
  5
29F
  8
TEAM-NET1
 10
0.0
 20
0.0
 30
0.0
 70
   128
 71
   104
 72
   113
 73
   117
 74
   111
  0
VERTEX
  5
2A0
  8
TEAM-NET1
 10
0.0
 20
0.0
 30
0.0
 70
   128
 71
   111
 72
   117
 73
   124
 74
   115
  0
VERTEX
  5
2A1
  8
TEAM-NET1
 10
0.0
 20
0.0
 30
0.0
 70
   128
 71
   115
 72
   124
 73
   132
 74
   126
  0
VERTEX
  5
2A2
  8
TEAM-NET1
 10
0.0
 20
0.0
 30
0.0
 70
   128
 71
   107
 72
   120
 73
   122
 74
   109
  0
VERTEX
  5
2A3
  8
TEAM-NET1
 10
0.0
 20
0.0
 30
0.0
 70
   128
 71
   109
 72
   122
 73
   128
 74
   113
  0
VERTEX
  5
2A4
  8
TEAM-NET1
 10
0.0
 20
0.0
 30
0.0
 70
   128
 71
   113
 72
   128
 73
   130
 74
   117
  0
VERTEX
  5
2A5
  8
TEAM-NET1
 10
0.0
 20
0.0
 30
0.0
 70
   128
 71
   117
 72
   130
 73
   134
 74
   124
  0
VERTEX
  5
2A6
  8
TEAM-NET1
 10
0.0
 20
0.0
 30
0.0
 70
   128
 71
   124
 72
   134
 73
   145
 74
   132
  0
VERTEX
  5
2A7
  8
TEAM-NET1
 10
0.0
 20
0.0
 30
0.0
 70
   128
 71
   120
 72
   139
 73
   141
 74
   122
  0
VERTEX
  5
2A8
  8
TEAM-NET1
 10
0.0
 20
0.0
 30
0.0
 70
   128
 71
   122
 72
   141
 73
   147
 74
   128
  0
VERTEX
  5
2A9
  8
TEAM-NET1
 10
0.0
 20
0.0
 30
0.0
 70
   128
 71
   128
 72
   147
 73
   149
 74
   130
  0
VERTEX
  5
2AA
  8
TEAM-NET1
 10
0.0
 20
0.0
 30
0.0
 70
   128
 71
   130
 72
   149
 73
   155
 74
   134
  0
VERTEX
  5
2AB
  8
TEAM-NET1
 10
0.0
 20
0.0
 30
0.0
 70
   128
 71
   134
 72
   155
 73
   159
 74
   145
  0
VERTEX
  5
2AC
  8
TEAM-NET1
 10
0.0
 20
0.0
 30
0.0
 70
   128
 71
   175
 72
   177
 73
   187
 74
   189
  0
VERTEX
  5
2AD
  8
TEAM-NET1
 10
0.0
 20
0.0
 30
0.0
 70
   128
 71
   163
 72
   167
 73
   177
 74
   175
  0
VERTEX
  5
2AE
  8
TEAM-NET1
 10
0.0
 20
0.0
 30
0.0
 70
   128
 71
   151
 72
   157
 73
   167
 74
   163
  0
VERTEX
  5
2AF
  8
TEAM-NET1
 10
0.0
 20
0.0
 30
0.0
 70
   128
 71
   136
 72
   143
 73
   157
 74
   151
  0
VERTEX
  5
2B0
  8
TEAM-NET1
 10
0.0
 20
0.0
 30
0.0
 70
   128
 71
   126
 72
   132
 73
   143
 74
   136
  0
VERTEX
  5
2B1
  8
TEAM-NET1
 10
0.0
 20
0.0
 30
0.0
 70
   128
 71
   177
 72
   179
 73
   185
 74
   187
  0
VERTEX
  5
2B2
  8
TEAM-NET1
 10
0.0
 20
0.0
 30
0.0
 70
   128
 71
   167
 72
   171
 73
   179
 74
   177
  0
VERTEX
  5
2B3
  8
TEAM-NET1
 10
0.0
 20
0.0
 30
0.0
 70
   128
 71
   157
 72
   161
 73
   171
 74
   167
  0
VERTEX
  5
2B4
  8
TEAM-NET1
 10
0.0
 20
0.0
 30
0.0
 70
   128
 71
   143
 72
   153
 73
   161
 74
   157
  0
VERTEX
  5
2B5
  8
TEAM-NET1
 10
0.0
 20
0.0
 30
0.0
 70
   128
 71
   132
 72
   145
 73
   153
 74
   143
  0
VERTEX
  5
2B6
  8
TEAM-NET1
 10
0.0
 20
0.0
 30
0.0
 70
   128
 71
   185
 72
   183
 73
   181
 74
   179
  0
VERTEX
  5
2B7
  8
TEAM-NET1
 10
0.0
 20
0.0
 30
0.0
 70
   128
 71
   171
 72
   173
 73
   181
 74
   179
  0
VERTEX
  5
2B8
  8
TEAM-NET1
 10
0.0
 20
0.0
 30
0.0
 70
   128
 71
   171
 72
   173
 73
   169
 74
   161
  0
VERTEX
  5
2B9
  8
TEAM-NET1
 10
0.0
 20
0.0
 30
0.0
 70
   128
 71
   161
 72
   169
 73
   165
 74
   153
  0
VERTEX
  5
2BA
  8
TEAM-NET1
 10
0.0
 20
0.0
 30
0.0
 70
   128
 71
   145
 72
   159
 73
   165
 74
   153
  0
VERTEX
  5
2BB
  8
TEAM-NET1
 10
0.0
 20
0.0
 30
0.0
 70
   128
 71
   100
 72
    99
 73
   106
 74
   107
  0
VERTEX
  5
2BC
  8
TEAM-NET1
 10
0.0
 20
0.0
 30
0.0
 70
   128
 71
   107
 72
   106
 73
   119
 74
   120
  0
VERTEX
  5
2BD
  8
TEAM-NET1
 10
0.0
 20
0.0
 30
0.0
 70
   128
 71
   120
 72
   119
 73
   138
 74
   139
  0
VERTEX
  5
2BE
  8
TEAM-NET1
 10
0.0
 20
0.0
 30
0.0
 70
   128
 71
   100
 72
    67
 73
    66
 74
    99
  0
VERTEX
  5
2BF
  8
TEAM-NET1
 10
0.0
 20
0.0
 30
0.0
 70
   128
 71
   102
 72
    67
 73
    67
 74
   100
  0
VERTEX
  5
2C0
  8
TEAM-NET1
 10
0.0
 20
0.0
 30
0.0
 70
   128
 71
   104
 72
    69
 73
    67
 74
   102
  0
VERTEX
  5
2C1
  8
TEAM-NET1
 10
0.0
 20
0.0
 30
0.0
 70
   128
 71
   111
 72
    69
 73
    69
 74
   104
  0
VERTEX
  5
2C2
  8
TEAM-NET1
 10
0.0
 20
0.0
 30
0.0
 70
   128
 71
   115
 72
    75
 73
    69
 74
   111
  0
VERTEX
  5
2C3
  8
TEAM-NET1
 10
0.0
 20
0.0
 30
0.0
 70
   128
 71
   126
 72
    81
 73
    75
 74
   115
  0
VERTEX
  5
2C4
  8
TEAM-NET1
 10
0.0
 20
0.0
 30
0.0
 70
   128
 71
   136
 72
    81
 73
    81
 74
   126
  0
VERTEX
  5
2C5
  8
TEAM-NET1
 10
0.0
 20
0.0
 30
0.0
 70
   128
 71
   151
 72
    89
 73
    81
 74
   136
  0
VERTEX
  5
2C6
  8
TEAM-NET1
 10
0.0
 20
0.0
 30
0.0
 70
   128
 71
   163
 72
    89
 73
    89
 74
   151
  0
VERTEX
  5
2C7
  8
TEAM-NET1
 10
0.0
 20
0.0
 30
0.0
 70
   128
 71
   175
 72
    91
 73
    89
 74
   163
  0
VERTEX
  5
2C8
  8
TEAM-NET1
 10
0.0
 20
0.0
 30
0.0
 70
   128
 71
   189
 72
    91
 73
    91
 74
   175
  0
VERTEX
  5
2C9
  8
TEAM-NET1
 10
0.0
 20
0.0
 30
0.0
 70
   128
 71
   189
 72
   235
 73
   241
 74
    91
  0
VERTEX
  5
2CA
  8
TEAM-NET1
 10
0.0
 20
0.0
 30
0.0
 70
   128
 71
   187
 72
   233
 73
   235
 74
   189
  0
VERTEX
  5
2CB
  8
TEAM-NET1
 10
0.0
 20
0.0
 30
0.0
 70
   128
 71
   185
 72
   231
 73
   233
 74
   187
  0
VERTEX
  5
2CC
  8
TEAM-NET1
 10
0.0
 20
0.0
 30
0.0
 70
   128
 71
   185
 72
   231
 73
   229
 74
   183
  0
VERTEX
  5
2CD
  8
TEAM-NET1
 10
0.0
 20
0.0
 30
0.0
 70
   128
 71
    48
 72
    27
 73
    26
 74
    47
  0
VERTEX
  5
2CE
  8
TEAM-NET1
 10
0.0
 20
0.0
 30
0.0
 70
   128
 71
    50
 72
    33
 73
    27
 74
    48
  0
VERTEX
  5
2CF
  8
TEAM-NET1
 10
0.0
 20
0.0
 30
0.0
 70
   128
 71
    57
 72
    33
 73
    33
 74
    50
  0
VERTEX
  5
2D0
  8
TEAM-NET1
 10
0.0
 20
0.0
 30
0.0
 70
   128
 71
    73
 72
    35
 73
    33
 74
    57
  0
VERTEX
  5
2D1
  8
TEAM-NET1
 10
0.0
 20
0.0
 30
0.0
 70
   128
 71
    83
 72
    45
 73
    35
 74
    73
  0
VERTEX
  5
2D2
  8
TEAM-NET1
 10
0.0
 20
0.0
 30
0.0
 70
   128
 71
    97
 72
    45
 73
    45
 74
    83
  0
VERTEX
  5
2D3
  8
TEAM-NET1
 10
0.0
 20
0.0
 30
0.0
 70
   128
 71
    97
 72
   252
 73
   253
 74
    45
  0
VERTEX
  5
2D4
  8
TEAM-NET1
 10
0.0
 20
0.0
 30
0.0
 70
   128
 71
   191
 72
   192
 73
   195
 74
   194
  0
VERTEX
  5
2D5
  8
TEAM-NET1
 10
0.0
 20
0.0
 30
0.0
 70
   128
 71
   195
 72
   192
 73
   200
 74
   205
  0
VERTEX
  5
2D6
  8
TEAM-NET1
 10
0.0
 20
0.0
 30
0.0
 70
   128
 71
   217
 72
   213
 73
   200
 74
   205
  0
VERTEX
  5
2D7
  8
TEAM-NET1
 10
0.0
 20
0.0
 30
0.0
 70
   128
 71
   228
 72
   222
 73
   213
 74
   217
  0
VERTEX
  5
2D8
  8
TEAM-NET1
 10
0.0
 20
0.0
 30
0.0
 70
   128
 71
   220
 72
   192
 73
   191
  0
VERTEX
  5
2D9
  8
TEAM-NET1
 10
0.0
 20
0.0
 30
0.0
 70
   128
 71
   192
 72
   220
 73
   220
 74
   200
  0
VERTEX
  5
2DA
  8
TEAM-NET1
 10
0.0
 20
0.0
 30
0.0
 70
   128
 71
   213
 72
   220
 73
   220
 74
   200
  0
VERTEX
  5
2DB
  8
TEAM-NET1
 10
0.0
 20
0.0
 30
0.0
 70
   128
 71
   222
 72
   220
 73
   220
 74
   213
  0
VERTEX
  5
2DC
  8
TEAM-NET1
 10
0.0
 20
0.0
 30
0.0
 70
   128
 71
   194
 72
   195
 73
   139
 74
   138
  0
VERTEX
  5
2DD
  8
TEAM-NET1
 10
0.0
 20
0.0
 30
0.0
 70
   128
 71
   139
 72
   195
 73
   195
 74
   141
  0
VERTEX
  5
2DE
  8
TEAM-NET1
 10
0.0
 20
0.0
 30
0.0
 70
   128
 71
   141
 72
   195
 73
   195
 74
   147
  0
VERTEX
  5
2DF
  8
TEAM-NET1
 10
0.0
 20
0.0
 30
0.0
 70
   128
 71
   147
 72
   195
 73
   195
 74
   149
  0
VERTEX
  5
2E0
  8
TEAM-NET1
 10
0.0
 20
0.0
 30
0.0
 70
   128
 71
   149
 72
   195
 73
   205
 74
   155
  0
VERTEX
  5
2E1
  8
TEAM-NET1
 10
0.0
 20
0.0
 30
0.0
 70
   128
 71
   155
 72
   205
 73
   205
 74
   159
  0
VERTEX
  5
2E2
  8
TEAM-NET1
 10
0.0
 20
0.0
 30
0.0
 70
   128
 71
   165
 72
   205
 73
   205
 74
   159
  0
VERTEX
  5
2E3
  8
TEAM-NET1
 10
0.0
 20
0.0
 30
0.0
 70
   128
 71
   169
 72
   217
 73
   205
 74
   165
  0
VERTEX
  5
2E4
  8
TEAM-NET1
 10
0.0
 20
0.0
 30
0.0
 70
   128
 71
   173
 72
   217
 73
   217
 74
   169
  0
VERTEX
  5
2E5
  8
TEAM-NET1
 10
0.0
 20
0.0
 30
0.0
 70
   128
 71
   181
 72
   217
 73
   217
 74
   173
  0
VERTEX
  5
2E6
  8
TEAM-NET1
 10
0.0
 20
0.0
 30
0.0
 70
   128
 71
   183
 72
   217
 73
   217
 74
   181
  0
VERTEX
  5
2E7
  8
TEAM-NET1
 10
0.0
 20
0.0
 30
0.0
 70
   128
 71
   183
 72
   228
 73
   217
  0
VERTEX
  5
2E8
  8
TEAM-NET1
 10
0.0
 20
0.0
 30
0.0
 70
   128
 71
   203
 72
   204
 73
   199
 74
   198
  0
VERTEX
  5
2E9
  8
TEAM-NET1
 10
0.0
 20
0.0
 30
0.0
 70
   128
 71
   199
 72
   204
 73
   209
 74
   207
  0
VERTEX
  5
2EA
  8
TEAM-NET1
 10
0.0
 20
0.0
 30
0.0
 70
   128
 71
   207
 72
   209
 73
   216
 74
   212
  0
VERTEX
  5
2EB
  8
TEAM-NET1
 10
0.0
 20
0.0
 30
0.0
 70
   128
 71
   212
 72
   216
 73
   227
 74
   221
  0
VERTEX
  5
2EC
  8
TEAM-NET1
 10
0.0
 20
0.0
 30
0.0
 70
   128
 71
   226
 72
   204
 73
   203
  0
VERTEX
  5
2ED
  8
TEAM-NET1
 10
0.0
 20
0.0
 30
0.0
 70
   128
 71
   209
 72
   226
 73
   226
 74
   204
  0
VERTEX
  5
2EE
  8
TEAM-NET1
 10
0.0
 20
0.0
 30
0.0
 70
   128
 71
   216
 72
   226
 73
   226
 74
   209
  0
VERTEX
  5
2EF
  8
TEAM-NET1
 10
0.0
 20
0.0
 30
0.0
 70
   128
 71
   216
 72
   226
 73
   226
 74
   227
  0
VERTEX
  5
2F0
  8
TEAM-NET1
 10
0.0
 20
0.0
 30
0.0
 70
   128
 71
   229
 72
   228
 73
   183
  0
VERTEX
  5
2F1
  8
TEAM-NET1
 10
0.0
 20
0.0
 30
0.0
 70
   128
 71
   428
 72
   238
 73
   236
 74
   426
  0
VERTEX
  5
2F2
  8
TEAM-NET1
 10
0.0
 20
0.0
 30
0.0
 70
   128
 71
   430
 72
   242
 73
   238
 74
   428
  0
VERTEX
  5
2F3
  8
TEAM-NET1
 10
0.0
 20
0.0
 30
0.0
 70
   128
 71
   432
 72
   246
 73
   242
 74
   430
  0
VERTEX
  5
2F4
  8
TEAM-NET1
 10
0.0
 20
0.0
 30
0.0
 70
   128
 71
   434
 72
   250
 73
   246
 74
   432
  0
VERTEX
  5
2F5
  8
TEAM-NET1
 10
0.0
 20
0.0
 30
0.0
 70
   128
 71
   455
 72
   456
 73
   466
 74
   465
  0
VERTEX
  5
2F6
  8
TEAM-NET1
 10
0.0
 20
0.0
 30
0.0
 70
   128
 71
   465
 72
   466
 73
   469
 74
   468
  0
VERTEX
  5
2F7
  8
TEAM-NET1
 10
0.0
 20
0.0
 30
0.0
 70
   128
 71
   468
 72
   469
 73
   459
 74
   458
  0
VERTEX
  5
2F8
  8
TEAM-NET1
 10
0.0
 20
0.0
 30
0.0
 70
   128
 71
   458
 72
   459
 73
   445
 74
   444
  0
VERTEX
  5
2F9
  8
TEAM-NET1
 10
0.0
 20
0.0
 30
0.0
 70
   128
 71
   455
 72
   465
 73
   461
 74
   451
  0
VERTEX
  5
2FA
  8
TEAM-NET1
 10
0.0
 20
0.0
 30
0.0
 70
   128
 71
   451
 72
   461
 73
   447
 74
   440
  0
VERTEX
  5
2FB
  8
TEAM-NET1
 10
0.0
 20
0.0
 30
0.0
 70
   128
 71
   440
 72
   447
 73
   428
 74
   426
  0
VERTEX
  5
2FC
  8
TEAM-NET1
 10
0.0
 20
0.0
 30
0.0
 70
   128
 71
   465
 72
   468
 73
   463
 74
   461
  0
VERTEX
  5
2FD
  8
TEAM-NET1
 10
0.0
 20
0.0
 30
0.0
 70
   128
 71
   461
 72
   463
 73
   449
 74
   447
  0
VERTEX
  5
2FE
  8
TEAM-NET1
 10
0.0
 20
0.0
 30
0.0
 70
   128
 71
   447
 72
   449
 73
   430
 74
   428
  0
VERTEX
  5
2FF
  8
TEAM-NET1
 10
0.0
 20
0.0
 30
0.0
 70
   128
 71
   468
 72
   458
 73
   453
 74
   463
  0
VERTEX
  5
300
  8
TEAM-NET1
 10
0.0
 20
0.0
 30
0.0
 70
   128
 71
   463
 72
   453
 73
   442
 74
   449
  0
VERTEX
  5
301
  8
TEAM-NET1
 10
0.0
 20
0.0
 30
0.0
 70
   128
 71
   449
 72
   442
 73
   432
 74
   430
  0
VERTEX
  5
302
  8
TEAM-NET1
 10
0.0
 20
0.0
 30
0.0
 70
   128
 71
   458
 72
   444
 73
   438
 74
   453
  0
VERTEX
  5
303
  8
TEAM-NET1
 10
0.0
 20
0.0
 30
0.0
 70
   128
 71
   453
 72
   438
 73
   436
 74
   442
  0
VERTEX
  5
304
  8
TEAM-NET1
 10
0.0
 20
0.0
 30
0.0
 70
   128
 71
   442
 72
   436
 73
   434
 74
   432
  0
VERTEX
  5
305
  8
TEAM-NET1
 10
0.0
 20
0.0
 30
0.0
 70
   128
 71
   388
 72
   386
 73
   378
 74
   380
  0
VERTEX
  5
306
  8
TEAM-NET1
 10
0.0
 20
0.0
 30
0.0
 70
   128
 71
   398
 72
   394
 73
   386
 74
   388
  0
VERTEX
  5
307
  8
TEAM-NET1
 10
0.0
 20
0.0
 30
0.0
 70
   128
 71
   414
 72
   407
 73
   394
 74
   398
  0
VERTEX
  5
308
  8
TEAM-NET1
 10
0.0
 20
0.0
 30
0.0
 70
   128
 71
   421
 72
   416
 73
   407
 74
   414
  0
VERTEX
  5
309
  8
TEAM-NET1
 10
0.0
 20
0.0
 30
0.0
 70
   128
 71
   423
 72
   418
 73
   416
 74
   421
  0
VERTEX
  5
30A
  8
TEAM-NET1
 10
0.0
 20
0.0
 30
0.0
 70
   128
 71
   419
 72
   418
 73
   423
 74
   424
  0
VERTEX
  5
30B
  8
TEAM-NET1
 10
0.0
 20
0.0
 30
0.0
 70
   128
 71
   386
 72
   384
 73
   376
 74
   378
  0
VERTEX
  5
30C
  8
TEAM-NET1
 10
0.0
 20
0.0
 30
0.0
 70
   128
 71
   394
 72
   392
 73
   384
 74
   386
  0
VERTEX
  5
30D
  8
TEAM-NET1
 10
0.0
 20
0.0
 30
0.0
 70
   128
 71
   407
 72
   400
 73
   392
 74
   394
  0
VERTEX
  5
30E
  8
TEAM-NET1
 10
0.0
 20
0.0
 30
0.0
 70
   128
 71
   416
 72
   409
 73
   400
 74
   407
  0
VERTEX
  5
30F
  8
TEAM-NET1
 10
0.0
 20
0.0
 30
0.0
 70
   128
 71
   418
 72
   411
 73
   409
 74
   416
  0
VERTEX
  5
310
  8
TEAM-NET1
 10
0.0
 20
0.0
 30
0.0
 70
   128
 71
   412
 72
   411
 73
   418
 74
   419
  0
VERTEX
  5
311
  8
TEAM-NET1
 10
0.0
 20
0.0
 30
0.0
 70
   128
 71
   384
 72
   382
 73
   374
 74
   376
  0
VERTEX
  5
312
  8
TEAM-NET1
 10
0.0
 20
0.0
 30
0.0
 70
   128
 71
   392
 72
   390
 73
   382
 74
   384
  0
VERTEX
  5
313
  8
TEAM-NET1
 10
0.0
 20
0.0
 30
0.0
 70
   128
 71
   400
 72
   396
 73
   390
 74
   392
  0
VERTEX
  5
314
  8
TEAM-NET1
 10
0.0
 20
0.0
 30
0.0
 70
   128
 71
   409
 72
   402
 73
   396
 74
   400
  0
VERTEX
  5
315
  8
TEAM-NET1
 10
0.0
 20
0.0
 30
0.0
 70
   128
 71
   411
 72
   404
 73
   402
 74
   409
  0
VERTEX
  5
316
  8
TEAM-NET1
 10
0.0
 20
0.0
 30
0.0
 70
   128
 71
   405
 72
   404
 73
   411
 74
   412
  0
VERTEX
  5
317
  8
TEAM-NET1
 10
0.0
 20
0.0
 30
0.0
 70
   128
 71
   378
 72
   248
 73
   251
 74
   380
  0
VERTEX
  5
318
  8
TEAM-NET1
 10
0.0
 20
0.0
 30
0.0
 70
   128
 71
   376
 72
   244
 73
   248
 74
   378
  0
VERTEX
  5
319
  8
TEAM-NET1
 10
0.0
 20
0.0
 30
0.0
 70
   128
 71
   374
 72
   240
 73
   244
 74
   376
  0
VERTEX
  5
31A
  8
TEAM-NET1
 10
0.0
 20
0.0
 30
0.0
 70
   128
 71
   371
 72
   364
 73
   362
 74
   369
  0
VERTEX
  5
31B
  8
TEAM-NET1
 10
0.0
 20
0.0
 30
0.0
 70
   128
 71
   369
 72
   362
 73
   358
 74
   367
  0
VERTEX
  5
31C
  8
TEAM-NET1
 10
0.0
 20
0.0
 30
0.0
 70
   128
 71
   367
 72
   358
 73
   354
 74
   360
  0
VERTEX
  5
31D
  8
TEAM-NET1
 10
0.0
 20
0.0
 30
0.0
 70
   128
 71
   360
 72
   354
 73
   347
 74
   356
  0
VERTEX
  5
31E
  8
TEAM-NET1
 10
0.0
 20
0.0
 30
0.0
 70
   128
 71
   356
 72
   347
 73
   339
 74
   345
  0
VERTEX
  5
31F
  8
TEAM-NET1
 10
0.0
 20
0.0
 30
0.0
 70
   128
 71
   364
 72
   351
 73
   349
 74
   362
  0
VERTEX
  5
320
  8
TEAM-NET1
 10
0.0
 20
0.0
 30
0.0
 70
   128
 71
   362
 72
   349
 73
   343
 74
   358
  0
VERTEX
  5
321
  8
TEAM-NET1
 10
0.0
 20
0.0
 30
0.0
 70
   128
 71
   358
 72
   343
 73
   341
 74
   354
  0
VERTEX
  5
322
  8
TEAM-NET1
 10
0.0
 20
0.0
 30
0.0
 70
   128
 71
   354
 72
   341
 73
   337
 74
   347
  0
VERTEX
  5
323
  8
TEAM-NET1
 10
0.0
 20
0.0
 30
0.0
 70
   128
 71
   347
 72
   337
 73
   326
 74
   339
  0
VERTEX
  5
324
  8
TEAM-NET1
 10
0.0
 20
0.0
 30
0.0
 70
   128
 71
   351
 72
   332
 73
   330
 74
   349
  0
VERTEX
  5
325
  8
TEAM-NET1
 10
0.0
 20
0.0
 30
0.0
 70
   128
 71
   349
 72
   330
 73
   324
 74
   343
  0
VERTEX
  5
326
  8
TEAM-NET1
 10
0.0
 20
0.0
 30
0.0
 70
   128
 71
   343
 72
   324
 73
   322
 74
   341
  0
VERTEX
  5
327
  8
TEAM-NET1
 10
0.0
 20
0.0
 30
0.0
 70
   128
 71
   341
 72
   322
 73
   316
 74
   337
  0
VERTEX
  5
328
  8
TEAM-NET1
 10
0.0
 20
0.0
 30
0.0
 70
   128
 71
   337
 72
   316
 73
   312
 74
   326
  0
VERTEX
  5
329
  8
TEAM-NET1
 10
0.0
 20
0.0
 30
0.0
 70
   128
 71
   296
 72
   294
 73
   286
 74
   288
  0
VERTEX
  5
32A
  8
TEAM-NET1
 10
0.0
 20
0.0
 30
0.0
 70
   128
 71
   308
 72
   304
 73
   294
 74
   296
  0
VERTEX
  5
32B
  8
TEAM-NET1
 10
0.0
 20
0.0
 30
0.0
 70
   128
 71
   320
 72
   314
 73
   304
 74
   308
  0
VERTEX
  5
32C
  8
TEAM-NET1
 10
0.0
 20
0.0
 30
0.0
 70
   128
 71
   335
 72
   328
 73
   314
 74
   320
  0
VERTEX
  5
32D
  8
TEAM-NET1
 10
0.0
 20
0.0
 30
0.0
 70
   128
 71
   345
 72
   339
 73
   328
 74
   335
  0
VERTEX
  5
32E
  8
TEAM-NET1
 10
0.0
 20
0.0
 30
0.0
 70
   128
 71
   294
 72
   292
 73
   284
 74
   286
  0
VERTEX
  5
32F
  8
TEAM-NET1
 10
0.0
 20
0.0
 30
0.0
 70
   128
 71
   304
 72
   300
 73
   292
 74
   294
  0
VERTEX
  5
330
  8
TEAM-NET1
 10
0.0
 20
0.0
 30
0.0
 70
   128
 71
   314
 72
   310
 73
   300
 74
   304
  0
VERTEX
  5
331
  8
TEAM-NET1
 10
0.0
 20
0.0
 30
0.0
 70
   128
 71
   328
 72
   318
 73
   310
 74
   314
  0
VERTEX
  5
332
  8
TEAM-NET1
 10
0.0
 20
0.0
 30
0.0
 70
   128
 71
   339
 72
   326
 73
   318
 74
   328
  0
VERTEX
  5
333
  8
TEAM-NET1
 10
0.0
 20
0.0
 30
0.0
 70
   128
 71
   292
 72
   290
 73
   282
 74
   284
  0
VERTEX
  5
334
  8
TEAM-NET1
 10
0.0
 20
0.0
 30
0.0
 70
   128
 71
   300
 72
   298
 73
   290
 74
   292
  0
VERTEX
  5
335
  8
TEAM-NET1
 10
0.0
 20
0.0
 30
0.0
 70
   128
 71
   310
 72
   302
 73
   298
 74
   300
  0
VERTEX
  5
336
  8
TEAM-NET1
 10
0.0
 20
0.0
 30
0.0
 70
   128
 71
   318
 72
   306
 73
   302
 74
   310
  0
VERTEX
  5
337
  8
TEAM-NET1
 10
0.0
 20
0.0
 30
0.0
 70
   128
 71
   326
 72
   312
 73
   306
 74
   318
  0
VERTEX
  5
338
  8
TEAM-NET1
 10
0.0
 20
0.0
 30
0.0
 70
   128
 71
   371
 72
   372
 73
   365
 74
   364
  0
VERTEX
  5
339
  8
TEAM-NET1
 10
0.0
 20
0.0
 30
0.0
 70
   128
 71
   364
 72
   365
 73
   352
 74
   351
  0
VERTEX
  5
33A
  8
TEAM-NET1
 10
0.0
 20
0.0
 30
0.0
 70
   128
 71
   351
 72
   352
 73
   333
 74
   332
  0
VERTEX
  5
33B
  8
TEAM-NET1
 10
0.0
 20
0.0
 30
0.0
 70
   128
 71
   371
 72
   404
 73
   405
 74
   372
  0
VERTEX
  5
33C
  8
TEAM-NET1
 10
0.0
 20
0.0
 30
0.0
 70
   128
 71
   369
 72
   404
 73
   404
 74
   371
  0
VERTEX
  5
33D
  8
TEAM-NET1
 10
0.0
 20
0.0
 30
0.0
 70
   128
 71
   367
 72
   402
 73
   404
 74
   369
  0
VERTEX
  5
33E
  8
TEAM-NET1
 10
0.0
 20
0.0
 30
0.0
 70
   128
 71
   360
 72
   402
 73
   402
 74
   367
  0
VERTEX
  5
33F
  8
TEAM-NET1
 10
0.0
 20
0.0
 30
0.0
 70
   128
 71
   356
 72
   396
 73
   402
 74
   360
  0
VERTEX
  5
340
  8
TEAM-NET1
 10
0.0
 20
0.0
 30
0.0
 70
   128
 71
   345
 72
   390
 73
   396
 74
   356
  0
VERTEX
  5
341
  8
TEAM-NET1
 10
0.0
 20
0.0
 30
0.0
 70
   128
 71
   335
 72
   390
 73
   390
 74
   345
  0
VERTEX
  5
342
  8
TEAM-NET1
 10
0.0
 20
0.0
 30
0.0
 70
   128
 71
   320
 72
   382
 73
   390
 74
   335
  0
VERTEX
  5
343
  8
TEAM-NET1
 10
0.0
 20
0.0
 30
0.0
 70
   128
 71
   308
 72
   382
 73
   382
 74
   320
  0
VERTEX
  5
344
  8
TEAM-NET1
 10
0.0
 20
0.0
 30
0.0
 70
   128
 71
   296
 72
   374
 73
   382
 74
   308
  0
VERTEX
  5
345
  8
TEAM-NET1
 10
0.0
 20
0.0
 30
0.0
 70
   128
 71
   288
 72
   374
 73
   374
 74
   296
  0
VERTEX
  5
346
  8
TEAM-NET1
 10
0.0
 20
0.0
 30
0.0
 70
   128
 71
   288
 72
   234
 73
   240
 74
   374
  0
VERTEX
  5
347
  8
TEAM-NET1
 10
0.0
 20
0.0
 30
0.0
 70
   128
 71
   286
 72
   232
 73
   234
 74
   288
  0
VERTEX
  5
348
  8
TEAM-NET1
 10
0.0
 20
0.0
 30
0.0
 70
   128
 71
   284
 72
   230
 73
   232
 74
   286
  0
VERTEX
  5
349
  8
TEAM-NET1
 10
0.0
 20
0.0
 30
0.0
 70
   128
 71
   282
 72
   223
 73
   230
 74
   284
  0
VERTEX
  5
34A
  8
TEAM-NET1
 10
0.0
 20
0.0
 30
0.0
 70
   128
 71
   423
 72
   444
 73
   445
 74
   424
  0
VERTEX
  5
34B
  8
TEAM-NET1
 10
0.0
 20
0.0
 30
0.0
 70
   128
 71
   421
 72
   438
 73
   444
 74
   423
  0
VERTEX
  5
34C
  8
TEAM-NET1
 10
0.0
 20
0.0
 30
0.0
 70
   128
 71
   414
 72
   438
 73
   438
 74
   421
  0
VERTEX
  5
34D
  8
TEAM-NET1
 10
0.0
 20
0.0
 30
0.0
 70
   128
 71
   398
 72
   436
 73
   438
 74
   414
  0
VERTEX
  5
34E
  8
TEAM-NET1
 10
0.0
 20
0.0
 30
0.0
 70
   128
 71
   388
 72
   434
 73
   436
 74
   398
  0
VERTEX
  5
34F
  8
TEAM-NET1
 10
0.0
 20
0.0
 30
0.0
 70
   128
 71
   380
 72
   434
 73
   434
 74
   388
  0
VERTEX
  5
350
  8
TEAM-NET1
 10
0.0
 20
0.0
 30
0.0
 70
   128
 71
   380
 72
   251
 73
   250
 74
   434
  0
VERTEX
  5
351
  8
TEAM-NET1
 10
0.0
 20
0.0
 30
0.0
 70
   128
 71
   277
 72
   276
 73
   279
 74
   280
  0
VERTEX
  5
352
  8
TEAM-NET1
 10
0.0
 20
0.0
 30
0.0
 70
   128
 71
   279
 72
   276
 73
   266
 74
   271
  0
VERTEX
  5
353
  8
TEAM-NET1
 10
0.0
 20
0.0
 30
0.0
 70
   128
 71
   271
 72
   266
 73
   254
 74
   258
  0
VERTEX
  5
354
  8
TEAM-NET1
 10
0.0
 20
0.0
 30
0.0
 70
   128
 71
   258
 72
   254
 73
   218
 74
   224
  0
VERTEX
  5
355
  8
TEAM-NET1
 10
0.0
 20
0.0
 30
0.0
 70
   128
 71
   277
 72
   276
 73
   220
  0
VERTEX
  5
356
  8
TEAM-NET1
 10
0.0
 20
0.0
 30
0.0
 70
   128
 71
   266
 72
   220
 73
   220
 74
   276
  0
VERTEX
  5
357
  8
TEAM-NET1
 10
0.0
 20
0.0
 30
0.0
 70
   128
 71
   266
 72
   220
 73
   220
 74
   254
  0
VERTEX
  5
358
  8
TEAM-NET1
 10
0.0
 20
0.0
 30
0.0
 70
   128
 71
   254
 72
   220
 73
   220
 74
   218
  0
VERTEX
  5
359
  8
TEAM-NET1
 10
0.0
 20
0.0
 30
0.0
 70
   128
 71
   280
 72
   279
 73
   332
 74
   333
  0
VERTEX
  5
35A
  8
TEAM-NET1
 10
0.0
 20
0.0
 30
0.0
 70
   128
 71
   332
 72
   279
 73
   279
 74
   330
  0
VERTEX
  5
35B
  8
TEAM-NET1
 10
0.0
 20
0.0
 30
0.0
 70
   128
 71
   330
 72
   279
 73
   279
 74
   324
  0
VERTEX
  5
35C
  8
TEAM-NET1
 10
0.0
 20
0.0
 30
0.0
 70
   128
 71
   324
 72
   279
 73
   279
 74
   322
  0
VERTEX
  5
35D
  8
TEAM-NET1
 10
0.0
 20
0.0
 30
0.0
 70
   128
 71
   322
 72
   279
 73
   271
 74
   316
  0
VERTEX
  5
35E
  8
TEAM-NET1
 10
0.0
 20
0.0
 30
0.0
 70
   128
 71
   316
 72
   271
 73
   271
 74
   312
  0
VERTEX
  5
35F
  8
TEAM-NET1
 10
0.0
 20
0.0
 30
0.0
 70
   128
 71
   312
 72
   271
 73
   271
 74
   306
  0
VERTEX
  5
360
  8
TEAM-NET1
 10
0.0
 20
0.0
 30
0.0
 70
   128
 71
   306
 72
   271
 73
   258
 74
   302
  0
VERTEX
  5
361
  8
TEAM-NET1
 10
0.0
 20
0.0
 30
0.0
 70
   128
 71
   298
 72
   258
 73
   258
 74
   302
  0
VERTEX
  5
362
  8
TEAM-NET1
 10
0.0
 20
0.0
 30
0.0
 70
   128
 71
   298
 72
   258
 73
   258
 74
   290
  0
VERTEX
  5
363
  8
TEAM-NET1
 10
0.0
 20
0.0
 30
0.0
 70
   128
 71
   290
 72
   258
 73
   258
 74
   282
  0
VERTEX
  5
364
  8
TEAM-NET1
 10
0.0
 20
0.0
 30
0.0
 70
   128
 71
   258
 72
   224
 73
   282
  0
VERTEX
  5
365
  8
TEAM-NET1
 10
0.0
 20
0.0
 30
0.0
 70
   128
 71
   268
 72
   267
 73
   272
 74
   273
  0
VERTEX
  5
366
  8
TEAM-NET1
 10
0.0
 20
0.0
 30
0.0
 70
   128
 71
   262
 72
   264
 73
   272
 74
   267
  0
VERTEX
  5
367
  8
TEAM-NET1
 10
0.0
 20
0.0
 30
0.0
 70
   128
 71
   262
 72
   264
 73
   259
 74
   255
  0
VERTEX
  5
368
  8
TEAM-NET1
 10
0.0
 20
0.0
 30
0.0
 70
   128
 71
   255
 72
   259
 73
   225
 74
   219
  0
VERTEX
  5
369
  8
TEAM-NET1
 10
0.0
 20
0.0
 30
0.0
 70
   128
 71
   273
 72
   272
 73
   226
  0
VERTEX
  5
36A
  8
TEAM-NET1
 10
0.0
 20
0.0
 30
0.0
 70
   128
 71
   264
 72
   226
 73
   226
 74
   272
  0
VERTEX
  5
36B
  8
TEAM-NET1
 10
0.0
 20
0.0
 30
0.0
 70
   128
 71
   264
 72
   226
 73
   226
 74
   259
  0
VERTEX
  5
36C
  8
TEAM-NET1
 10
0.0
 20
0.0
 30
0.0
 70
   128
 71
   225
 72
   226
 73
   226
 74
   259
  0
VERTEX
  5
36D
  8
TEAM-NET1
 10
0.0
 20
0.0
 30
0.0
 70
   128
 71
   282
 72
   224
 73
   223
  0
VERTEX
  5
36E
  8
TEAM-NET1
 10
0.0
 20
0.0
 30
0.0
 70
   128
 71
   427
 72
   237
 73
   239
 74
   429
  0
VERTEX
  5
36F
  8
TEAM-NET1
 10
0.0
 20
0.0
 30
0.0
 70
   128
 71
   429
 72
   239
 73
   243
 74
   431
  0
VERTEX
  5
370
  8
TEAM-NET1
 10
0.0
 20
0.0
 30
0.0
 70
   128
 71
   431
 72
   243
 73
   247
 74
   433
  0
VERTEX
  5
371
  8
TEAM-NET1
 10
0.0
 20
0.0
 30
0.0
 70
   128
 71
   433
 72
   247
 73
   253
 74
   435
  0
VERTEX
  5
372
  8
TEAM-NET1
 10
0.0
 20
0.0
 30
0.0
 70
   128
 71
   467
 72
   466
 73
   456
 74
   457
  0
VERTEX
  5
373
  8
TEAM-NET1
 10
0.0
 20
0.0
 30
0.0
 70
   128
 71
   470
 72
   469
 73
   466
 74
   467
  0
VERTEX
  5
374
  8
TEAM-NET1
 10
0.0
 20
0.0
 30
0.0
 70
   128
 71
   460
 72
   459
 73
   469
 74
   470
  0
VERTEX
  5
375
  8
TEAM-NET1
 10
0.0
 20
0.0
 30
0.0
 70
   128
 71
   446
 72
   445
 73
   459
 74
   460
  0
VERTEX
  5
376
  8
TEAM-NET1
 10
0.0
 20
0.0
 30
0.0
 70
   128
 71
   452
 72
   462
 73
   467
 74
   457
  0
VERTEX
  5
377
  8
TEAM-NET1
 10
0.0
 20
0.0
 30
0.0
 70
   128
 71
   441
 72
   448
 73
   462
 74
   452
  0
VERTEX
  5
378
  8
TEAM-NET1
 10
0.0
 20
0.0
 30
0.0
 70
   128
 71
   427
 72
   429
 73
   448
 74
   441
  0
VERTEX
  5
379
  8
TEAM-NET1
 10
0.0
 20
0.0
 30
0.0
 70
   128
 71
   462
 72
   464
 73
   470
 74
   467
  0
VERTEX
  5
37A
  8
TEAM-NET1
 10
0.0
 20
0.0
 30
0.0
 70
   128
 71
   448
 72
   450
 73
   464
 74
   462
  0
VERTEX
  5
37B
  8
TEAM-NET1
 10
0.0
 20
0.0
 30
0.0
 70
   128
 71
   429
 72
   431
 73
   450
 74
   448
  0
VERTEX
  5
37C
  8
TEAM-NET1
 10
0.0
 20
0.0
 30
0.0
 70
   128
 71
   464
 72
   454
 73
   460
 74
   470
  0
VERTEX
  5
37D
  8
TEAM-NET1
 10
0.0
 20
0.0
 30
0.0
 70
   128
 71
   450
 72
   443
 73
   454
 74
   464
  0
VERTEX
  5
37E
  8
TEAM-NET1
 10
0.0
 20
0.0
 30
0.0
 70
   128
 71
   431
 72
   433
 73
   443
 74
   450
  0
VERTEX
  5
37F
  8
TEAM-NET1
 10
0.0
 20
0.0
 30
0.0
 70
   128
 71
   454
 72
   439
 73
   446
 74
   460
  0
VERTEX
  5
380
  8
TEAM-NET1
 10
0.0
 20
0.0
 30
0.0
 70
   128
 71
   443
 72
   437
 73
   439
 74
   454
  0
VERTEX
  5
381
  8
TEAM-NET1
 10
0.0
 20
0.0
 30
0.0
 70
   128
 71
   433
 72
   435
 73
   437
 74
   443
  0
VERTEX
  5
382
  8
TEAM-NET1
 10
0.0
 20
0.0
 30
0.0
 70
   128
 71
   381
 72
   379
 73
   387
 74
   389
  0
VERTEX
  5
383
  8
TEAM-NET1
 10
0.0
 20
0.0
 30
0.0
 70
   128
 71
   389
 72
   387
 73
   395
 74
   399
  0
VERTEX
  5
384
  8
TEAM-NET1
 10
0.0
 20
0.0
 30
0.0
 70
   128
 71
   399
 72
   395
 73
   408
 74
   415
  0
VERTEX
  5
385
  8
TEAM-NET1
 10
0.0
 20
0.0
 30
0.0
 70
   128
 71
   415
 72
   408
 73
   417
 74
   422
  0
VERTEX
  5
386
  8
TEAM-NET1
 10
0.0
 20
0.0
 30
0.0
 70
   128
 71
   422
 72
   417
 73
   420
 74
   425
  0
VERTEX
  5
387
  8
TEAM-NET1
 10
0.0
 20
0.0
 30
0.0
 70
   128
 71
   424
 72
   425
 73
   420
 74
   419
  0
VERTEX
  5
388
  8
TEAM-NET1
 10
0.0
 20
0.0
 30
0.0
 70
   128
 71
   379
 72
   377
 73
   385
 74
   387
  0
VERTEX
  5
389
  8
TEAM-NET1
 10
0.0
 20
0.0
 30
0.0
 70
   128
 71
   387
 72
   385
 73
   393
 74
   395
  0
VERTEX
  5
38A
  8
TEAM-NET1
 10
0.0
 20
0.0
 30
0.0
 70
   128
 71
   395
 72
   393
 73
   401
 74
   408
  0
VERTEX
  5
38B
  8
TEAM-NET1
 10
0.0
 20
0.0
 30
0.0
 70
   128
 71
   408
 72
   401
 73
   410
 74
   417
  0
VERTEX
  5
38C
  8
TEAM-NET1
 10
0.0
 20
0.0
 30
0.0
 70
   128
 71
   417
 72
   410
 73
   413
 74
   420
  0
VERTEX
  5
38D
  8
TEAM-NET1
 10
0.0
 20
0.0
 30
0.0
 70
   128
 71
   419
 72
   420
 73
   413
 74
   412
  0
VERTEX
  5
38E
  8
TEAM-NET1
 10
0.0
 20
0.0
 30
0.0
 70
   128
 71
   377
 72
   375
 73
   383
 74
   385
  0
VERTEX
  5
38F
  8
TEAM-NET1
 10
0.0
 20
0.0
 30
0.0
 70
   128
 71
   385
 72
   383
 73
   391
 74
   393
  0
VERTEX
  5
390
  8
TEAM-NET1
 10
0.0
 20
0.0
 30
0.0
 70
   128
 71
   393
 72
   391
 73
   397
 74
   401
  0
VERTEX
  5
391
  8
TEAM-NET1
 10
0.0
 20
0.0
 30
0.0
 70
   128
 71
   401
 72
   397
 73
   403
 74
   410
  0
VERTEX
  5
392
  8
TEAM-NET1
 10
0.0
 20
0.0
 30
0.0
 70
   128
 71
   410
 72
   403
 73
   406
 74
   413
  0
VERTEX
  5
393
  8
TEAM-NET1
 10
0.0
 20
0.0
 30
0.0
 70
   128
 71
   412
 72
   413
 73
   406
 74
   405
  0
VERTEX
  5
394
  8
TEAM-NET1
 10
0.0
 20
0.0
 30
0.0
 70
   128
 71
   381
 72
   252
 73
   249
 74
   379
  0
VERTEX
  5
395
  8
TEAM-NET1
 10
0.0
 20
0.0
 30
0.0
 70
   128
 71
   379
 72
   249
 73
   245
 74
   377
  0
VERTEX
  5
396
  8
TEAM-NET1
 10
0.0
 20
0.0
 30
0.0
 70
   128
 71
   377
 72
   245
 73
   241
 74
   375
  0
VERTEX
  5
397
  8
TEAM-NET1
 10
0.0
 20
0.0
 30
0.0
 70
   128
 71
   370
 72
   363
 73
   366
 74
   373
  0
VERTEX
  5
398
  8
TEAM-NET1
 10
0.0
 20
0.0
 30
0.0
 70
   128
 71
   368
 72
   359
 73
   363
 74
   370
  0
VERTEX
  5
399
  8
TEAM-NET1
 10
0.0
 20
0.0
 30
0.0
 70
   128
 71
   361
 72
   355
 73
   359
 74
   368
  0
VERTEX
  5
39A
  8
TEAM-NET1
 10
0.0
 20
0.0
 30
0.0
 70
   128
 71
   357
 72
   348
 73
   355
 74
   361
  0
VERTEX
  5
39B
  8
TEAM-NET1
 10
0.0
 20
0.0
 30
0.0
 70
   128
 71
   346
 72
   340
 73
   348
 74
   357
  0
VERTEX
  5
39C
  8
TEAM-NET1
 10
0.0
 20
0.0
 30
0.0
 70
   128
 71
   363
 72
   350
 73
   353
 74
   366
  0
VERTEX
  5
39D
  8
TEAM-NET1
 10
0.0
 20
0.0
 30
0.0
 70
   128
 71
   359
 72
   344
 73
   350
 74
   363
  0
VERTEX
  5
39E
  8
TEAM-NET1
 10
0.0
 20
0.0
 30
0.0
 70
   128
 71
   355
 72
   342
 73
   344
 74
   359
  0
VERTEX
  5
39F
  8
TEAM-NET1
 10
0.0
 20
0.0
 30
0.0
 70
   128
 71
   348
 72
   338
 73
   342
 74
   355
  0
VERTEX
  5
3A0
  8
TEAM-NET1
 10
0.0
 20
0.0
 30
0.0
 70
   128
 71
   340
 72
   327
 73
   338
 74
   348
  0
VERTEX
  5
3A1
  8
TEAM-NET1
 10
0.0
 20
0.0
 30
0.0
 70
   128
 71
   350
 72
   331
 73
   334
 74
   353
  0
VERTEX
  5
3A2
  8
TEAM-NET1
 10
0.0
 20
0.0
 30
0.0
 70
   128
 71
   344
 72
   325
 73
   331
 74
   350
  0
VERTEX
  5
3A3
  8
TEAM-NET1
 10
0.0
 20
0.0
 30
0.0
 70
   128
 71
   342
 72
   323
 73
   325
 74
   344
  0
VERTEX
  5
3A4
  8
TEAM-NET1
 10
0.0
 20
0.0
 30
0.0
 70
   128
 71
   338
 72
   317
 73
   323
 74
   342
  0
VERTEX
  5
3A5
  8
TEAM-NET1
 10
0.0
 20
0.0
 30
0.0
 70
   128
 71
   327
 72
   313
 73
   317
 74
   338
  0
VERTEX
  5
3A6
  8
TEAM-NET1
 10
0.0
 20
0.0
 30
0.0
 70
   128
 71
   289
 72
   287
 73
   295
 74
   297
  0
VERTEX
  5
3A7
  8
TEAM-NET1
 10
0.0
 20
0.0
 30
0.0
 70
   128
 71
   297
 72
   295
 73
   305
 74
   309
  0
VERTEX
  5
3A8
  8
TEAM-NET1
 10
0.0
 20
0.0
 30
0.0
 70
   128
 71
   309
 72
   305
 73
   315
 74
   321
  0
VERTEX
  5
3A9
  8
TEAM-NET1
 10
0.0
 20
0.0
 30
0.0
 70
   128
 71
   321
 72
   315
 73
   329
 74
   336
  0
VERTEX
  5
3AA
  8
TEAM-NET1
 10
0.0
 20
0.0
 30
0.0
 70
   128
 71
   336
 72
   329
 73
   340
 74
   346
  0
VERTEX
  5
3AB
  8
TEAM-NET1
 10
0.0
 20
0.0
 30
0.0
 70
   128
 71
   287
 72
   285
 73
   293
 74
   295
  0
VERTEX
  5
3AC
  8
TEAM-NET1
 10
0.0
 20
0.0
 30
0.0
 70
   128
 71
   295
 72
   293
 73
   301
 74
   305
  0
VERTEX
  5
3AD
  8
TEAM-NET1
 10
0.0
 20
0.0
 30
0.0
 70
   128
 71
   305
 72
   301
 73
   311
 74
   315
  0
VERTEX
  5
3AE
  8
TEAM-NET1
 10
0.0
 20
0.0
 30
0.0
 70
   128
 71
   315
 72
   311
 73
   319
 74
   329
  0
VERTEX
  5
3AF
  8
TEAM-NET1
 10
0.0
 20
0.0
 30
0.0
 70
   128
 71
   329
 72
   319
 73
   327
 74
   340
  0
VERTEX
  5
3B0
  8
TEAM-NET1
 10
0.0
 20
0.0
 30
0.0
 70
   128
 71
   285
 72
   283
 73
   291
 74
   293
  0
VERTEX
  5
3B1
  8
TEAM-NET1
 10
0.0
 20
0.0
 30
0.0
 70
   128
 71
   293
 72
   291
 73
   299
 74
   301
  0
VERTEX
  5
3B2
  8
TEAM-NET1
 10
0.0
 20
0.0
 30
0.0
 70
   128
 71
   301
 72
   299
 73
   303
 74
   311
  0
VERTEX
  5
3B3
  8
TEAM-NET1
 10
0.0
 20
0.0
 30
0.0
 70
   128
 71
   311
 72
   303
 73
   307
 74
   319
  0
VERTEX
  5
3B4
  8
TEAM-NET1
 10
0.0
 20
0.0
 30
0.0
 70
   128
 71
   319
 72
   307
 73
   313
 74
   327
  0
VERTEX
  5
3B5
  8
TEAM-NET1
 10
0.0
 20
0.0
 30
0.0
 70
   128
 71
   366
 72
   365
 73
   372
 74
   373
  0
VERTEX
  5
3B6
  8
TEAM-NET1
 10
0.0
 20
0.0
 30
0.0
 70
   128
 71
   353
 72
   352
 73
   365
 74
   366
  0
VERTEX
  5
3B7
  8
TEAM-NET1
 10
0.0
 20
0.0
 30
0.0
 70
   128
 71
   334
 72
   333
 73
   352
 74
   353
  0
VERTEX
  5
3B8
  8
TEAM-NET1
 10
0.0
 20
0.0
 30
0.0
 70
   128
 71
   372
 72
   405
 73
   406
 74
   373
  0
VERTEX
  5
3B9
  8
TEAM-NET1
 10
0.0
 20
0.0
 30
0.0
 70
   128
 71
   373
 72
   406
 73
   406
 74
   370
  0
VERTEX
  5
3BA
  8
TEAM-NET1
 10
0.0
 20
0.0
 30
0.0
 70
   128
 71
   370
 72
   406
 73
   403
 74
   368
  0
VERTEX
  5
3BB
  8
TEAM-NET1
 10
0.0
 20
0.0
 30
0.0
 70
   128
 71
   368
 72
   403
 73
   403
 74
   361
  0
VERTEX
  5
3BC
  8
TEAM-NET1
 10
0.0
 20
0.0
 30
0.0
 70
   128
 71
   361
 72
   403
 73
   397
 74
   357
  0
VERTEX
  5
3BD
  8
TEAM-NET1
 10
0.0
 20
0.0
 30
0.0
 70
   128
 71
   357
 72
   397
 73
   391
 74
   346
  0
VERTEX
  5
3BE
  8
TEAM-NET1
 10
0.0
 20
0.0
 30
0.0
 70
   128
 71
   346
 72
   391
 73
   391
 74
   336
  0
VERTEX
  5
3BF
  8
TEAM-NET1
 10
0.0
 20
0.0
 30
0.0
 70
   128
 71
   336
 72
   391
 73
   383
 74
   321
  0
VERTEX
  5
3C0
  8
TEAM-NET1
 10
0.0
 20
0.0
 30
0.0
 70
   128
 71
   321
 72
   383
 73
   383
 74
   309
  0
VERTEX
  5
3C1
  8
TEAM-NET1
 10
0.0
 20
0.0
 30
0.0
 70
   128
 71
   309
 72
   383
 73
   375
 74
   297
  0
VERTEX
  5
3C2
  8
TEAM-NET1
 10
0.0
 20
0.0
 30
0.0
 70
   128
 71
   297
 72
   375
 73
   375
 74
   289
  0
VERTEX
  5
3C3
  8
TEAM-NET1
 10
0.0
 20
0.0
 30
0.0
 70
   128
 71
   375
 72
   241
 73
   235
 74
   289
  0
VERTEX
  5
3C4
  8
TEAM-NET1
 10
0.0
 20
0.0
 30
0.0
 70
   128
 71
   289
 72
   235
 73
   233
 74
   287
  0
VERTEX
  5
3C5
  8
TEAM-NET1
 10
0.0
 20
0.0
 30
0.0
 70
   128
 71
   287
 72
   233
 73
   231
 74
   285
  0
VERTEX
  5
3C6
  8
TEAM-NET1
 10
0.0
 20
0.0
 30
0.0
 70
   128
 71
   285
 72
   231
 73
   229
 74
   283
  0
VERTEX
  5
3C7
  8
TEAM-NET1
 10
0.0
 20
0.0
 30
0.0
 70
   128
 71
   424
 72
   445
 73
   446
 74
   425
  0
VERTEX
  5
3C8
  8
TEAM-NET1
 10
0.0
 20
0.0
 30
0.0
 70
   128
 71
   425
 72
   446
 73
   439
 74
   422
  0
VERTEX
  5
3C9
  8
TEAM-NET1
 10
0.0
 20
0.0
 30
0.0
 70
   128
 71
   422
 72
   439
 73
   439
 74
   415
  0
VERTEX
  5
3CA
  8
TEAM-NET1
 10
0.0
 20
0.0
 30
0.0
 70
   128
 71
   415
 72
   439
 73
   437
 74
   399
  0
VERTEX
  5
3CB
  8
TEAM-NET1
 10
0.0
 20
0.0
 30
0.0
 70
   128
 71
   399
 72
   437
 73
   435
 74
   389
  0
VERTEX
  5
3CC
  8
TEAM-NET1
 10
0.0
 20
0.0
 30
0.0
 70
   128
 71
   389
 72
   435
 73
   435
 74
   381
  0
VERTEX
  5
3CD
  8
TEAM-NET1
 10
0.0
 20
0.0
 30
0.0
 70
   128
 71
   435
 72
   253
 73
   252
 74
   381
  0
VERTEX
  5
3CE
  8
TEAM-NET1
 10
0.0
 20
0.0
 30
0.0
 70
   128
 71
   280
 72
   281
 73
   278
 74
   277
  0
VERTEX
  5
3CF
  8
TEAM-NET1
 10
0.0
 20
0.0
 30
0.0
 70
   128
 71
   281
 72
   278
 73
   270
 74
   275
  0
VERTEX
  5
3D0
  8
TEAM-NET1
 10
0.0
 20
0.0
 30
0.0
 70
   128
 71
   261
 72
   257
 73
   270
 74
   275
  0
VERTEX
  5
3D1
  8
TEAM-NET1
 10
0.0
 20
0.0
 30
0.0
 70
   128
 71
   228
 72
   222
 73
   257
 74
   261
  0
VERTEX
  5
3D2
  8
TEAM-NET1
 10
0.0
 20
0.0
 30
0.0
 70
   128
 71
   220
 72
   278
 73
   277
  0
VERTEX
  5
3D3
  8
TEAM-NET1
 10
0.0
 20
0.0
 30
0.0
 70
   128
 71
   278
 72
   220
 73
   220
 74
   270
  0
VERTEX
  5
3D4
  8
TEAM-NET1
 10
0.0
 20
0.0
 30
0.0
 70
   128
 71
   257
 72
   220
 73
   220
 74
   270
  0
VERTEX
  5
3D5
  8
TEAM-NET1
 10
0.0
 20
0.0
 30
0.0
 70
   128
 71
   222
 72
   220
 73
   220
 74
   257
  0
VERTEX
  5
3D6
  8
TEAM-NET1
 10
0.0
 20
0.0
 30
0.0
 70
   128
 71
   333
 72
   334
 73
   281
 74
   280
  0
VERTEX
  5
3D7
  8
TEAM-NET1
 10
0.0
 20
0.0
 30
0.0
 70
   128
 71
   331
 72
   281
 73
   281
 74
   334
  0
VERTEX
  5
3D8
  8
TEAM-NET1
 10
0.0
 20
0.0
 30
0.0
 70
   128
 71
   325
 72
   281
 73
   281
 74
   331
  0
VERTEX
  5
3D9
  8
TEAM-NET1
 10
0.0
 20
0.0
 30
0.0
 70
   128
 71
   325
 72
   281
 73
   281
 74
   323
  0
VERTEX
  5
3DA
  8
TEAM-NET1
 10
0.0
 20
0.0
 30
0.0
 70
   128
 71
   323
 72
   281
 73
   275
 74
   317
  0
VERTEX
  5
3DB
  8
TEAM-NET1
 10
0.0
 20
0.0
 30
0.0
 70
   128
 71
   317
 72
   275
 73
   275
 74
   313
  0
VERTEX
  5
3DC
  8
TEAM-NET1
 10
0.0
 20
0.0
 30
0.0
 70
   128
 71
   307
 72
   275
 73
   275
 74
   313
  0
VERTEX
  5
3DD
  8
TEAM-NET1
 10
0.0
 20
0.0
 30
0.0
 70
   128
 71
   303
 72
   261
 73
   275
 74
   307
  0
VERTEX
  5
3DE
  8
TEAM-NET1
 10
0.0
 20
0.0
 30
0.0
 70
   128
 71
   299
 72
   261
 73
   261
 74
   303
  0
VERTEX
  5
3DF
  8
TEAM-NET1
 10
0.0
 20
0.0
 30
0.0
 70
   128
 71
   291
 72
   261
 73
   261
 74
   299
  0
VERTEX
  5
3E0
  8
TEAM-NET1
 10
0.0
 20
0.0
 30
0.0
 70
   128
 71
   283
 72
   261
 73
   261
 74
   291
  0
VERTEX
  5
3E1
  8
TEAM-NET1
 10
0.0
 20
0.0
 30
0.0
 70
   128
 71
   283
 72
   228
 73
   261
  0
VERTEX
  5
3E2
  8
TEAM-NET1
 10
0.0
 20
0.0
 30
0.0
 70
   128
 71
   268
 72
   269
 73
   274
 74
   273
  0
VERTEX
  5
3E3
  8
TEAM-NET1
 10
0.0
 20
0.0
 30
0.0
 70
   128
 71
   263
 72
   265
 73
   274
 74
   269
  0
VERTEX
  5
3E4
  8
TEAM-NET1
 10
0.0
 20
0.0
 30
0.0
 70
   128
 71
   256
 72
   260
 73
   265
 74
   263
  0
VERTEX
  5
3E5
  8
TEAM-NET1
 10
0.0
 20
0.0
 30
0.0
 70
   128
 71
   256
 72
   260
 73
   227
 74
   221
  0
VERTEX
  5
3E6
  8
TEAM-NET1
 10
0.0
 20
0.0
 30
0.0
 70
   128
 71
   273
 72
   274
 73
   226
  0
VERTEX
  5
3E7
  8
TEAM-NET1
 10
0.0
 20
0.0
 30
0.0
 70
   128
 71
   265
 72
   226
 73
   226
 74
   274
  0
VERTEX
  5
3E8
  8
TEAM-NET1
 10
0.0
 20
0.0
 30
0.0
 70
   128
 71
   260
 72
   226
 73
   226
 74
   265
  0
VERTEX
  5
3E9
  8
TEAM-NET1
 10
0.0
 20
0.0
 30
0.0
 70
   128
 71
   260
 72
   226
 73
   226
 74
   227
  0
VERTEX
  5
3EA
  8
TEAM-NET1
 10
0.0
 20
0.0
 30
0.0
 70
   128
 71
   229
 72
   228
 73
   283
  0
SEQEND
  5
3EC
  8
TEAM-NET1
  0
CIRCLE
  5
3ED
  8
TEAM-INSP
 10
0.0
 20
0.0
 30
0.0
 40
7.1
  0
ARC
  5
3EF
  8
TEAM-NET1
 10
-14073.698914
 20
29.998062
 30
175.0
 40
14599.999023
 50
359.825134
 51
0.174872
  0
ARC
  5
3F0
  8
TEAM-NET1
 10
287.191399
 20
84.975069
 30
175.0
 40
239.267288
 50
357.504849
 51
56.356988
  0
ARC
  5
3F1
  8
TEAM-NET1
 10
287.191451
 20
-24.97504
 30
175.0
 40
239.267235
 50
303.642992
 51
2.495148
  0
ARC
  5
3F2
  8
TEAM-NET1
 10
0.00033
 20
17002.005076
 30
175.0
 40
17231.28564
 50
268.604147
 51
271.39583
  0
ARC
  5
3F3
  8
TEAM-NET1
 10
-287.191533
 20
-24.975049
 30
175.0
 40
239.267217
 50
177.504843
 51
236.357011
  0
ARC
  5
3F4
  8
TEAM-NET1
 10
0.001656
 20
-16941.952176
 30
175.0
 40
17231.234113
 50
88.60415
 51
91.395855
  0
ARC
  5
3F5
  8
TEAM-NET1
 10
14073.69757
 20
30.001968
 30
175.0
 40
14599.999023
 50
179.825134
 51
180.174866
  0
ARC
  5
3F6
  8
TEAM-NET1
 10
-287.191471
 20
84.975066
 30
175.0
 40
239.267276
 50
123.643006
 51
182.495147
  0
TEXT
  5
3F7
  8
TEAM-TXT
 10
-674.229812
 20
-4.414336
 30
601.0
 40
30.0
  1
team 111442
 41
0.8
 51
15.0
  7
TEAM
  0
ENDSEC
  0
EOF
