  0
SECTION
  2
HEADER
  9
$ACADVER
  1
AC1009
  9
$INSBASE
 10
0.0
 20
0.0
 30
0.0
  9
$EXTMIN
 10
-927.74556
 20
-452.697728
 30
-0.009601
  9
$EXTMAX
 10
927.732495
 20
381.268718
 30
620.044103
  9
$LIMMIN
 10
-927.74556
 20
-452.697728
  9
$LIMMAX
 10
927.732495
 20
381.268718
  9
$ORTHOMODE
 70
     1
  9
$REGENMODE
 70
     1
  9
$FILLMODE
 70
     1
  9
$QTEXTMODE
 70
     0
  9
$MIRRTEXT
 70
     0
  9
$DRAGMODE
 70
     2
  9
$LTSCALE
 40
50.0
  9
$OSMODE
 70
     7
  9
$ATTMODE
 70
     1
  9
$TEXTSIZE
 40
200.0
  9
$TRACEWID
 40
1.0
  9
$TEXTSTYLE
  7
STANDARD
  9
$CLAYER
  8
TEAM-MAS
  9
$CELTYPE
  6
BYLAYER
  9
$CECOLOR
 62
   256
  9
$DIMSCALE
 40
0.0
  9
$DIMASZ
 40
20.0
  9
$DIMEXO
 40
10.0
  9
$DIMDLI
 40
1.0
  9
$DIMRND
 40
0.0
  9
$DIMDLE
 40
0.0
  9
$DIMEXE
 40
1.0
  9
$DIMTP
 40
0.0
  9
$DIMTM
 40
0.0
  9
$DIMTXT
 40
35.0
  9
$DIMCEN
 40
1.0
  9
$DIMTSZ
 40
0.0
  9
$DIMTOL
 70
     0
  9
$DIMLIM
 70
     0
  9
$DIMTIH
 70
     0
  9
$DIMTOH
 70
     0
  9
$DIMSE1
 70
     0
  9
$DIMSE2
 70
     0
  9
$DIMTAD
 70
     0
  9
$DIMZIN
 70
     0
  9
$DIMBLK
  1

  9
$DIMASO
 70
     1
  9
$DIMSHO
 70
     0
  9
$DIMPOST
  1

  9
$DIMAPOST
  1

  9
$DIMALT
 70
     0
  9
$DIMALTD
 70
     2
  9
$DIMALTF
 40
25.4
  9
$DIMLFAC
 40
1.0
  9
$DIMTOFL
 70
     0
  9
$DIMTVP
 40
0.0
  9
$DIMTIX
 70
     0
  9
$DIMSOXD
 70
     0
  9
$DIMSAH
 70
     0
  9
$DIMBLK1
  1

  9
$DIMBLK2
  1

  9
$DIMSTYLE
  2
TEAM
  9
$DIMCLRD
 70
     9
  9
$DIMCLRE
 70
     9
  9
$DIMCLRT
 70
    11
  9
$DIMTFAC
 40
1.0
  9
$DIMGAP
 40
7.0
  9
$LUNITS
 70
     2
  9
$LUPREC
 70
     1
  9
$SKETCHINC
 40
1.0
  9
$FILLETRAD
 40
10.0
  9
$AUNITS
 70
     0
  9
$AUPREC
 70
     0
  9
$MENU
  1
ROPLANS
  9
$ELEVATION
 40
0.0
  9
$PELEVATION
 40
0.0
  9
$THICKNESS
 40
0.0
  9
$LIMCHECK
 70
     0
  9
$BLIPMODE
 70
     1
  9
$CHAMFERA
 40
0.0
  9
$CHAMFERB
 40
0.0
  9
$SKPOLY
 70
     0
  9
$TDCREATE
 40
2450392.957851
  9
$TDUPDATE
 40
2455955.923321
  9
$TDINDWG
 40
2.217917
  9
$TDUSRTIMER
 40
2.217917
  9
$USRTIMER
 70
     1
  9
$ANGBASE
 50
0.0
  9
$ANGDIR
 70
     0
  9
$PDMODE
 70
     0
  9
$PDSIZE
 40
0.0
  9
$PLINEWID
 40
0.0
  9
$COORDS
 70
     2
  9
$SPLFRAME
 70
     0
  9
$SPLINETYPE
 70
     6
  9
$SPLINESEGS
 70
     8
  9
$ATTDIA
 70
     0
  9
$ATTREQ
 70
     0
  9
$HANDLING
 70
     1
  9
$HANDSEED
  5
33E
  9
$SURFTAB1
 70
    24
  9
$SURFTAB2
 70
    24
  9
$SURFTYPE
 70
     6
  9
$SURFU
 70
     6
  9
$SURFV
 70
     6
  9
$UCSNAME
  2

  9
$UCSORG
 10
0.0
 20
0.0
 30
0.0
  9
$UCSXDIR
 10
1.0
 20
0.0
 30
0.0
  9
$UCSYDIR
 10
0.0
 20
1.0
 30
0.0
  9
$PUCSNAME
  2

  9
$PUCSORG
 10
0.0
 20
0.0
 30
0.0
  9
$PUCSXDIR
 10
1.0
 20
0.0
 30
0.0
  9
$PUCSYDIR
 10
0.0
 20
1.0
 30
0.0
  9
$USERI1
 70
     0
  9
$USERI2
 70
     0
  9
$USERI3
 70
     0
  9
$USERI4
 70
     0
  9
$USERI5
 70
     0
  9
$USERR1
 40
0.0
  9
$USERR2
 40
0.0
  9
$USERR3
 40
0.0
  9
$USERR4
 40
0.0
  9
$USERR5
 40
0.0
  9
$WORLDVIEW
 70
     1
  9
$SHADEDGE
 70
     0
  9
$SHADEDIF
 70
    70
  9
$TILEMODE
 70
     1
  9
$MAXACTVP
 70
    16
  9
$PLIMCHECK
 70
     0
  9
$PEXTMIN
 10
-0.805942
 20
0.005011
 30
0.0
  9
$PEXTMAX
 10
20.250094
 20
11.356329
 30
0.0
  9
$PLIMMIN
 10
0.0
 20
0.0
  9
$PLIMMAX
 10
12.0
 20
9.0
  9
$UNITMODE
 70
     0
  9
$VISRETAIN
 70
     0
  9
$PLINEGEN
 70
     0
  9
$PSLTSCALE
 70
     0
  0
ENDSEC
  0
SECTION
  2
TABLES
  0
TABLE
  2
VPORT
 70
     2
  0
VPORT
  2
*ACTIVE
 70
     0
 10
0.0
 20
0.0
 11
1.0
 21
1.0
 12
-0.006533
 22
-35.714505
 13
0.0
 23
0.0
 14
1.0
 24
1.0
 15
50.0
 25
50.0
 16
0.0
 26
0.0
 36
1.0
 17
0.0
 27
0.0
 37
0.0
 40
977.845453
 41
1.903766
 42
50.0
 43
0.0
 44
0.0
 50
0.0
 51
0.0
 71
     0
 72
   100
 73
     1
 74
     1
 75
     0
 76
     0
 77
     0
 78
     0
  0
ENDTAB
  0
TABLE
  2
LTYPE
 70
     2
  0
LTYPE
  2
CONTINUOUS
 70
     0
  3
Solid Line
 72
    65
 73
     0
 40
0.0
  0
LTYPE
  2
31
 70
     0
  3

 72
    65
 73
     4
 40
2.1
 49
1.5
 49
-0.3
 49
0.0
 49
-0.3
  0
ENDTAB
  0
TABLE
  2
LAYER
 70
     8
  0
LAYER
  2
0
 70
     0
 62
     7
  6
CONTINUOUS
  0
LAYER
  2
TEAM-BODY
 70
     0
 62
     2
  6
CONTINUOUS
  0
LAYER
  2
TEAM-AXE
 70
     0
 62
    10
  6
31
  0
LAYER
  2
TEAM-MAS
 70
     0
 62
     9
  6
CONTINUOUS
  0
LAYER
  2
TEAM-TXT
 70
     0
 62
    11
  6
CONTINUOUS
  0
LAYER
  2
TEAM-DET1
 70
     0
 62
     4
  6
CONTINUOUS
  0
LAYER
  2
TEAM-NET
 70
     0
 62
    15
  6
CONTINUOUS
  0
LAYER
  2
TEAM-INSP
 70
     0
 62
     5
  6
CONTINUOUS
  0
ENDTAB
  0
TABLE
  2
STYLE
 70
     2
  0
STYLE
  2
STANDARD
 70
     0
 40
0.0
 41
1.0
 50
0.0
 71
     0
 42
200.0
  3
txt
  4

  0
STYLE
  2
TEAM
 70
     0
 40
0.0
 41
0.8
 50
15.0
 71
     0
 42
7.0
  3
ROMANS.shx
  4

  0
ENDTAB
  0
TABLE
  2
VIEW
 70
     0
  0
ENDTAB
  0
TABLE
  2
UCS
 70
     0
  0
ENDTAB
  0
TABLE
  2
APPID
 70
     1
  0
APPID
  2
ACAD
 70
     0
  0
ENDTAB
  0
TABLE
  2
DIMSTYLE
 70
     1
  0
DIMSTYLE
  2
TEAM
 70
     0
  3

  4

  5

  6

  7

 40
0.0
 41
20.0
 42
10.0
 43
1.0
 44
1.0
 45
0.0
 46
0.0
 47
0.0
 48
0.0
140
35.0
141
1.0
142
0.0
143
25.4
144
1.0
145
0.0
146
1.0
147
7.0
 71
     0
 72
     0
 73
     0
 74
     0
 75
     0
 76
     0
 77
     0
 78
     0
170
     0
171
     2
172
     0
173
     0
174
     0
175
     0
176
     9
177
     9
178
    11
  0
ENDTAB
  0
ENDSEC
  0
SECTION
  2
BLOCKS
  0
BLOCK
  8
0
  2
$MODEL_SPACE
 70
     0
 10
0.0
 20
0.0
 30
0.0
  3
$MODEL_SPACE
  1

  0
ENDBLK
  5
316
  8
0
  0
BLOCK
 67
     1
  8
0
  2
$PAPER_SPACE
 70
     0
 10
0.0
 20
0.0
 30
0.0
  3
$PAPER_SPACE
  1

  0
ENDBLK
  5
314
 67
     1
  8
0
  0
ENDSEC
  0
SECTION
  2
ENTITIES
  0
POLYLINE
  5
20
  8
TEAM-NET
 66
     1
 10
0.0
 20
0.0
 30
0.0
 70
    16
 71
     2
 72
    37
  0
VERTEX
  5
21
  8
TEAM-NET
 10
-565.0
 20
0.0
 30
135.0
 70
    64
  0
VERTEX
  5
22
  8
TEAM-NET
 10
-561.950628
 20
-39.317692
 30
135.0
 70
    64
  0
VERTEX
  5
23
  8
TEAM-NET
 10
-552.875444
 20
-77.695037
 30
135.0
 70
    64
  0
VERTEX
  5
24
  8
TEAM-NET
 10
-537.991495
 20
-114.214178
 30
135.0
 70
    64
  0
VERTEX
  5
25
  8
TEAM-NET
 10
-517.654755
 20
-148.001699
 30
135.0
 70
    64
  0
VERTEX
  5
26
  8
TEAM-NET
 10
-492.35161
 20
-178.249517
 30
135.0
 70
    64
  0
VERTEX
  5
27
  8
TEAM-NET
 10
-462.687228
 20
-204.234205
 30
135.0
 70
    64
  0
VERTEX
  5
28
  8
TEAM-NET
 10
-429.37108
 20
-225.334297
 30
135.0
 70
    64
  0
VERTEX
  5
29
  8
TEAM-NET
 10
-393.199977
 20
-241.045149
 30
135.0
 70
    64
  0
VERTEX
  5
2A
  8
TEAM-NET
 10
-355.03901
 20
-250.991011
 30
135.0
 70
    64
  0
VERTEX
  5
2B
  8
TEAM-NET
 10
-315.800861
 20
-254.934011
 30
135.0
 70
    64
  0
VERTEX
  5
2C
  8
TEAM-NET
 10
-276.326191
 20
-255.0
 30
135.0
 70
    64
  0
VERTEX
  5
2D
  8
TEAM-NET
 10
-236.851021
 20
-255.0
 30
135.0
 70
    64
  0
VERTEX
  5
2E
  8
TEAM-NET
 10
-197.375851
 20
-255.0
 30
135.0
 70
    64
  0
VERTEX
  5
2F
  8
TEAM-NET
 10
-157.900681
 20
-255.0
 30
135.0
 70
    64
  0
VERTEX
  5
30
  8
TEAM-NET
 10
-118.425511
 20
-255.0
 30
135.0
 70
    64
  0
VERTEX
  5
31
  8
TEAM-NET
 10
-78.95034
 20
-255.0
 30
135.0
 70
    64
  0
VERTEX
  5
32
  8
TEAM-NET
 10
-39.47517
 20
-255.0
 30
135.0
 70
    64
  0
VERTEX
  5
33
  8
TEAM-NET
 10
0.0
 20
-255.0
 30
135.0
 70
    64
  0
VERTEX
  5
34
  8
TEAM-NET
 10
39.47517
 20
-255.0
 30
135.0
 70
    64
  0
VERTEX
  5
35
  8
TEAM-NET
 10
78.95034
 20
-255.0
 30
135.0
 70
    64
  0
VERTEX
  5
36
  8
TEAM-NET
 10
118.425511
 20
-255.0
 30
135.0
 70
    64
  0
VERTEX
  5
37
  8
TEAM-NET
 10
157.900681
 20
-255.0
 30
135.0
 70
    64
  0
VERTEX
  5
38
  8
TEAM-NET
 10
197.375851
 20
-255.0
 30
135.0
 70
    64
  0
VERTEX
  5
39
  8
TEAM-NET
 10
236.851021
 20
-255.0
 30
135.0
 70
    64
  0
VERTEX
  5
3A
  8
TEAM-NET
 10
276.326191
 20
-255.0
 30
135.0
 70
    64
  0
VERTEX
  5
3B
  8
TEAM-NET
 10
315.800861
 20
-254.934011
 30
135.0
 70
    64
  0
VERTEX
  5
3C
  8
TEAM-NET
 10
355.03901
 20
-250.991011
 30
135.0
 70
    64
  0
VERTEX
  5
3D
  8
TEAM-NET
 10
393.199977
 20
-241.045149
 30
135.0
 70
    64
  0
VERTEX
  5
3E
  8
TEAM-NET
 10
429.37108
 20
-225.334297
 30
135.0
 70
    64
  0
VERTEX
  5
3F
  8
TEAM-NET
 10
462.687228
 20
-204.234205
 30
135.0
 70
    64
  0
VERTEX
  5
40
  8
TEAM-NET
 10
492.35161
 20
-178.249517
 30
135.0
 70
    64
  0
VERTEX
  5
41
  8
TEAM-NET
 10
517.654755
 20
-148.001699
 30
135.0
 70
    64
  0
VERTEX
  5
42
  8
TEAM-NET
 10
537.991495
 20
-114.214178
 30
135.0
 70
    64
  0
VERTEX
  5
43
  8
TEAM-NET
 10
552.875444
 20
-77.695037
 30
135.0
 70
    64
  0
VERTEX
  5
44
  8
TEAM-NET
 10
561.950628
 20
-39.317692
 30
135.0
 70
    64
  0
VERTEX
  5
45
  8
TEAM-NET
 10
565.0
 20
0.0
 30
135.0
 70
    64
  0
VERTEX
  5
46
  8
TEAM-NET
 10
-790.0
 20
0.0
 30
620.0
 70
    64
  0
VERTEX
  5
47
  8
TEAM-NET
 10
-785.403571
 20
-53.61551
 30
620.0
 70
    64
  0
VERTEX
  5
48
  8
TEAM-NET
 10
-771.748426
 20
-105.666322
 30
620.0
 70
    64
  0
VERTEX
  5
49
  8
TEAM-NET
 10
-749.433071
 20
-154.633403
 30
620.0
 70
    64
  0
VERTEX
  5
4A
  8
TEAM-NET
 10
-719.108751
 20
-199.087713
 30
620.0
 70
    64
  0
VERTEX
  5
4B
  8
TEAM-NET
 10
-681.660441
 20
-237.731912
 30
620.0
 70
    64
  0
VERTEX
  5
4C
  8
TEAM-NET
 10
-638.18102
 20
-269.438221
 30
620.0
 70
    64
  0
VERTEX
  5
4D
  8
TEAM-NET
 10
-589.939377
 20
-293.281332
 30
620.0
 70
    64
  0
VERTEX
  5
4E
  8
TEAM-NET
 10
-538.34338
 20
-308.565416
 30
620.0
 70
    64
  0
VERTEX
  5
4F
  8
TEAM-NET
 10
-484.898792
 20
-314.844428
 30
620.0
 70
    64
  0
VERTEX
  5
50
  8
TEAM-NET
 10
-431.022597
 20
-315.0
 30
620.0
 70
    64
  0
VERTEX
  5
51
  8
TEAM-NET
 10
-377.144772
 20
-315.0
 30
620.0
 70
    64
  0
VERTEX
  5
52
  8
TEAM-NET
 10
-323.266948
 20
-315.0
 30
620.0
 70
    64
  0
VERTEX
  5
53
  8
TEAM-NET
 10
-269.389123
 20
-315.0
 30
620.0
 70
    64
  0
VERTEX
  5
54
  8
TEAM-NET
 10
-215.511298
 20
-315.0
 30
620.0
 70
    64
  0
VERTEX
  5
55
  8
TEAM-NET
 10
-161.633474
 20
-315.0
 30
620.0
 70
    64
  0
VERTEX
  5
56
  8
TEAM-NET
 10
-107.755649
 20
-315.0
 30
620.0
 70
    64
  0
VERTEX
  5
57
  8
TEAM-NET
 10
-53.877825
 20
-315.0
 30
620.0
 70
    64
  0
VERTEX
  5
58
  8
TEAM-NET
 10
0.0
 20
-315.0
 30
620.0
 70
    64
  0
VERTEX
  5
59
  8
TEAM-NET
 10
53.877825
 20
-315.0
 30
620.0
 70
    64
  0
VERTEX
  5
5A
  8
TEAM-NET
 10
107.755649
 20
-315.0
 30
620.0
 70
    64
  0
VERTEX
  5
5B
  8
TEAM-NET
 10
161.633474
 20
-315.0
 30
620.0
 70
    64
  0
VERTEX
  5
5C
  8
TEAM-NET
 10
215.511298
 20
-315.0
 30
620.0
 70
    64
  0
VERTEX
  5
5D
  8
TEAM-NET
 10
269.389123
 20
-315.0
 30
620.0
 70
    64
  0
VERTEX
  5
5E
  8
TEAM-NET
 10
323.266948
 20
-315.0
 30
620.0
 70
    64
  0
VERTEX
  5
5F
  8
TEAM-NET
 10
377.144772
 20
-315.0
 30
620.0
 70
    64
  0
VERTEX
  5
60
  8
TEAM-NET
 10
431.022597
 20
-315.0
 30
620.0
 70
    64
  0
VERTEX
  5
61
  8
TEAM-NET
 10
484.898792
 20
-314.844428
 30
620.0
 70
    64
  0
VERTEX
  5
62
  8
TEAM-NET
 10
538.34338
 20
-308.565416
 30
620.0
 70
    64
  0
VERTEX
  5
63
  8
TEAM-NET
 10
589.939377
 20
-293.281332
 30
620.0
 70
    64
  0
VERTEX
  5
64
  8
TEAM-NET
 10
638.18102
 20
-269.438221
 30
620.0
 70
    64
  0
VERTEX
  5
65
  8
TEAM-NET
 10
681.660441
 20
-237.731912
 30
620.0
 70
    64
  0
VERTEX
  5
66
  8
TEAM-NET
 10
719.108751
 20
-199.087713
 30
620.0
 70
    64
  0
VERTEX
  5
67
  8
TEAM-NET
 10
749.433071
 20
-154.633403
 30
620.0
 70
    64
  0
VERTEX
  5
68
  8
TEAM-NET
 10
771.748426
 20
-105.666322
 30
620.0
 70
    64
  0
VERTEX
  5
69
  8
TEAM-NET
 10
785.403571
 20
-53.61551
 30
620.0
 70
    64
  0
VERTEX
  5
6A
  8
TEAM-NET
 10
790.0
 20
0.0
 30
620.0
 70
    64
  0
SEQEND
  5
6C
  8
TEAM-NET
  0
POLYLINE
  5
6D
  8
TEAM-NET
 66
     1
 10
0.0
 20
0.0
 30
0.0
 70
    16
 71
     2
 72
    37
  0
VERTEX
  5
6E
  8
TEAM-NET
 10
-565.0
 20
0.0
 30
135.0
 70
    64
  0
VERTEX
  5
6F
  8
TEAM-NET
 10
-561.950628
 20
39.317692
 30
135.0
 70
    64
  0
VERTEX
  5
70
  8
TEAM-NET
 10
-552.875444
 20
77.695037
 30
135.0
 70
    64
  0
VERTEX
  5
71
  8
TEAM-NET
 10
-537.991495
 20
114.214178
 30
135.0
 70
    64
  0
VERTEX
  5
72
  8
TEAM-NET
 10
-517.654755
 20
148.001699
 30
135.0
 70
    64
  0
VERTEX
  5
73
  8
TEAM-NET
 10
-492.35161
 20
178.249517
 30
135.0
 70
    64
  0
VERTEX
  5
74
  8
TEAM-NET
 10
-462.687228
 20
204.234205
 30
135.0
 70
    64
  0
VERTEX
  5
75
  8
TEAM-NET
 10
-429.37108
 20
225.334297
 30
135.0
 70
    64
  0
VERTEX
  5
76
  8
TEAM-NET
 10
-393.199977
 20
241.045149
 30
135.0
 70
    64
  0
VERTEX
  5
77
  8
TEAM-NET
 10
-355.03901
 20
250.991011
 30
135.0
 70
    64
  0
VERTEX
  5
78
  8
TEAM-NET
 10
-315.800861
 20
254.934011
 30
135.0
 70
    64
  0
VERTEX
  5
79
  8
TEAM-NET
 10
-276.326191
 20
255.0
 30
135.0
 70
    64
  0
VERTEX
  5
7A
  8
TEAM-NET
 10
-236.851021
 20
255.0
 30
135.0
 70
    64
  0
VERTEX
  5
7B
  8
TEAM-NET
 10
-197.375851
 20
255.0
 30
135.0
 70
    64
  0
VERTEX
  5
7C
  8
TEAM-NET
 10
-157.900681
 20
255.0
 30
135.0
 70
    64
  0
VERTEX
  5
7D
  8
TEAM-NET
 10
-118.425511
 20
255.0
 30
135.0
 70
    64
  0
VERTEX
  5
7E
  8
TEAM-NET
 10
-78.95034
 20
255.0
 30
135.0
 70
    64
  0
VERTEX
  5
7F
  8
TEAM-NET
 10
-39.47517
 20
255.0
 30
135.0
 70
    64
  0
VERTEX
  5
80
  8
TEAM-NET
 10
0.0
 20
255.0
 30
135.0
 70
    64
  0
VERTEX
  5
81
  8
TEAM-NET
 10
39.47517
 20
255.0
 30
135.0
 70
    64
  0
VERTEX
  5
82
  8
TEAM-NET
 10
78.95034
 20
255.0
 30
135.0
 70
    64
  0
VERTEX
  5
83
  8
TEAM-NET
 10
118.425511
 20
255.0
 30
135.0
 70
    64
  0
VERTEX
  5
84
  8
TEAM-NET
 10
157.900681
 20
255.0
 30
135.0
 70
    64
  0
VERTEX
  5
85
  8
TEAM-NET
 10
197.375851
 20
255.0
 30
135.0
 70
    64
  0
VERTEX
  5
86
  8
TEAM-NET
 10
236.851021
 20
255.0
 30
135.0
 70
    64
  0
VERTEX
  5
87
  8
TEAM-NET
 10
276.326191
 20
255.0
 30
135.0
 70
    64
  0
VERTEX
  5
88
  8
TEAM-NET
 10
315.800861
 20
254.934011
 30
135.0
 70
    64
  0
VERTEX
  5
89
  8
TEAM-NET
 10
355.03901
 20
250.991011
 30
135.0
 70
    64
  0
VERTEX
  5
8A
  8
TEAM-NET
 10
393.199977
 20
241.045149
 30
135.0
 70
    64
  0
VERTEX
  5
8B
  8
TEAM-NET
 10
429.37108
 20
225.334297
 30
135.0
 70
    64
  0
VERTEX
  5
8C
  8
TEAM-NET
 10
462.687228
 20
204.234205
 30
135.0
 70
    64
  0
VERTEX
  5
8D
  8
TEAM-NET
 10
492.35161
 20
178.249517
 30
135.0
 70
    64
  0
VERTEX
  5
8E
  8
TEAM-NET
 10
517.654755
 20
148.001699
 30
135.0
 70
    64
  0
VERTEX
  5
8F
  8
TEAM-NET
 10
537.991495
 20
114.214178
 30
135.0
 70
    64
  0
VERTEX
  5
90
  8
TEAM-NET
 10
552.875444
 20
77.695037
 30
135.0
 70
    64
  0
VERTEX
  5
91
  8
TEAM-NET
 10
561.950628
 20
39.317692
 30
135.0
 70
    64
  0
VERTEX
  5
92
  8
TEAM-NET
 10
565.0
 20
0.0
 30
135.0
 70
    64
  0
VERTEX
  5
93
  8
TEAM-NET
 10
-790.0
 20
0.0
 30
620.0
 70
    64
  0
VERTEX
  5
94
  8
TEAM-NET
 10
-785.403571
 20
53.61551
 30
620.0
 70
    64
  0
VERTEX
  5
95
  8
TEAM-NET
 10
-771.748426
 20
105.666322
 30
620.0
 70
    64
  0
VERTEX
  5
96
  8
TEAM-NET
 10
-749.433071
 20
154.633403
 30
620.0
 70
    64
  0
VERTEX
  5
97
  8
TEAM-NET
 10
-719.108751
 20
199.087713
 30
620.0
 70
    64
  0
VERTEX
  5
98
  8
TEAM-NET
 10
-681.660441
 20
237.731912
 30
620.0
 70
    64
  0
VERTEX
  5
99
  8
TEAM-NET
 10
-638.18102
 20
269.438221
 30
620.0
 70
    64
  0
VERTEX
  5
9A
  8
TEAM-NET
 10
-589.939377
 20
293.281332
 30
620.0
 70
    64
  0
VERTEX
  5
9B
  8
TEAM-NET
 10
-538.34338
 20
308.565416
 30
620.0
 70
    64
  0
VERTEX
  5
9C
  8
TEAM-NET
 10
-484.898792
 20
314.844428
 30
620.0
 70
    64
  0
VERTEX
  5
9D
  8
TEAM-NET
 10
-431.022597
 20
315.0
 30
620.0
 70
    64
  0
VERTEX
  5
9E
  8
TEAM-NET
 10
-377.144772
 20
315.0
 30
620.0
 70
    64
  0
VERTEX
  5
9F
  8
TEAM-NET
 10
-323.266948
 20
315.0
 30
620.0
 70
    64
  0
VERTEX
  5
A0
  8
TEAM-NET
 10
-269.389123
 20
315.0
 30
620.0
 70
    64
  0
VERTEX
  5
A1
  8
TEAM-NET
 10
-215.511298
 20
315.0
 30
620.0
 70
    64
  0
VERTEX
  5
A2
  8
TEAM-NET
 10
-161.633474
 20
315.0
 30
620.0
 70
    64
  0
VERTEX
  5
A3
  8
TEAM-NET
 10
-107.755649
 20
315.0
 30
620.0
 70
    64
  0
VERTEX
  5
A4
  8
TEAM-NET
 10
-53.877825
 20
315.0
 30
620.0
 70
    64
  0
VERTEX
  5
A5
  8
TEAM-NET
 10
0.0
 20
315.0
 30
620.0
 70
    64
  0
VERTEX
  5
A6
  8
TEAM-NET
 10
53.877825
 20
315.0
 30
620.0
 70
    64
  0
VERTEX
  5
A7
  8
TEAM-NET
 10
107.755649
 20
315.0
 30
620.0
 70
    64
  0
VERTEX
  5
A8
  8
TEAM-NET
 10
161.633474
 20
315.0
 30
620.0
 70
    64
  0
VERTEX
  5
A9
  8
TEAM-NET
 10
215.511298
 20
315.0
 30
620.0
 70
    64
  0
VERTEX
  5
AA
  8
TEAM-NET
 10
269.389123
 20
315.0
 30
620.0
 70
    64
  0
VERTEX
  5
AB
  8
TEAM-NET
 10
323.266948
 20
315.0
 30
620.0
 70
    64
  0
VERTEX
  5
AC
  8
TEAM-NET
 10
377.144772
 20
315.0
 30
620.0
 70
    64
  0
VERTEX
  5
AD
  8
TEAM-NET
 10
431.022597
 20
315.0
 30
620.0
 70
    64
  0
VERTEX
  5
AE
  8
TEAM-NET
 10
484.898792
 20
314.844428
 30
620.0
 70
    64
  0
VERTEX
  5
AF
  8
TEAM-NET
 10
538.34338
 20
308.565416
 30
620.0
 70
    64
  0
VERTEX
  5
B0
  8
TEAM-NET
 10
589.939377
 20
293.281332
 30
620.0
 70
    64
  0
VERTEX
  5
B1
  8
TEAM-NET
 10
638.18102
 20
269.438221
 30
620.0
 70
    64
  0
VERTEX
  5
B2
  8
TEAM-NET
 10
681.660441
 20
237.731912
 30
620.0
 70
    64
  0
VERTEX
  5
B3
  8
TEAM-NET
 10
719.108751
 20
199.087713
 30
620.0
 70
    64
  0
VERTEX
  5
B4
  8
TEAM-NET
 10
749.433071
 20
154.633403
 30
620.0
 70
    64
  0
VERTEX
  5
B5
  8
TEAM-NET
 10
771.748426
 20
105.666322
 30
620.0
 70
    64
  0
VERTEX
  5
B6
  8
TEAM-NET
 10
785.403571
 20
53.61551
 30
620.0
 70
    64
  0
VERTEX
  5
B7
  8
TEAM-NET
 10
790.0
 20
0.0
 30
620.0
 70
    64
  0
SEQEND
  5
B8
  8
TEAM-NET
  0
CIRCLE
  5
B9
  8
TEAM-INSP
 10
0.0
 20
0.0
 30
0.0
 40
10.0
  0
CIRCLE
  5
BB
  8
TEAM-BODY
 39
-15.0
 10
0.0
 20
0.0
 30
135.0
 40
26.0
  0
POLYLINE
  5
BD
  8
TEAM-NET
 66
     1
 10
0.0
 20
0.0
 30
0.0
 70
    16
 71
     2
 72
    37
  0
VERTEX
  5
BE
  8
TEAM-NET
 10
-565.0
 20
0.0
 30
135.0
 70
    64
  0
VERTEX
  5
BF
  8
TEAM-NET
 10
-561.950628
 20
-39.317692
 30
135.0
 70
    64
  0
VERTEX
  5
C0
  8
TEAM-NET
 10
-552.875444
 20
-77.695037
 30
135.0
 70
    64
  0
VERTEX
  5
C1
  8
TEAM-NET
 10
-537.991495
 20
-114.214178
 30
135.0
 70
    64
  0
VERTEX
  5
C2
  8
TEAM-NET
 10
-517.654755
 20
-148.001699
 30
135.0
 70
    64
  0
VERTEX
  5
C3
  8
TEAM-NET
 10
-492.35161
 20
-178.249517
 30
135.0
 70
    64
  0
VERTEX
  5
C4
  8
TEAM-NET
 10
-462.687228
 20
-204.234205
 30
135.0
 70
    64
  0
VERTEX
  5
C5
  8
TEAM-NET
 10
-429.37108
 20
-225.334297
 30
135.0
 70
    64
  0
VERTEX
  5
C6
  8
TEAM-NET
 10
-393.199977
 20
-241.045149
 30
135.0
 70
    64
  0
VERTEX
  5
C7
  8
TEAM-NET
 10
-355.03901
 20
-250.991011
 30
135.0
 70
    64
  0
VERTEX
  5
C8
  8
TEAM-NET
 10
-315.800861
 20
-254.934011
 30
135.0
 70
    64
  0
VERTEX
  5
C9
  8
TEAM-NET
 10
-276.326191
 20
-255.0
 30
135.0
 70
    64
  0
VERTEX
  5
CA
  8
TEAM-NET
 10
-236.851021
 20
-255.0
 30
135.0
 70
    64
  0
VERTEX
  5
CB
  8
TEAM-NET
 10
-197.375851
 20
-255.0
 30
135.0
 70
    64
  0
VERTEX
  5
CC
  8
TEAM-NET
 10
-157.900681
 20
-255.0
 30
135.0
 70
    64
  0
VERTEX
  5
CD
  8
TEAM-NET
 10
-118.425511
 20
-255.0
 30
135.0
 70
    64
  0
VERTEX
  5
CE
  8
TEAM-NET
 10
-78.95034
 20
-255.0
 30
135.0
 70
    64
  0
VERTEX
  5
CF
  8
TEAM-NET
 10
-39.47517
 20
-255.0
 30
135.0
 70
    64
  0
VERTEX
  5
D0
  8
TEAM-NET
 10
0.0
 20
-255.0
 30
135.0
 70
    64
  0
VERTEX
  5
D1
  8
TEAM-NET
 10
39.47517
 20
-255.0
 30
135.0
 70
    64
  0
VERTEX
  5
D2
  8
TEAM-NET
 10
78.95034
 20
-255.0
 30
135.0
 70
    64
  0
VERTEX
  5
D3
  8
TEAM-NET
 10
118.425511
 20
-255.0
 30
135.0
 70
    64
  0
VERTEX
  5
D4
  8
TEAM-NET
 10
157.900681
 20
-255.0
 30
135.0
 70
    64
  0
VERTEX
  5
D5
  8
TEAM-NET
 10
197.375851
 20
-255.0
 30
135.0
 70
    64
  0
VERTEX
  5
D6
  8
TEAM-NET
 10
236.851021
 20
-255.0
 30
135.0
 70
    64
  0
VERTEX
  5
D7
  8
TEAM-NET
 10
276.326191
 20
-255.0
 30
135.0
 70
    64
  0
VERTEX
  5
D8
  8
TEAM-NET
 10
315.800861
 20
-254.934011
 30
135.0
 70
    64
  0
VERTEX
  5
D9
  8
TEAM-NET
 10
355.03901
 20
-250.991011
 30
135.0
 70
    64
  0
VERTEX
  5
DA
  8
TEAM-NET
 10
393.199977
 20
-241.045149
 30
135.0
 70
    64
  0
VERTEX
  5
DB
  8
TEAM-NET
 10
429.37108
 20
-225.334297
 30
135.0
 70
    64
  0
VERTEX
  5
DC
  8
TEAM-NET
 10
462.687228
 20
-204.234205
 30
135.0
 70
    64
  0
VERTEX
  5
DD
  8
TEAM-NET
 10
492.35161
 20
-178.249517
 30
135.0
 70
    64
  0
VERTEX
  5
DE
  8
TEAM-NET
 10
517.654755
 20
-148.001699
 30
135.0
 70
    64
  0
VERTEX
  5
DF
  8
TEAM-NET
 10
537.991495
 20
-114.214178
 30
135.0
 70
    64
  0
VERTEX
  5
E0
  8
TEAM-NET
 10
552.875444
 20
-77.695037
 30
135.0
 70
    64
  0
VERTEX
  5
E1
  8
TEAM-NET
 10
561.950628
 20
-39.317692
 30
135.0
 70
    64
  0
VERTEX
  5
E2
  8
TEAM-NET
 10
565.0
 20
0.0
 30
135.0
 70
    64
  0
VERTEX
  5
E3
  8
TEAM-NET
 10
-565.0
 20
0.0
 30
135.0
 70
    64
  0
VERTEX
  5
E4
  8
TEAM-NET
 10
-561.950628
 20
39.317692
 30
135.0
 70
    64
  0
VERTEX
  5
E5
  8
TEAM-NET
 10
-552.875444
 20
77.695037
 30
135.0
 70
    64
  0
VERTEX
  5
E6
  8
TEAM-NET
 10
-537.991495
 20
114.214178
 30
135.0
 70
    64
  0
VERTEX
  5
E7
  8
TEAM-NET
 10
-517.654755
 20
148.001699
 30
135.0
 70
    64
  0
VERTEX
  5
E8
  8
TEAM-NET
 10
-492.35161
 20
178.249517
 30
135.0
 70
    64
  0
VERTEX
  5
E9
  8
TEAM-NET
 10
-462.687228
 20
204.234205
 30
135.0
 70
    64
  0
VERTEX
  5
EA
  8
TEAM-NET
 10
-429.37108
 20
225.334297
 30
135.0
 70
    64
  0
VERTEX
  5
EB
  8
TEAM-NET
 10
-393.199977
 20
241.045149
 30
135.0
 70
    64
  0
VERTEX
  5
EC
  8
TEAM-NET
 10
-355.03901
 20
250.991011
 30
135.0
 70
    64
  0
VERTEX
  5
ED
  8
TEAM-NET
 10
-315.800861
 20
254.934011
 30
135.0
 70
    64
  0
VERTEX
  5
EE
  8
TEAM-NET
 10
-276.326191
 20
255.0
 30
135.0
 70
    64
  0
VERTEX
  5
EF
  8
TEAM-NET
 10
-236.851021
 20
255.0
 30
135.0
 70
    64
  0
VERTEX
  5
F0
  8
TEAM-NET
 10
-197.375851
 20
255.0
 30
135.0
 70
    64
  0
VERTEX
  5
F1
  8
TEAM-NET
 10
-157.900681
 20
255.0
 30
135.0
 70
    64
  0
VERTEX
  5
F2
  8
TEAM-NET
 10
-118.425511
 20
255.0
 30
135.0
 70
    64
  0
VERTEX
  5
F3
  8
TEAM-NET
 10
-78.95034
 20
255.0
 30
135.0
 70
    64
  0
VERTEX
  5
F4
  8
TEAM-NET
 10
-39.47517
 20
255.0
 30
135.0
 70
    64
  0
VERTEX
  5
F5
  8
TEAM-NET
 10
0.0
 20
255.0
 30
135.0
 70
    64
  0
VERTEX
  5
F6
  8
TEAM-NET
 10
39.47517
 20
255.0
 30
135.0
 70
    64
  0
VERTEX
  5
F7
  8
TEAM-NET
 10
78.95034
 20
255.0
 30
135.0
 70
    64
  0
VERTEX
  5
F8
  8
TEAM-NET
 10
118.425511
 20
255.0
 30
135.0
 70
    64
  0
VERTEX
  5
F9
  8
TEAM-NET
 10
157.900681
 20
255.0
 30
135.0
 70
    64
  0
VERTEX
  5
FA
  8
TEAM-NET
 10
197.375851
 20
255.0
 30
135.0
 70
    64
  0
VERTEX
  5
FB
  8
TEAM-NET
 10
236.851021
 20
255.0
 30
135.0
 70
    64
  0
VERTEX
  5
FC
  8
TEAM-NET
 10
276.326191
 20
255.0
 30
135.0
 70
    64
  0
VERTEX
  5
FD
  8
TEAM-NET
 10
315.800861
 20
254.934011
 30
135.0
 70
    64
  0
VERTEX
  5
FE
  8
TEAM-NET
 10
355.03901
 20
250.991011
 30
135.0
 70
    64
  0
VERTEX
  5
FF
  8
TEAM-NET
 10
393.199977
 20
241.045149
 30
135.0
 70
    64
  0
VERTEX
  5
100
  8
TEAM-NET
 10
429.37108
 20
225.334297
 30
135.0
 70
    64
  0
VERTEX
  5
101
  8
TEAM-NET
 10
462.687228
 20
204.234205
 30
135.0
 70
    64
  0
VERTEX
  5
102
  8
TEAM-NET
 10
492.35161
 20
178.249517
 30
135.0
 70
    64
  0
VERTEX
  5
103
  8
TEAM-NET
 10
517.654755
 20
148.001699
 30
135.0
 70
    64
  0
VERTEX
  5
104
  8
TEAM-NET
 10
537.991495
 20
114.214178
 30
135.0
 70
    64
  0
VERTEX
  5
105
  8
TEAM-NET
 10
552.875444
 20
77.695037
 30
135.0
 70
    64
  0
VERTEX
  5
106
  8
TEAM-NET
 10
561.950628
 20
39.317692
 30
135.0
 70
    64
  0
VERTEX
  5
107
  8
TEAM-NET
 10
565.0
 20
0.0
 30
135.0
 70
    64
  0
SEQEND
  5
108
  8
TEAM-NET
  0
POLYLINE
  5
109
  8
TEAM-DET1
 66
     1
 10
0.0
 20
0.0
 30
135.0
  0
VERTEX
  5
31C
  8
TEAM-DET1
 10
-565.0
 20
0.0
 30
135.0
 42
0.414214
  0
VERTEX
  5
31D
  8
TEAM-DET1
 10
-310.0
 20
-255.0
 30
135.0
  0
VERTEX
  5
31E
  8
TEAM-DET1
 10
310.0
 20
-255.0
 30
135.0
 42
0.414214
  0
VERTEX
  5
31F
  8
TEAM-DET1
 10
565.0
 20
0.0
 30
135.0
  0
SEQEND
  5
320
  8
TEAM-DET1
  0
POLYLINE
  5
10B
  8
TEAM-DET1
 66
     1
 10
0.0
 20
0.0
 30
135.0
  0
VERTEX
  5
321
  8
TEAM-DET1
 10
-565.0
 20
0.0
 30
135.0
 42
-0.414214
  0
VERTEX
  5
322
  8
TEAM-DET1
 10
-310.0
 20
255.0
 30
135.0
  0
VERTEX
  5
323
  8
TEAM-DET1
 10
310.0
 20
255.0
 30
135.0
 42
-0.414214
  0
VERTEX
  5
324
  8
TEAM-DET1
 10
565.0
 20
0.0
 30
135.0
  0
SEQEND
  5
325
  8
TEAM-DET1
  0
LINE
  5
10C
  8
TEAM-AXE
 10
-40.0
 20
0.0
 30
135.0
 11
40.0
 21
0.0
 31
135.0
  0
LINE
  5
10F
  8
TEAM-AXE
 10
0.0
 20
-40.0
 30
135.0
 11
0.0
 21
40.0
 31
135.0
  0
CIRCLE
  5
110
  8
TEAM-DET1
 10
0.0
 20
0.0
 30
135.0
 40
35.0
  0
LINE
  5
111
  8
TEAM-AXE
 10
0.0
 20
-326.233641
 30
550.0
 11
0.0
 21
-286.233641
 31
550.0
  0
ARC
  5
112
  8
TEAM-DET1
 10
22.531753
 20
-306.233641
 30
550.0
 40
2.732471
 50
305.618467
 51
359.999963
  0
ARC
  5
113
  8
TEAM-DET1
 10
12.038934
 20
-291.587376
 30
550.0
 40
20.749472
 50
286.528202
 51
305.618426
  0
ARC
  5
114
  8
TEAM-DET1
 10
12.038934
 20
-320.879909
 30
550.0
 40
20.749472
 50
54.381574
 51
73.471798
  0
ARC
  5
115
  8
TEAM-DET1
 10
22.531753
 20
-306.233644
 30
550.0
 40
2.732471
 50
0.000037
 51
54.381533
  0
ARC
  5
116
  8
TEAM-DET1
 10
0.264306
 20
-229.521547
 30
550.0
 40
84.130824
 50
269.999944
 51
277.007555
  0
ARC
  5
117
  8
TEAM-DET1
 10
0.264306
 20
-382.945738
 30
550.0
 40
84.130824
 50
82.992445
 51
90.000056
  0
ARC
  5
118
  8
TEAM-DET1
 10
4.962032
 20
-267.739349
 30
550.0
 40
45.625383
 50
277.007486
 51
286.528231
  0
ARC
  5
119
  8
TEAM-DET1
 10
4.962032
 20
-344.727936
 30
550.0
 40
45.625383
 50
73.471769
 51
82.992514
  0
ARC
  5
11A
  8
TEAM-DET1
 10
-11.510485
 20
-291.587376
 30
550.0
 40
20.749472
 50
234.381574
 51
253.471798
  0
ARC
  5
11B
  8
TEAM-DET1
 10
-11.510485
 20
-320.879909
 30
550.0
 40
20.749472
 50
106.528202
 51
125.618426
  0
ARC
  5
11C
  8
TEAM-DET1
 10
-22.003304
 20
-306.233641
 30
550.0
 40
2.732471
 50
180.000037
 51
234.381533
  0
ARC
  5
11D
  8
TEAM-DET1
 10
-22.003304
 20
-306.233644
 30
550.0
 40
2.732471
 50
125.618467
 51
179.999963
  0
ARC
  5
11E
  8
TEAM-DET1
 10
-4.433583
 20
-267.739349
 30
550.0
 40
45.625383
 50
253.471769
 51
262.992514
  0
ARC
  5
11F
  8
TEAM-DET1
 10
-4.433583
 20
-344.727936
 30
550.0
 40
45.625383
 50
97.007486
 51
106.528231
  0
LINE
  5
120
  8
TEAM-AXE
 10
30.0
 20
-306.233641
 30
550.0
 11
-30.0
 21
-306.233641
 31
550.0
  0
ARC
  5
121
  8
TEAM-DET1
 10
0.264143
 20
-229.521547
 30
550.0
 40
84.130824
 50
262.992445
 51
270.000056
  0
ARC
  5
122
  8
TEAM-DET1
 10
0.264143
 20
-382.945738
 30
550.0
 40
84.130824
 50
89.999944
 51
97.007555
  0
POLYLINE
  5
123
  8
TEAM-BODY
 66
     1
 10
0.0
 20
0.0
 30
620.0
 39
-50.0
  0
VERTEX
  5
326
  8
TEAM-BODY
 10
-850.0
 20
0.0
 30
620.0
  0
VERTEX
  5
327
  8
TEAM-BODY
 10
-850.0
 20
345.0
 30
620.0
 42
-0.414214
  0
VERTEX
  5
328
  8
TEAM-BODY
 10
-820.0
 20
375.0
 30
620.0
  0
VERTEX
  5
329
  8
TEAM-BODY
 10
820.0
 20
375.0
 30
620.0
 42
-0.414214
  0
VERTEX
  5
32A
  8
TEAM-BODY
 10
850.0
 20
345.0
 30
620.0
  0
VERTEX
  5
32B
  8
TEAM-BODY
 10
850.0
 20
0.0
 30
620.0
  0
SEQEND
  5
32C
  8
TEAM-BODY
  0
POLYLINE
  5
124
  8
TEAM-BODY
 66
     1
 10
0.0
 20
0.0
 30
620.0
 39
-50.0
  0
VERTEX
  5
32D
  8
TEAM-BODY
 10
-850.0
 20
0.0
 30
620.0
 42
0.414214
  0
VERTEX
  5
32E
  8
TEAM-BODY
 10
-475.0
 20
-375.0
 30
620.0
  0
VERTEX
  5
32F
  8
TEAM-BODY
 10
475.0
 20
-375.0
 30
620.0
 42
0.414214
  0
VERTEX
  5
330
  8
TEAM-BODY
 10
850.0
 20
0.0
 30
620.0
  0
VERTEX
  5
331
  8
TEAM-BODY
 10
850.0
 20
0.0
 30
620.0
  0
SEQEND
  5
332
  8
TEAM-BODY
  0
POLYLINE
  5
125
  8
TEAM-BODY
 66
     1
 10
0.0
 20
0.0
 30
620.0
  0
VERTEX
  5
333
  8
TEAM-BODY
 10
-790.0
 20
0.0
 30
620.0
 42
0.414214
  0
VERTEX
  5
334
  8
TEAM-BODY
 10
-475.0
 20
-315.0
 30
620.0
  0
VERTEX
  5
335
  8
TEAM-BODY
 10
475.0
 20
-315.0
 30
620.0
 42
0.414214
  0
VERTEX
  5
336
  8
TEAM-BODY
 10
790.0
 20
0.0
 30
620.0
  0
SEQEND
  5
337
  8
TEAM-BODY
  0
POLYLINE
  5
126
  8
TEAM-NET
 66
     1
 10
0.0
 20
0.0
 30
0.0
 70
    16
 71
     2
 72
    37
  0
VERTEX
  5
127
  8
TEAM-NET
 10
-790.0
 20
0.0
 30
620.0
 70
    64
  0
VERTEX
  5
128
  8
TEAM-NET
 10
-785.403571
 20
53.61551
 30
620.0
 70
    64
  0
VERTEX
  5
129
  8
TEAM-NET
 10
-771.748426
 20
105.666322
 30
620.0
 70
    64
  0
VERTEX
  5
12A
  8
TEAM-NET
 10
-749.433071
 20
154.633403
 30
620.0
 70
    64
  0
VERTEX
  5
12B
  8
TEAM-NET
 10
-719.108751
 20
199.087713
 30
620.0
 70
    64
  0
VERTEX
  5
12C
  8
TEAM-NET
 10
-681.660441
 20
237.731912
 30
620.0
 70
    64
  0
VERTEX
  5
12D
  8
TEAM-NET
 10
-638.18102
 20
269.438221
 30
620.0
 70
    64
  0
VERTEX
  5
12E
  8
TEAM-NET
 10
-589.939377
 20
293.281332
 30
620.0
 70
    64
  0
VERTEX
  5
12F
  8
TEAM-NET
 10
-538.34338
 20
308.565416
 30
620.0
 70
    64
  0
VERTEX
  5
130
  8
TEAM-NET
 10
-484.898792
 20
314.844428
 30
620.0
 70
    64
  0
VERTEX
  5
131
  8
TEAM-NET
 10
-431.022597
 20
315.0
 30
620.0
 70
    64
  0
VERTEX
  5
132
  8
TEAM-NET
 10
-377.144772
 20
315.0
 30
620.0
 70
    64
  0
VERTEX
  5
133
  8
TEAM-NET
 10
-323.266948
 20
315.0
 30
620.0
 70
    64
  0
VERTEX
  5
134
  8
TEAM-NET
 10
-269.389123
 20
315.0
 30
620.0
 70
    64
  0
VERTEX
  5
135
  8
TEAM-NET
 10
-215.511298
 20
315.0
 30
620.0
 70
    64
  0
VERTEX
  5
136
  8
TEAM-NET
 10
-161.633474
 20
315.0
 30
620.0
 70
    64
  0
VERTEX
  5
137
  8
TEAM-NET
 10
-107.755649
 20
315.0
 30
620.0
 70
    64
  0
VERTEX
  5
138
  8
TEAM-NET
 10
-53.877825
 20
315.0
 30
620.0
 70
    64
  0
VERTEX
  5
139
  8
TEAM-NET
 10
0.0
 20
315.0
 30
620.0
 70
    64
  0
VERTEX
  5
13A
  8
TEAM-NET
 10
53.877825
 20
315.0
 30
620.0
 70
    64
  0
VERTEX
  5
13B
  8
TEAM-NET
 10
107.755649
 20
315.0
 30
620.0
 70
    64
  0
VERTEX
  5
13C
  8
TEAM-NET
 10
161.633474
 20
315.0
 30
620.0
 70
    64
  0
VERTEX
  5
13D
  8
TEAM-NET
 10
215.511298
 20
315.0
 30
620.0
 70
    64
  0
VERTEX
  5
13E
  8
TEAM-NET
 10
269.389123
 20
315.0
 30
620.0
 70
    64
  0
VERTEX
  5
13F
  8
TEAM-NET
 10
323.266948
 20
315.0
 30
620.0
 70
    64
  0
VERTEX
  5
140
  8
TEAM-NET
 10
377.144772
 20
315.0
 30
620.0
 70
    64
  0
VERTEX
  5
141
  8
TEAM-NET
 10
431.022597
 20
315.0
 30
620.0
 70
    64
  0
VERTEX
  5
142
  8
TEAM-NET
 10
484.898792
 20
314.844428
 30
620.0
 70
    64
  0
VERTEX
  5
143
  8
TEAM-NET
 10
538.34338
 20
308.565416
 30
620.0
 70
    64
  0
VERTEX
  5
144
  8
TEAM-NET
 10
589.939377
 20
293.281332
 30
620.0
 70
    64
  0
VERTEX
  5
145
  8
TEAM-NET
 10
638.18102
 20
269.438221
 30
620.0
 70
    64
  0
VERTEX
  5
146
  8
TEAM-NET
 10
681.660441
 20
237.731912
 30
620.0
 70
    64
  0
VERTEX
  5
147
  8
TEAM-NET
 10
719.108751
 20
199.087713
 30
620.0
 70
    64
  0
VERTEX
  5
148
  8
TEAM-NET
 10
749.433071
 20
154.633403
 30
620.0
 70
    64
  0
VERTEX
  5
149
  8
TEAM-NET
 10
771.748426
 20
105.666322
 30
620.0
 70
    64
  0
VERTEX
  5
14A
  8
TEAM-NET
 10
785.403571
 20
53.61551
 30
620.0
 70
    64
  0
VERTEX
  5
14B
  8
TEAM-NET
 10
790.0
 20
0.0
 30
620.0
 70
    64
  0
VERTEX
  5
14C
  8
TEAM-NET
 10
-850.0
 20
0.0
 30
620.0
 70
    64
  0
VERTEX
  5
14D
  8
TEAM-NET
 10
-850.0
 20
67.340216
 30
620.0
 70
    64
  0
VERTEX
  5
14E
  8
TEAM-NET
 10
-850.0
 20
134.680432
 30
620.0
 70
    64
  0
VERTEX
  5
14F
  8
TEAM-NET
 10
-850.0
 20
202.020648
 30
620.0
 70
    64
  0
VERTEX
  5
150
  8
TEAM-NET
 10
-850.0
 20
269.360864
 30
620.0
 70
    64
  0
VERTEX
  5
151
  8
TEAM-NET
 10
-850.0
 20
336.701081
 30
620.0
 70
    64
  0
VERTEX
  5
152
  8
TEAM-NET
 10
-808.082593
 20
375.0
 30
620.0
 70
    64
  0
VERTEX
  5
153
  8
TEAM-NET
 10
-740.742377
 20
375.0
 30
620.0
 70
    64
  0
VERTEX
  5
154
  8
TEAM-NET
 10
-673.402161
 20
375.0
 30
620.0
 70
    64
  0
VERTEX
  5
155
  8
TEAM-NET
 10
-606.061945
 20
375.0
 30
620.0
 70
    64
  0
VERTEX
  5
156
  8
TEAM-NET
 10
-538.721729
 20
375.0
 30
620.0
 70
    64
  0
VERTEX
  5
157
  8
TEAM-NET
 10
-471.381513
 20
375.0
 30
620.0
 70
    64
  0
VERTEX
  5
158
  8
TEAM-NET
 10
-404.041297
 20
375.0
 30
620.0
 70
    64
  0
VERTEX
  5
159
  8
TEAM-NET
 10
-336.701081
 20
375.0
 30
620.0
 70
    64
  0
VERTEX
  5
15A
  8
TEAM-NET
 10
-269.360864
 20
375.0
 30
620.0
 70
    64
  0
VERTEX
  5
15B
  8
TEAM-NET
 10
-202.020648
 20
375.0
 30
620.0
 70
    64
  0
VERTEX
  5
15C
  8
TEAM-NET
 10
-134.680432
 20
375.0
 30
620.0
 70
    64
  0
VERTEX
  5
15D
  8
TEAM-NET
 10
-67.340216
 20
375.0
 30
620.0
 70
    64
  0
VERTEX
  5
15E
  8
TEAM-NET
 10
0.0
 20
375.0
 30
620.0
 70
    64
  0
VERTEX
  5
15F
  8
TEAM-NET
 10
67.340216
 20
375.0
 30
620.0
 70
    64
  0
VERTEX
  5
160
  8
TEAM-NET
 10
134.680432
 20
375.0
 30
620.0
 70
    64
  0
VERTEX
  5
161
  8
TEAM-NET
 10
202.020648
 20
375.0
 30
620.0
 70
    64
  0
VERTEX
  5
162
  8
TEAM-NET
 10
269.360864
 20
375.0
 30
620.0
 70
    64
  0
VERTEX
  5
163
  8
TEAM-NET
 10
336.701081
 20
375.0
 30
620.0
 70
    64
  0
VERTEX
  5
164
  8
TEAM-NET
 10
404.041297
 20
375.0
 30
620.0
 70
    64
  0
VERTEX
  5
165
  8
TEAM-NET
 10
471.381513
 20
375.0
 30
620.0
 70
    64
  0
VERTEX
  5
166
  8
TEAM-NET
 10
538.721729
 20
375.0
 30
620.0
 70
    64
  0
VERTEX
  5
167
  8
TEAM-NET
 10
606.061945
 20
375.0
 30
620.0
 70
    64
  0
VERTEX
  5
168
  8
TEAM-NET
 10
673.402161
 20
375.0
 30
620.0
 70
    64
  0
VERTEX
  5
169
  8
TEAM-NET
 10
740.742377
 20
375.0
 30
620.0
 70
    64
  0
VERTEX
  5
16A
  8
TEAM-NET
 10
808.082593
 20
375.0
 30
620.0
 70
    64
  0
VERTEX
  5
16B
  8
TEAM-NET
 10
850.0
 20
336.701081
 30
620.0
 70
    64
  0
VERTEX
  5
16C
  8
TEAM-NET
 10
850.0
 20
269.360864
 30
620.0
 70
    64
  0
VERTEX
  5
16D
  8
TEAM-NET
 10
850.0
 20
202.020648
 30
620.0
 70
    64
  0
VERTEX
  5
16E
  8
TEAM-NET
 10
850.0
 20
134.680432
 30
620.0
 70
    64
  0
VERTEX
  5
16F
  8
TEAM-NET
 10
850.0
 20
67.340216
 30
620.0
 70
    64
  0
VERTEX
  5
170
  8
TEAM-NET
 10
850.0
 20
0.0
 30
620.0
 70
    64
  0
SEQEND
  5
171
  8
TEAM-NET
  0
POLYLINE
  5
172
  8
TEAM-BODY
 66
     1
 10
0.0
 20
0.0
 30
620.0
  0
VERTEX
  5
338
  8
TEAM-BODY
 10
-790.0
 20
0.0
 30
620.0
 42
-0.414214
  0
VERTEX
  5
339
  8
TEAM-BODY
 10
-475.0
 20
315.0
 30
620.0
  0
VERTEX
  5
33A
  8
TEAM-BODY
 10
475.0
 20
315.0
 30
620.0
 42
-0.414214
  0
VERTEX
  5
33B
  8
TEAM-BODY
 10
790.0
 20
0.0
 30
620.0
  0
SEQEND
  5
33C
  8
TEAM-BODY
  0
POLYLINE
  5
173
  8
TEAM-NET
 66
     1
 10
0.0
 20
0.0
 30
0.0
 70
    16
 71
     2
 72
    37
  0
VERTEX
  5
174
  8
TEAM-NET
 10
-790.0
 20
0.0
 30
620.0
 70
    64
  0
VERTEX
  5
175
  8
TEAM-NET
 10
-785.403571
 20
-53.61551
 30
620.0
 70
    64
  0
VERTEX
  5
176
  8
TEAM-NET
 10
-771.748426
 20
-105.666322
 30
620.0
 70
    64
  0
VERTEX
  5
177
  8
TEAM-NET
 10
-749.433071
 20
-154.633403
 30
620.0
 70
    64
  0
VERTEX
  5
178
  8
TEAM-NET
 10
-719.108751
 20
-199.087713
 30
620.0
 70
    64
  0
VERTEX
  5
179
  8
TEAM-NET
 10
-681.660441
 20
-237.731912
 30
620.0
 70
    64
  0
VERTEX
  5
17A
  8
TEAM-NET
 10
-638.18102
 20
-269.438221
 30
620.0
 70
    64
  0
VERTEX
  5
17B
  8
TEAM-NET
 10
-589.939377
 20
-293.281332
 30
620.0
 70
    64
  0
VERTEX
  5
17C
  8
TEAM-NET
 10
-538.34338
 20
-308.565416
 30
620.0
 70
    64
  0
VERTEX
  5
17D
  8
TEAM-NET
 10
-484.898792
 20
-314.844428
 30
620.0
 70
    64
  0
VERTEX
  5
17E
  8
TEAM-NET
 10
-431.022597
 20
-315.0
 30
620.0
 70
    64
  0
VERTEX
  5
17F
  8
TEAM-NET
 10
-377.144772
 20
-315.0
 30
620.0
 70
    64
  0
VERTEX
  5
180
  8
TEAM-NET
 10
-323.266948
 20
-315.0
 30
620.0
 70
    64
  0
VERTEX
  5
181
  8
TEAM-NET
 10
-269.389123
 20
-315.0
 30
620.0
 70
    64
  0
VERTEX
  5
182
  8
TEAM-NET
 10
-215.511298
 20
-315.0
 30
620.0
 70
    64
  0
VERTEX
  5
183
  8
TEAM-NET
 10
-161.633474
 20
-315.0
 30
620.0
 70
    64
  0
VERTEX
  5
184
  8
TEAM-NET
 10
-107.755649
 20
-315.0
 30
620.0
 70
    64
  0
VERTEX
  5
185
  8
TEAM-NET
 10
-53.877825
 20
-315.0
 30
620.0
 70
    64
  0
VERTEX
  5
186
  8
TEAM-NET
 10
0.0
 20
-315.0
 30
620.0
 70
    64
  0
VERTEX
  5
187
  8
TEAM-NET
 10
53.877825
 20
-315.0
 30
620.0
 70
    64
  0
VERTEX
  5
188
  8
TEAM-NET
 10
107.755649
 20
-315.0
 30
620.0
 70
    64
  0
VERTEX
  5
189
  8
TEAM-NET
 10
161.633474
 20
-315.0
 30
620.0
 70
    64
  0
VERTEX
  5
18A
  8
TEAM-NET
 10
215.511298
 20
-315.0
 30
620.0
 70
    64
  0
VERTEX
  5
18B
  8
TEAM-NET
 10
269.389123
 20
-315.0
 30
620.0
 70
    64
  0
VERTEX
  5
18C
  8
TEAM-NET
 10
323.266948
 20
-315.0
 30
620.0
 70
    64
  0
VERTEX
  5
18D
  8
TEAM-NET
 10
377.144772
 20
-315.0
 30
620.0
 70
    64
  0
VERTEX
  5
18E
  8
TEAM-NET
 10
431.022597
 20
-315.0
 30
620.0
 70
    64
  0
VERTEX
  5
18F
  8
TEAM-NET
 10
484.898792
 20
-314.844428
 30
620.0
 70
    64
  0
VERTEX
  5
190
  8
TEAM-NET
 10
538.34338
 20
-308.565416
 30
620.0
 70
    64
  0
VERTEX
  5
191
  8
TEAM-NET
 10
589.939377
 20
-293.281332
 30
620.0
 70
    64
  0
VERTEX
  5
192
  8
TEAM-NET
 10
638.18102
 20
-269.438221
 30
620.0
 70
    64
  0
VERTEX
  5
193
  8
TEAM-NET
 10
681.660441
 20
-237.731912
 30
620.0
 70
    64
  0
VERTEX
  5
194
  8
TEAM-NET
 10
719.108751
 20
-199.087713
 30
620.0
 70
    64
  0
VERTEX
  5
195
  8
TEAM-NET
 10
749.433071
 20
-154.633403
 30
620.0
 70
    64
  0
VERTEX
  5
196
  8
TEAM-NET
 10
771.748426
 20
-105.666322
 30
620.0
 70
    64
  0
VERTEX
  5
197
  8
TEAM-NET
 10
785.403571
 20
-53.61551
 30
620.0
 70
    64
  0
VERTEX
  5
198
  8
TEAM-NET
 10
790.0
 20
0.0
 30
620.0
 70
    64
  0
VERTEX
  5
199
  8
TEAM-NET
 10
-850.0
 20
0.0
 30
620.0
 70
    64
  0
VERTEX
  5
19A
  8
TEAM-NET
 10
-845.350383
 20
-58.869293
 30
620.0
 70
    64
  0
VERTEX
  5
19B
  8
TEAM-NET
 10
-831.516834
 20
-116.278748
 30
620.0
 70
    64
  0
VERTEX
  5
19C
  8
TEAM-NET
 10
-808.842396
 20
-170.804727
 30
620.0
 70
    64
  0
VERTEX
  5
19D
  8
TEAM-NET
 10
-777.889349
 20
-221.095098
 30
620.0
 70
    64
  0
VERTEX
  5
19E
  8
TEAM-NET
 10
-739.425265
 20
-265.902763
 30
620.0
 70
    64
  0
VERTEX
  5
19F
  8
TEAM-NET
 10
-694.403975
 20
-304.116583
 30
620.0
 70
    64
  0
VERTEX
  5
1A0
  8
TEAM-NET
 10
-643.941914
 20
-334.788933
 30
620.0
 70
    64
  0
VERTEX
  5
1A1
  8
TEAM-NET
 10
-589.29044
 20
-357.159202
 30
620.0
 70
    64
  0
VERTEX
  5
1A2
  8
TEAM-NET
 10
-531.804796
 20
-370.672652
 30
620.0
 70
    64
  0
VERTEX
  5
1A3
  8
TEAM-NET
 10
-472.910499
 20
-375.0
 30
620.0
 70
    64
  0
VERTEX
  5
1A4
  8
TEAM-NET
 10
-413.796687
 20
-375.0
 30
620.0
 70
    64
  0
VERTEX
  5
1A5
  8
TEAM-NET
 10
-354.682874
 20
-375.0
 30
620.0
 70
    64
  0
VERTEX
  5
1A6
  8
TEAM-NET
 10
-295.569062
 20
-375.0
 30
620.0
 70
    64
  0
VERTEX
  5
1A7
  8
TEAM-NET
 10
-236.455249
 20
-375.0
 30
620.0
 70
    64
  0
VERTEX
  5
1A8
  8
TEAM-NET
 10
-177.341437
 20
-375.0
 30
620.0
 70
    64
  0
VERTEX
  5
1A9
  8
TEAM-NET
 10
-118.227625
 20
-375.0
 30
620.0
 70
    64
  0
VERTEX
  5
1AA
  8
TEAM-NET
 10
-59.113812
 20
-375.0
 30
620.0
 70
    64
  0
VERTEX
  5
1AB
  8
TEAM-NET
 10
0.0
 20
-375.0
 30
620.0
 70
    64
  0
VERTEX
  5
1AC
  8
TEAM-NET
 10
59.113812
 20
-375.0
 30
620.0
 70
    64
  0
VERTEX
  5
1AD
  8
TEAM-NET
 10
118.227625
 20
-375.0
 30
620.0
 70
    64
  0
VERTEX
  5
1AE
  8
TEAM-NET
 10
177.341437
 20
-375.0
 30
620.0
 70
    64
  0
VERTEX
  5
1AF
  8
TEAM-NET
 10
236.455249
 20
-375.0
 30
620.0
 70
    64
  0
VERTEX
  5
1B0
  8
TEAM-NET
 10
295.569062
 20
-375.0
 30
620.0
 70
    64
  0
VERTEX
  5
1B1
  8
TEAM-NET
 10
354.682874
 20
-375.0
 30
620.0
 70
    64
  0
VERTEX
  5
1B2
  8
TEAM-NET
 10
413.796687
 20
-375.0
 30
620.0
 70
    64
  0
VERTEX
  5
1B3
  8
TEAM-NET
 10
472.910499
 20
-375.0
 30
620.0
 70
    64
  0
VERTEX
  5
1B4
  8
TEAM-NET
 10
531.804796
 20
-370.672652
 30
620.0
 70
    64
  0
VERTEX
  5
1B5
  8
TEAM-NET
 10
589.29044
 20
-357.159202
 30
620.0
 70
    64
  0
VERTEX
  5
1B6
  8
TEAM-NET
 10
643.941914
 20
-334.788933
 30
620.0
 70
    64
  0
VERTEX
  5
1B7
  8
TEAM-NET
 10
694.403975
 20
-304.116583
 30
620.0
 70
    64
  0
VERTEX
  5
1B8
  8
TEAM-NET
 10
739.425265
 20
-265.902763
 30
620.0
 70
    64
  0
VERTEX
  5
1B9
  8
TEAM-NET
 10
777.889349
 20
-221.095098
 30
620.0
 70
    64
  0
VERTEX
  5
1BA
  8
TEAM-NET
 10
808.842396
 20
-170.804727
 30
620.0
 70
    64
  0
VERTEX
  5
1BB
  8
TEAM-NET
 10
831.516834
 20
-116.278748
 30
620.0
 70
    64
  0
VERTEX
  5
1BC
  8
TEAM-NET
 10
845.350383
 20
-58.869293
 30
620.0
 70
    64
  0
VERTEX
  5
1BD
  8
TEAM-NET
 10
850.0
 20
0.0
 30
620.0
 70
    64
  0
SEQEND
  5
1BE
  8
TEAM-NET
  0
TEXT
  5
1BF
  8
TEAM-TXT
 10
-824.660117
 20
321.244156
 30
620.0
 40
30.0
  1
team 111505
 41
0.7
 51
15.0
  7
TEAM
  0
ENDSEC
  0
EOF
