  0
SECTION
  2
HEADER
  9
$ACADVER
  1
AC1009
  9
$INSBASE
 10
0.0
 20
0.0
 30
0.0
  9
$EXTMIN
 10
-968.70544
 20
-500.813606
 30
-0.010822
  9
$EXTMAX
 10
968.109429
 20
500.848099
 30
600.018921
  9
$LIMMIN
 10
-968.70544
 20
-500.813606
  9
$LIMMAX
 10
968.109429
 20
500.848099
  9
$ORTHOMODE
 70
     1
  9
$REGENMODE
 70
     1
  9
$FILLMODE
 70
     1
  9
$QTEXTMODE
 70
     0
  9
$MIRRTEXT
 70
     0
  9
$DRAGMODE
 70
     2
  9
$LTSCALE
 40
50.0
  9
$OSMODE
 70
     7
  9
$ATTMODE
 70
     1
  9
$TEXTSIZE
 40
200.0
  9
$TRACEWID
 40
1.0
  9
$TEXTSTYLE
  7
STANDARD
  9
$CLAYER
  8
TEAM-MAS
  9
$CELTYPE
  6
BYLAYER
  9
$CECOLOR
 62
   256
  9
$DIMSCALE
 40
0.0
  9
$DIMASZ
 40
20.0
  9
$DIMEXO
 40
10.0
  9
$DIMDLI
 40
1.0
  9
$DIMRND
 40
0.0
  9
$DIMDLE
 40
0.0
  9
$DIMEXE
 40
1.0
  9
$DIMTP
 40
0.0
  9
$DIMTM
 40
0.0
  9
$DIMTXT
 40
35.0
  9
$DIMCEN
 40
1.0
  9
$DIMTSZ
 40
0.0
  9
$DIMTOL
 70
     0
  9
$DIMLIM
 70
     0
  9
$DIMTIH
 70
     0
  9
$DIMTOH
 70
     0
  9
$DIMSE1
 70
     0
  9
$DIMSE2
 70
     0
  9
$DIMTAD
 70
     0
  9
$DIMZIN
 70
     0
  9
$DIMBLK
  1

  9
$DIMASO
 70
     1
  9
$DIMSHO
 70
     0
  9
$DIMPOST
  1

  9
$DIMAPOST
  1

  9
$DIMALT
 70
     0
  9
$DIMALTD
 70
     2
  9
$DIMALTF
 40
25.4
  9
$DIMLFAC
 40
1.0
  9
$DIMTOFL
 70
     0
  9
$DIMTVP
 40
0.0
  9
$DIMTIX
 70
     0
  9
$DIMSOXD
 70
     0
  9
$DIMSAH
 70
     0
  9
$DIMBLK1
  1

  9
$DIMBLK2
  1

  9
$DIMSTYLE
  2
TEAM
  9
$DIMCLRD
 70
     9
  9
$DIMCLRE
 70
     9
  9
$DIMCLRT
 70
    11
  9
$DIMTFAC
 40
1.0
  9
$DIMGAP
 40
7.0
  9
$LUNITS
 70
     2
  9
$LUPREC
 70
     1
  9
$SKETCHINC
 40
1.0
  9
$FILLETRAD
 40
10.0
  9
$AUNITS
 70
     0
  9
$AUPREC
 70
     0
  9
$MENU
  1
ROPLANS
  9
$ELEVATION
 40
0.0
  9
$PELEVATION
 40
0.0
  9
$THICKNESS
 40
0.0
  9
$LIMCHECK
 70
     0
  9
$BLIPMODE
 70
     1
  9
$CHAMFERA
 40
0.0
  9
$CHAMFERB
 40
0.0
  9
$SKPOLY
 70
     0
  9
$TDCREATE
 40
2450392.957851
  9
$TDUPDATE
 40
2455955.923321
  9
$TDINDWG
 40
2.217917
  9
$TDUSRTIMER
 40
2.217917
  9
$USRTIMER
 70
     1
  9
$ANGBASE
 50
0.0
  9
$ANGDIR
 70
     0
  9
$PDMODE
 70
     0
  9
$PDSIZE
 40
0.0
  9
$PLINEWID
 40
0.0
  9
$COORDS
 70
     2
  9
$SPLFRAME
 70
     0
  9
$SPLINETYPE
 70
     6
  9
$SPLINESEGS
 70
     8
  9
$ATTDIA
 70
     0
  9
$ATTREQ
 70
     0
  9
$HANDLING
 70
     1
  9
$HANDSEED
  5
935
  9
$SURFTAB1
 70
    24
  9
$SURFTAB2
 70
    24
  9
$SURFTYPE
 70
     6
  9
$SURFU
 70
     6
  9
$SURFV
 70
     6
  9
$UCSNAME
  2

  9
$UCSORG
 10
0.0
 20
0.0
 30
0.0
  9
$UCSXDIR
 10
1.0
 20
0.0
 30
0.0
  9
$UCSYDIR
 10
0.0
 20
1.0
 30
0.0
  9
$PUCSNAME
  2

  9
$PUCSORG
 10
0.0
 20
0.0
 30
0.0
  9
$PUCSXDIR
 10
1.0
 20
0.0
 30
0.0
  9
$PUCSYDIR
 10
0.0
 20
1.0
 30
0.0
  9
$USERI1
 70
     0
  9
$USERI2
 70
     0
  9
$USERI3
 70
     0
  9
$USERI4
 70
     0
  9
$USERI5
 70
     0
  9
$USERR1
 40
0.0
  9
$USERR2
 40
0.0
  9
$USERR3
 40
0.0
  9
$USERR4
 40
0.0
  9
$USERR5
 40
0.0
  9
$WORLDVIEW
 70
     1
  9
$SHADEDGE
 70
     0
  9
$SHADEDIF
 70
    70
  9
$TILEMODE
 70
     1
  9
$MAXACTVP
 70
    16
  9
$PLIMCHECK
 70
     0
  9
$PEXTMIN
 10
-0.805942
 20
0.005011
 30
0.0
  9
$PEXTMAX
 10
20.250094
 20
11.356329
 30
0.0
  9
$PLIMMIN
 10
0.0
 20
0.0
  9
$PLIMMAX
 10
12.0
 20
9.0
  9
$UNITMODE
 70
     0
  9
$VISRETAIN
 70
     0
  9
$PLINEGEN
 70
     0
  9
$PSLTSCALE
 70
     0
  0
ENDSEC
  0
SECTION
  2
TABLES
  0
TABLE
  2
VPORT
 70
     2
  0
VPORT
  2
*ACTIVE
 70
     0
 10
0.0
 20
0.0
 11
1.0
 21
1.0
 12
-0.298005
 22
0.017247
 13
0.0
 23
0.0
 14
1.0
 24
1.0
 15
50.0
 25
50.0
 16
0.0
 26
0.0
 36
1.0
 17
0.0
 27
0.0
 37
0.0
 40
1020.710327
 41
1.903766
 42
50.0
 43
0.0
 44
0.0
 50
0.0
 51
0.0
 71
     0
 72
   100
 73
     1
 74
     1
 75
     0
 76
     0
 77
     0
 78
     0
  0
ENDTAB
  0
TABLE
  2
LTYPE
 70
     1
  0
LTYPE
  2
CONTINUOUS
 70
     0
  3
Solid Line
 72
    65
 73
     0
 40
0.0
  0
ENDTAB
  0
TABLE
  2
LAYER
 70
     8
  0
LAYER
  2
0
 70
     0
 62
     7
  6
CONTINUOUS
  0
LAYER
  2
TEAM-BODY
 70
     0
 62
     2
  6
CONTINUOUS
  0
LAYER
  2
TEAM-MAS
 70
     0
 62
     9
  6
CONTINUOUS
  0
LAYER
  2
TEAM-TXT
 70
     0
 62
    11
  6
CONTINUOUS
  0
LAYER
  2
TEAM-DET1
 70
     0
 62
     4
  6
CONTINUOUS
  0
LAYER
  2
TEAM-KAN
 70
     0
 62
     6
  6
CONTINUOUS
  0
LAYER
  2
TEAM-NET
 70
     0
 62
    15
  6
CONTINUOUS
  0
LAYER
  2
TEAM-INSP
 70
     0
 62
     5
  6
CONTINUOUS
  0
ENDTAB
  0
TABLE
  2
STYLE
 70
     2
  0
STYLE
  2
STANDARD
 70
     0
 40
0.0
 41
1.0
 50
0.0
 71
     0
 42
200.0
  3
txt
  4

  0
STYLE
  2
TEAM
 70
     0
 40
0.0
 41
0.8
 50
15.0
 71
     0
 42
7.0
  3
ROMANS.shx
  4

  0
ENDTAB
  0
TABLE
  2
VIEW
 70
     0
  0
ENDTAB
  0
TABLE
  2
UCS
 70
     0
  0
ENDTAB
  0
TABLE
  2
APPID
 70
     1
  0
APPID
  2
ACAD
 70
     0
  0
ENDTAB
  0
TABLE
  2
DIMSTYLE
 70
     1
  0
DIMSTYLE
  2
TEAM
 70
     0
  3

  4

  5

  6

  7

 40
0.0
 41
20.0
 42
10.0
 43
1.0
 44
1.0
 45
0.0
 46
0.0
 47
0.0
 48
0.0
140
35.0
141
1.0
142
0.0
143
25.4
144
1.0
145
0.0
146
1.0
147
7.0
 71
     0
 72
     0
 73
     0
 74
     0
 75
     0
 76
     0
 77
     0
 78
     0
170
     0
171
     2
172
     0
173
     0
174
     0
175
     0
176
     9
177
     9
178
    11
  0
ENDTAB
  0
ENDSEC
  0
SECTION
  2
BLOCKS
  0
BLOCK
  8
0
  2
$MODEL_SPACE
 70
     0
 10
0.0
 20
0.0
 30
0.0
  3
$MODEL_SPACE
  1

  0
ENDBLK
  5
846
  8
0
  0
BLOCK
 67
     1
  8
0
  2
$PAPER_SPACE
 70
     0
 10
0.0
 20
0.0
 30
0.0
  3
$PAPER_SPACE
  1

  0
ENDBLK
  5
844
 67
     1
  8
0
  0
ENDSEC
  0
SECTION
  2
ENTITIES
  0
POLYLINE
  5
20
  8
TEAM-NET
 66
     1
 10
0.0
 20
0.0
 30
0.0
 70
    16
 71
     2
 72
    37
  0
VERTEX
  5
21
  8
TEAM-NET
 10
600.05
 20
0.0
 30
150.0
 70
    64
  0
VERTEX
  5
22
  8
TEAM-NET
 10
594.720155
 20
39.898015
 30
150.0
 70
    64
  0
VERTEX
  5
23
  8
TEAM-NET
 10
579.785858
 20
77.308367
 30
150.0
 70
    64
  0
VERTEX
  5
24
  8
TEAM-NET
 10
557.5314
 20
110.921693
 30
150.0
 70
    64
  0
VERTEX
  5
25
  8
TEAM-NET
 10
530.145367
 20
140.533717
 30
150.0
 70
    64
  0
VERTEX
  5
26
  8
TEAM-NET
 10
499.22402
 20
166.452169
 30
150.0
 70
    64
  0
VERTEX
  5
27
  8
TEAM-NET
 10
465.830111
 20
189.109022
 30
150.0
 70
    64
  0
VERTEX
  5
28
  8
TEAM-NET
 10
430.662394
 20
208.909649
 30
150.0
 70
    64
  0
VERTEX
  5
29
  8
TEAM-NET
 10
394.189032
 20
226.193735
 30
150.0
 70
    64
  0
VERTEX
  5
2A
  8
TEAM-NET
 10
356.733135
 20
241.234917
 30
150.0
 70
    64
  0
VERTEX
  5
2B
  8
TEAM-NET
 10
318.52501
 20
254.250697
 30
150.0
 70
    64
  0
VERTEX
  5
2C
  8
TEAM-NET
 10
279.734158
 20
265.413249
 30
150.0
 70
    64
  0
VERTEX
  5
2D
  8
TEAM-NET
 10
240.489265
 20
274.858582
 30
150.0
 70
    64
  0
VERTEX
  5
2E
  8
TEAM-NET
 10
200.891061
 20
282.693681
 30
150.0
 70
    64
  0
VERTEX
  5
2F
  8
TEAM-NET
 10
161.020836
 20
289.001899
 30
150.0
 70
    64
  0
VERTEX
  5
30
  8
TEAM-NET
 10
120.946286
 20
293.846936
 30
150.0
 70
    64
  0
VERTEX
  5
31
  8
TEAM-NET
 10
80.725669
 20
297.275729
 30
150.0
 70
    64
  0
VERTEX
  5
32
  8
TEAM-NET
 10
40.410905
 20
299.320479
 30
150.0
 70
    64
  0
VERTEX
  5
33
  8
TEAM-NET
 10
0.05
 20
300.0
 30
150.0
 70
    64
  0
VERTEX
  5
34
  8
TEAM-NET
 10
-40.310905
 20
299.320479
 30
150.0
 70
    64
  0
VERTEX
  5
35
  8
TEAM-NET
 10
-80.625669
 20
297.275729
 30
150.0
 70
    64
  0
VERTEX
  5
36
  8
TEAM-NET
 10
-120.846286
 20
293.846936
 30
150.0
 70
    64
  0
VERTEX
  5
37
  8
TEAM-NET
 10
-160.920836
 20
289.001899
 30
150.0
 70
    64
  0
VERTEX
  5
38
  8
TEAM-NET
 10
-200.791061
 20
282.693681
 30
150.0
 70
    64
  0
VERTEX
  5
39
  8
TEAM-NET
 10
-240.389265
 20
274.858582
 30
150.0
 70
    64
  0
VERTEX
  5
3A
  8
TEAM-NET
 10
-279.634158
 20
265.413249
 30
150.0
 70
    64
  0
VERTEX
  5
3B
  8
TEAM-NET
 10
-318.42501
 20
254.250697
 30
150.0
 70
    64
  0
VERTEX
  5
3C
  8
TEAM-NET
 10
-356.633135
 20
241.234917
 30
150.0
 70
    64
  0
VERTEX
  5
3D
  8
TEAM-NET
 10
-394.089032
 20
226.193735
 30
150.0
 70
    64
  0
VERTEX
  5
3E
  8
TEAM-NET
 10
-430.562394
 20
208.909649
 30
150.0
 70
    64
  0
VERTEX
  5
3F
  8
TEAM-NET
 10
-465.730111
 20
189.109022
 30
150.0
 70
    64
  0
VERTEX
  5
40
  8
TEAM-NET
 10
-499.12402
 20
166.452169
 30
150.0
 70
    64
  0
VERTEX
  5
41
  8
TEAM-NET
 10
-530.045367
 20
140.533717
 30
150.0
 70
    64
  0
VERTEX
  5
42
  8
TEAM-NET
 10
-557.4314
 20
110.921693
 30
150.0
 70
    64
  0
VERTEX
  5
43
  8
TEAM-NET
 10
-579.685858
 20
77.308367
 30
150.0
 70
    64
  0
VERTEX
  5
44
  8
TEAM-NET
 10
-594.620155
 20
39.898015
 30
150.0
 70
    64
  0
VERTEX
  5
45
  8
TEAM-NET
 10
-599.95
 20
0.0
 30
150.0
 70
    64
  0
VERTEX
  5
46
  8
TEAM-NET
 10
870.1
 20
0.0
 30
500.0
 70
    64
  0
VERTEX
  5
47
  8
TEAM-NET
 10
862.594214
 20
58.889912
 30
500.0
 70
    64
  0
VERTEX
  5
48
  8
TEAM-NET
 10
845.209266
 20
115.653651
 30
500.0
 70
    64
  0
VERTEX
  5
49
  8
TEAM-NET
 10
818.448885
 20
168.646485
 30
500.0
 70
    64
  0
VERTEX
  5
4A
  8
TEAM-NET
 10
783.088455
 20
216.332946
 30
500.0
 70
    64
  0
VERTEX
  5
4B
  8
TEAM-NET
 10
740.152545
 20
257.331314
 30
500.0
 70
    64
  0
VERTEX
  5
4C
  8
TEAM-NET
 10
690.557906
 20
289.834336
 30
500.0
 70
    64
  0
VERTEX
  5
4D
  8
TEAM-NET
 10
636.501418
 20
314.540315
 30
500.0
 70
    64
  0
VERTEX
  5
4E
  8
TEAM-NET
 10
581.558588
 20
337.206913
 30
500.0
 70
    64
  0
VERTEX
  5
4F
  8
TEAM-NET
 10
525.806322
 20
357.802401
 30
500.0
 70
    64
  0
VERTEX
  5
50
  8
TEAM-NET
 10
469.322661
 20
376.297949
 30
500.0
 70
    64
  0
VERTEX
  5
51
  8
TEAM-NET
 10
412.186669
 20
392.66767
 30
500.0
 70
    64
  0
VERTEX
  5
52
  8
TEAM-NET
 10
354.478324
 20
406.888648
 30
500.0
 70
    64
  0
VERTEX
  5
53
  8
TEAM-NET
 10
296.278405
 20
418.940977
 30
500.0
 70
    64
  0
VERTEX
  5
54
  8
TEAM-NET
 10
237.668377
 20
428.807788
 30
500.0
 70
    64
  0
VERTEX
  5
55
  8
TEAM-NET
 10
178.730282
 20
436.475268
 30
500.0
 70
    64
  0
VERTEX
  5
56
  8
TEAM-NET
 10
119.54662
 20
441.932686
 30
500.0
 70
    64
  0
VERTEX
  5
57
  8
TEAM-NET
 10
60.200234
 20
445.172401
 30
500.0
 70
    64
  0
VERTEX
  5
58
  8
TEAM-NET
 10
0.774196
 20
446.189879
 30
500.0
 70
    64
  0
VERTEX
  5
59
  8
TEAM-NET
 10
-58.648312
 20
444.983696
 30
500.0
 70
    64
  0
VERTEX
  5
5A
  8
TEAM-NET
 10
-117.98411
 20
441.55554
 30
500.0
 70
    64
  0
VERTEX
  5
5B
  8
TEAM-NET
 10
-177.150144
 20
435.91021
 30
500.0
 70
    64
  0
VERTEX
  5
5C
  8
TEAM-NET
 10
-236.063593
 20
428.055608
 30
500.0
 70
    64
  0
VERTEX
  5
5D
  8
TEAM-NET
 10
-294.641993
 20
418.002728
 30
500.0
 70
    64
  0
VERTEX
  5
5E
  8
TEAM-NET
 10
-352.803346
 20
405.765643
 30
500.0
 70
    64
  0
VERTEX
  5
5F
  8
TEAM-NET
 10
-410.466241
 20
391.361481
 30
500.0
 70
    64
  0
VERTEX
  5
60
  8
TEAM-NET
 10
-467.549961
 20
374.810405
 30
500.0
 70
    64
  0
VERTEX
  5
61
  8
TEAM-NET
 10
-523.974604
 20
356.135583
 30
500.0
 70
    64
  0
VERTEX
  5
62
  8
TEAM-NET
 10
-579.661187
 20
335.363156
 30
500.0
 70
    64
  0
VERTEX
  5
63
  8
TEAM-NET
 10
-634.531762
 20
312.522199
 30
500.0
 70
    64
  0
VERTEX
  5
64
  8
TEAM-NET
 10
-688.509522
 20
287.644685
 30
500.0
 70
    64
  0
VERTEX
  5
65
  8
TEAM-NET
 10
-738.635514
 20
255.857828
 30
500.0
 70
    64
  0
VERTEX
  5
66
  8
TEAM-NET
 10
-782.355176
 20
215.704353
 30
500.0
 70
    64
  0
VERTEX
  5
67
  8
TEAM-NET
 10
-818.332066
 20
168.488107
 30
500.0
 70
    64
  0
VERTEX
  5
68
  8
TEAM-NET
 10
-845.444792
 20
115.680812
 30
500.0
 70
    64
  0
VERTEX
  5
69
  8
TEAM-NET
 10
-862.848258
 20
58.928457
 30
500.0
 70
    64
  0
VERTEX
  5
6A
  8
TEAM-NET
 10
-870.0
 20
0.0
 30
500.0
 70
    64
  0
SEQEND
  5
6C
  8
TEAM-NET
  0
POLYLINE
  5
6D
  8
TEAM-NET
 66
     1
 10
0.0
 20
0.0
 30
0.0
 70
    16
 71
     2
 72
    37
  0
VERTEX
  5
6E
  8
TEAM-NET
 10
-599.95
 20
0.0
 30
150.0
 70
    64
  0
VERTEX
  5
6F
  8
TEAM-NET
 10
-594.620155
 20
-39.898015
 30
150.0
 70
    64
  0
VERTEX
  5
70
  8
TEAM-NET
 10
-579.685858
 20
-77.308367
 30
150.0
 70
    64
  0
VERTEX
  5
71
  8
TEAM-NET
 10
-557.4314
 20
-110.921693
 30
150.0
 70
    64
  0
VERTEX
  5
72
  8
TEAM-NET
 10
-530.045367
 20
-140.533717
 30
150.0
 70
    64
  0
VERTEX
  5
73
  8
TEAM-NET
 10
-499.12402
 20
-166.452169
 30
150.0
 70
    64
  0
VERTEX
  5
74
  8
TEAM-NET
 10
-465.730111
 20
-189.109022
 30
150.0
 70
    64
  0
VERTEX
  5
75
  8
TEAM-NET
 10
-430.562394
 20
-208.909649
 30
150.0
 70
    64
  0
VERTEX
  5
76
  8
TEAM-NET
 10
-394.089032
 20
-226.193735
 30
150.0
 70
    64
  0
VERTEX
  5
77
  8
TEAM-NET
 10
-356.633135
 20
-241.234917
 30
150.0
 70
    64
  0
VERTEX
  5
78
  8
TEAM-NET
 10
-318.42501
 20
-254.250697
 30
150.0
 70
    64
  0
VERTEX
  5
79
  8
TEAM-NET
 10
-279.634158
 20
-265.413249
 30
150.0
 70
    64
  0
VERTEX
  5
7A
  8
TEAM-NET
 10
-240.389265
 20
-274.858582
 30
150.0
 70
    64
  0
VERTEX
  5
7B
  8
TEAM-NET
 10
-200.791061
 20
-282.693681
 30
150.0
 70
    64
  0
VERTEX
  5
7C
  8
TEAM-NET
 10
-160.920836
 20
-289.001899
 30
150.0
 70
    64
  0
VERTEX
  5
7D
  8
TEAM-NET
 10
-120.846286
 20
-293.846936
 30
150.0
 70
    64
  0
VERTEX
  5
7E
  8
TEAM-NET
 10
-80.625669
 20
-297.275729
 30
150.0
 70
    64
  0
VERTEX
  5
7F
  8
TEAM-NET
 10
-40.310905
 20
-299.320479
 30
150.0
 70
    64
  0
VERTEX
  5
80
  8
TEAM-NET
 10
0.05
 20
-300.0
 30
150.0
 70
    64
  0
VERTEX
  5
81
  8
TEAM-NET
 10
40.410905
 20
-299.320479
 30
150.0
 70
    64
  0
VERTEX
  5
82
  8
TEAM-NET
 10
80.725669
 20
-297.275729
 30
150.0
 70
    64
  0
VERTEX
  5
83
  8
TEAM-NET
 10
120.946286
 20
-293.846936
 30
150.0
 70
    64
  0
VERTEX
  5
84
  8
TEAM-NET
 10
161.020836
 20
-289.001899
 30
150.0
 70
    64
  0
VERTEX
  5
85
  8
TEAM-NET
 10
200.891061
 20
-282.693681
 30
150.0
 70
    64
  0
VERTEX
  5
86
  8
TEAM-NET
 10
240.489265
 20
-274.858582
 30
150.0
 70
    64
  0
VERTEX
  5
87
  8
TEAM-NET
 10
279.734158
 20
-265.413249
 30
150.0
 70
    64
  0
VERTEX
  5
88
  8
TEAM-NET
 10
318.52501
 20
-254.250697
 30
150.0
 70
    64
  0
VERTEX
  5
89
  8
TEAM-NET
 10
356.733135
 20
-241.234917
 30
150.0
 70
    64
  0
VERTEX
  5
8A
  8
TEAM-NET
 10
394.189032
 20
-226.193735
 30
150.0
 70
    64
  0
VERTEX
  5
8B
  8
TEAM-NET
 10
430.662394
 20
-208.909649
 30
150.0
 70
    64
  0
VERTEX
  5
8C
  8
TEAM-NET
 10
465.830111
 20
-189.109022
 30
150.0
 70
    64
  0
VERTEX
  5
8D
  8
TEAM-NET
 10
499.22402
 20
-166.452169
 30
150.0
 70
    64
  0
VERTEX
  5
8E
  8
TEAM-NET
 10
530.145367
 20
-140.533717
 30
150.0
 70
    64
  0
VERTEX
  5
8F
  8
TEAM-NET
 10
557.5314
 20
-110.921693
 30
150.0
 70
    64
  0
VERTEX
  5
90
  8
TEAM-NET
 10
579.785858
 20
-77.308367
 30
150.0
 70
    64
  0
VERTEX
  5
91
  8
TEAM-NET
 10
594.720155
 20
-39.898015
 30
150.0
 70
    64
  0
VERTEX
  5
92
  8
TEAM-NET
 10
600.05
 20
0.0
 30
150.0
 70
    64
  0
VERTEX
  5
93
  8
TEAM-NET
 10
-870.0
 20
0.0
 30
500.0
 70
    64
  0
VERTEX
  5
94
  8
TEAM-NET
 10
-862.848258
 20
-58.928457
 30
500.0
 70
    64
  0
VERTEX
  5
95
  8
TEAM-NET
 10
-845.444792
 20
-115.680812
 30
500.0
 70
    64
  0
VERTEX
  5
96
  8
TEAM-NET
 10
-818.332066
 20
-168.488107
 30
500.0
 70
    64
  0
VERTEX
  5
97
  8
TEAM-NET
 10
-782.355176
 20
-215.704353
 30
500.0
 70
    64
  0
VERTEX
  5
98
  8
TEAM-NET
 10
-738.635514
 20
-255.857828
 30
500.0
 70
    64
  0
VERTEX
  5
99
  8
TEAM-NET
 10
-688.509522
 20
-287.644685
 30
500.0
 70
    64
  0
VERTEX
  5
9A
  8
TEAM-NET
 10
-634.531762
 20
-312.522199
 30
500.0
 70
    64
  0
VERTEX
  5
9B
  8
TEAM-NET
 10
-579.661187
 20
-335.363156
 30
500.0
 70
    64
  0
VERTEX
  5
9C
  8
TEAM-NET
 10
-523.974604
 20
-356.135583
 30
500.0
 70
    64
  0
VERTEX
  5
9D
  8
TEAM-NET
 10
-467.549961
 20
-374.810405
 30
500.0
 70
    64
  0
VERTEX
  5
9E
  8
TEAM-NET
 10
-410.466241
 20
-391.361481
 30
500.0
 70
    64
  0
VERTEX
  5
9F
  8
TEAM-NET
 10
-352.803346
 20
-405.765643
 30
500.0
 70
    64
  0
VERTEX
  5
A0
  8
TEAM-NET
 10
-294.641993
 20
-418.002728
 30
500.0
 70
    64
  0
VERTEX
  5
A1
  8
TEAM-NET
 10
-236.063593
 20
-428.055608
 30
500.0
 70
    64
  0
VERTEX
  5
A2
  8
TEAM-NET
 10
-177.150144
 20
-435.91021
 30
500.0
 70
    64
  0
VERTEX
  5
A3
  8
TEAM-NET
 10
-117.98411
 20
-441.55554
 30
500.0
 70
    64
  0
VERTEX
  5
A4
  8
TEAM-NET
 10
-58.648312
 20
-444.983696
 30
500.0
 70
    64
  0
VERTEX
  5
A5
  8
TEAM-NET
 10
0.774196
 20
-446.189879
 30
500.0
 70
    64
  0
VERTEX
  5
A6
  8
TEAM-NET
 10
60.200234
 20
-445.172401
 30
500.0
 70
    64
  0
VERTEX
  5
A7
  8
TEAM-NET
 10
119.54662
 20
-441.932686
 30
500.0
 70
    64
  0
VERTEX
  5
A8
  8
TEAM-NET
 10
178.730282
 20
-436.475268
 30
500.0
 70
    64
  0
VERTEX
  5
A9
  8
TEAM-NET
 10
237.668377
 20
-428.807788
 30
500.0
 70
    64
  0
VERTEX
  5
AA
  8
TEAM-NET
 10
296.278405
 20
-418.940977
 30
500.0
 70
    64
  0
VERTEX
  5
AB
  8
TEAM-NET
 10
354.478324
 20
-406.888648
 30
500.0
 70
    64
  0
VERTEX
  5
AC
  8
TEAM-NET
 10
412.186669
 20
-392.66767
 30
500.0
 70
    64
  0
VERTEX
  5
AD
  8
TEAM-NET
 10
469.322661
 20
-376.297949
 30
500.0
 70
    64
  0
VERTEX
  5
AE
  8
TEAM-NET
 10
525.806322
 20
-357.802401
 30
500.0
 70
    64
  0
VERTEX
  5
AF
  8
TEAM-NET
 10
581.558588
 20
-337.206913
 30
500.0
 70
    64
  0
VERTEX
  5
B0
  8
TEAM-NET
 10
636.501418
 20
-314.540315
 30
500.0
 70
    64
  0
VERTEX
  5
B1
  8
TEAM-NET
 10
690.557906
 20
-289.834336
 30
500.0
 70
    64
  0
VERTEX
  5
B2
  8
TEAM-NET
 10
740.152545
 20
-257.331314
 30
500.0
 70
    64
  0
VERTEX
  5
B3
  8
TEAM-NET
 10
783.088455
 20
-216.332946
 30
500.0
 70
    64
  0
VERTEX
  5
B4
  8
TEAM-NET
 10
818.448885
 20
-168.646485
 30
500.0
 70
    64
  0
VERTEX
  5
B5
  8
TEAM-NET
 10
845.209266
 20
-115.653651
 30
500.0
 70
    64
  0
VERTEX
  5
B6
  8
TEAM-NET
 10
862.594214
 20
-58.889912
 30
500.0
 70
    64
  0
VERTEX
  5
B7
  8
TEAM-NET
 10
870.1
 20
0.0
 30
500.0
 70
    64
  0
SEQEND
  5
B8
  8
TEAM-NET
  0
CIRCLE
  5
B9
  8
TEAM-KAN
 39
-15.0
 10
0.0
 20
0.0
 30
150.0
 40
26.0
  0
CIRCLE
  5
BB
  8
TEAM-INSP
 10
0.0
 20
0.0
 30
0.0
 40
7.1
  0
POLYLINE
  5
BD
  8
TEAM-BODY
 66
     1
 10
0.0
 20
0.0
 30
150.0
 70
   128
  0
VERTEX
  5
84C
  8
TEAM-BODY
 10
600.05
 20
0.0
 30
150.0
  0
VERTEX
  5
84D
  8
TEAM-BODY
 10
598.000696
 20
24.773804
 30
150.0
  0
VERTEX
  5
84E
  8
TEAM-BODY
 10
591.866782
 20
49.378377
 30
150.0
  0
VERTEX
  5
84F
  8
TEAM-BODY
 10
581.69016
 20
73.645646
 30
150.0
  0
VERTEX
  5
850
  8
TEAM-BODY
 10
567.540345
 20
97.409841
 30
150.0
  0
VERTEX
  5
851
  8
TEAM-BODY
 10
549.513996
 20
120.508627
 30
150.0
  0
VERTEX
  5
852
  8
TEAM-BODY
 10
527.734251
 20
142.784218
 30
150.0
  0
VERTEX
  5
853
  8
TEAM-BODY
 10
502.349887
 20
164.084447
 30
150.0
  0
VERTEX
  5
854
  8
TEAM-BODY
 10
473.534306
 20
184.263814
 30
150.0
  0
VERTEX
  5
855
  8
TEAM-BODY
 10
441.484346
 20
203.184471
 30
150.0
  0
VERTEX
  5
856
  8
TEAM-BODY
 10
406.418943
 20
220.717173
 30
150.0
  0
VERTEX
  5
857
  8
TEAM-BODY
 10
368.577628
 20
236.742153
 30
150.0
  0
VERTEX
  5
858
  8
TEAM-BODY
 10
328.218895
 20
251.149943
 30
150.0
  0
VERTEX
  5
859
  8
TEAM-BODY
 10
285.618436
 20
263.842125
 30
150.0
  0
VERTEX
  5
85A
  8
TEAM-BODY
 10
241.067255
 20
274.731998
 30
150.0
  0
VERTEX
  5
85B
  8
TEAM-BODY
 10
194.869682
 20
283.745173
 30
150.0
  0
VERTEX
  5
85C
  8
TEAM-BODY
 10
147.341292
 20
290.82008
 30
150.0
  0
VERTEX
  5
85D
  8
TEAM-BODY
 10
98.806754
 20
295.908391
 30
150.0
  0
VERTEX
  5
85E
  8
TEAM-BODY
 10
49.597607
 20
298.975348
 30
150.0
  0
VERTEX
  5
85F
  8
TEAM-BODY
 10
0.05
 20
300.0
 30
150.0
  0
VERTEX
  5
860
  8
TEAM-BODY
 10
-49.497607
 20
298.975348
 30
150.0
  0
VERTEX
  5
861
  8
TEAM-BODY
 10
-98.706754
 20
295.908391
 30
150.0
  0
VERTEX
  5
862
  8
TEAM-BODY
 10
-147.241292
 20
290.82008
 30
150.0
  0
VERTEX
  5
863
  8
TEAM-BODY
 10
-194.769682
 20
283.745173
 30
150.0
  0
VERTEX
  5
864
  8
TEAM-BODY
 10
-240.967255
 20
274.731998
 30
150.0
  0
VERTEX
  5
865
  8
TEAM-BODY
 10
-285.518436
 20
263.842125
 30
150.0
  0
VERTEX
  5
866
  8
TEAM-BODY
 10
-328.118895
 20
251.149943
 30
150.0
  0
VERTEX
  5
867
  8
TEAM-BODY
 10
-368.477628
 20
236.742153
 30
150.0
  0
VERTEX
  5
868
  8
TEAM-BODY
 10
-406.318943
 20
220.717173
 30
150.0
  0
VERTEX
  5
869
  8
TEAM-BODY
 10
-441.384346
 20
203.184471
 30
150.0
  0
VERTEX
  5
86A
  8
TEAM-BODY
 10
-473.434306
 20
184.263814
 30
150.0
  0
VERTEX
  5
86B
  8
TEAM-BODY
 10
-502.249887
 20
164.084447
 30
150.0
  0
VERTEX
  5
86C
  8
TEAM-BODY
 10
-527.634251
 20
142.784218
 30
150.0
  0
VERTEX
  5
86D
  8
TEAM-BODY
 10
-549.413996
 20
120.508627
 30
150.0
  0
VERTEX
  5
86E
  8
TEAM-BODY
 10
-567.440345
 20
97.409841
 30
150.0
  0
VERTEX
  5
86F
  8
TEAM-BODY
 10
-581.59016
 20
73.645646
 30
150.0
  0
VERTEX
  5
870
  8
TEAM-BODY
 10
-591.766782
 20
49.378377
 30
150.0
  0
VERTEX
  5
871
  8
TEAM-BODY
 10
-597.900696
 20
24.773804
 30
150.0
  0
VERTEX
  5
872
  8
TEAM-BODY
 10
-599.95
 20
0.0
 30
150.0
  0
SEQEND
  5
873
  8
TEAM-BODY
  0
POLYLINE
  5
BF
  8
TEAM-NET
 66
     1
 10
0.0
 20
0.0
 30
0.0
 70
    16
 71
     2
 72
    37
  0
VERTEX
  5
C0
  8
TEAM-NET
 10
600.05
 20
0.0
 30
150.0
 70
    64
  0
VERTEX
  5
C1
  8
TEAM-NET
 10
594.720155
 20
-39.898015
 30
150.0
 70
    64
  0
VERTEX
  5
C2
  8
TEAM-NET
 10
579.785858
 20
-77.308367
 30
150.0
 70
    64
  0
VERTEX
  5
C3
  8
TEAM-NET
 10
557.5314
 20
-110.921693
 30
150.0
 70
    64
  0
VERTEX
  5
C4
  8
TEAM-NET
 10
530.145367
 20
-140.533717
 30
150.0
 70
    64
  0
VERTEX
  5
C5
  8
TEAM-NET
 10
499.22402
 20
-166.452169
 30
150.0
 70
    64
  0
VERTEX
  5
C6
  8
TEAM-NET
 10
465.830111
 20
-189.109022
 30
150.0
 70
    64
  0
VERTEX
  5
C7
  8
TEAM-NET
 10
430.662394
 20
-208.909649
 30
150.0
 70
    64
  0
VERTEX
  5
C8
  8
TEAM-NET
 10
394.189032
 20
-226.193735
 30
150.0
 70
    64
  0
VERTEX
  5
C9
  8
TEAM-NET
 10
356.733135
 20
-241.234917
 30
150.0
 70
    64
  0
VERTEX
  5
CA
  8
TEAM-NET
 10
318.52501
 20
-254.250697
 30
150.0
 70
    64
  0
VERTEX
  5
CB
  8
TEAM-NET
 10
279.734158
 20
-265.413249
 30
150.0
 70
    64
  0
VERTEX
  5
CC
  8
TEAM-NET
 10
240.489265
 20
-274.858582
 30
150.0
 70
    64
  0
VERTEX
  5
CD
  8
TEAM-NET
 10
200.891061
 20
-282.693681
 30
150.0
 70
    64
  0
VERTEX
  5
CE
  8
TEAM-NET
 10
161.020836
 20
-289.001899
 30
150.0
 70
    64
  0
VERTEX
  5
CF
  8
TEAM-NET
 10
120.946286
 20
-293.846936
 30
150.0
 70
    64
  0
VERTEX
  5
D0
  8
TEAM-NET
 10
80.725669
 20
-297.275729
 30
150.0
 70
    64
  0
VERTEX
  5
D1
  8
TEAM-NET
 10
40.410905
 20
-299.320479
 30
150.0
 70
    64
  0
VERTEX
  5
D2
  8
TEAM-NET
 10
0.05
 20
-300.0
 30
150.0
 70
    64
  0
VERTEX
  5
D3
  8
TEAM-NET
 10
-40.310905
 20
-299.320479
 30
150.0
 70
    64
  0
VERTEX
  5
D4
  8
TEAM-NET
 10
-80.625669
 20
-297.275729
 30
150.0
 70
    64
  0
VERTEX
  5
D5
  8
TEAM-NET
 10
-120.846286
 20
-293.846936
 30
150.0
 70
    64
  0
VERTEX
  5
D6
  8
TEAM-NET
 10
-160.920836
 20
-289.001899
 30
150.0
 70
    64
  0
VERTEX
  5
D7
  8
TEAM-NET
 10
-200.791061
 20
-282.693681
 30
150.0
 70
    64
  0
VERTEX
  5
D8
  8
TEAM-NET
 10
-240.389265
 20
-274.858582
 30
150.0
 70
    64
  0
VERTEX
  5
D9
  8
TEAM-NET
 10
-279.634158
 20
-265.413249
 30
150.0
 70
    64
  0
VERTEX
  5
DA
  8
TEAM-NET
 10
-318.42501
 20
-254.250697
 30
150.0
 70
    64
  0
VERTEX
  5
DB
  8
TEAM-NET
 10
-356.633135
 20
-241.234917
 30
150.0
 70
    64
  0
VERTEX
  5
DC
  8
TEAM-NET
 10
-394.089032
 20
-226.193735
 30
150.0
 70
    64
  0
VERTEX
  5
DD
  8
TEAM-NET
 10
-430.562394
 20
-208.909649
 30
150.0
 70
    64
  0
VERTEX
  5
DE
  8
TEAM-NET
 10
-465.730111
 20
-189.109022
 30
150.0
 70
    64
  0
VERTEX
  5
DF
  8
TEAM-NET
 10
-499.12402
 20
-166.452169
 30
150.0
 70
    64
  0
VERTEX
  5
E0
  8
TEAM-NET
 10
-530.045367
 20
-140.533717
 30
150.0
 70
    64
  0
VERTEX
  5
E1
  8
TEAM-NET
 10
-557.4314
 20
-110.921693
 30
150.0
 70
    64
  0
VERTEX
  5
E2
  8
TEAM-NET
 10
-579.685858
 20
-77.308367
 30
150.0
 70
    64
  0
VERTEX
  5
E3
  8
TEAM-NET
 10
-594.620155
 20
-39.898015
 30
150.0
 70
    64
  0
VERTEX
  5
E4
  8
TEAM-NET
 10
-599.95
 20
0.0
 30
150.0
 70
    64
  0
VERTEX
  5
E5
  8
TEAM-NET
 10
600.05
 20
0.0
 30
150.0
 70
    64
  0
VERTEX
  5
E6
  8
TEAM-NET
 10
594.720155
 20
39.898015
 30
150.0
 70
    64
  0
VERTEX
  5
E7
  8
TEAM-NET
 10
579.785858
 20
77.308367
 30
150.0
 70
    64
  0
VERTEX
  5
E8
  8
TEAM-NET
 10
557.5314
 20
110.921693
 30
150.0
 70
    64
  0
VERTEX
  5
E9
  8
TEAM-NET
 10
530.145367
 20
140.533717
 30
150.0
 70
    64
  0
VERTEX
  5
EA
  8
TEAM-NET
 10
499.22402
 20
166.452169
 30
150.0
 70
    64
  0
VERTEX
  5
EB
  8
TEAM-NET
 10
465.830111
 20
189.109022
 30
150.0
 70
    64
  0
VERTEX
  5
EC
  8
TEAM-NET
 10
430.662394
 20
208.909649
 30
150.0
 70
    64
  0
VERTEX
  5
ED
  8
TEAM-NET
 10
394.189032
 20
226.193735
 30
150.0
 70
    64
  0
VERTEX
  5
EE
  8
TEAM-NET
 10
356.733135
 20
241.234917
 30
150.0
 70
    64
  0
VERTEX
  5
EF
  8
TEAM-NET
 10
318.52501
 20
254.250697
 30
150.0
 70
    64
  0
VERTEX
  5
F0
  8
TEAM-NET
 10
279.734158
 20
265.413249
 30
150.0
 70
    64
  0
VERTEX
  5
F1
  8
TEAM-NET
 10
240.489265
 20
274.858582
 30
150.0
 70
    64
  0
VERTEX
  5
F2
  8
TEAM-NET
 10
200.891061
 20
282.693681
 30
150.0
 70
    64
  0
VERTEX
  5
F3
  8
TEAM-NET
 10
161.020836
 20
289.001899
 30
150.0
 70
    64
  0
VERTEX
  5
F4
  8
TEAM-NET
 10
120.946286
 20
293.846936
 30
150.0
 70
    64
  0
VERTEX
  5
F5
  8
TEAM-NET
 10
80.725669
 20
297.275729
 30
150.0
 70
    64
  0
VERTEX
  5
F6
  8
TEAM-NET
 10
40.410905
 20
299.320479
 30
150.0
 70
    64
  0
VERTEX
  5
F7
  8
TEAM-NET
 10
0.05
 20
300.0
 30
150.0
 70
    64
  0
VERTEX
  5
F8
  8
TEAM-NET
 10
-40.310905
 20
299.320479
 30
150.0
 70
    64
  0
VERTEX
  5
F9
  8
TEAM-NET
 10
-80.625669
 20
297.275729
 30
150.0
 70
    64
  0
VERTEX
  5
FA
  8
TEAM-NET
 10
-120.846286
 20
293.846936
 30
150.0
 70
    64
  0
VERTEX
  5
FB
  8
TEAM-NET
 10
-160.920836
 20
289.001899
 30
150.0
 70
    64
  0
VERTEX
  5
FC
  8
TEAM-NET
 10
-200.791061
 20
282.693681
 30
150.0
 70
    64
  0
VERTEX
  5
FD
  8
TEAM-NET
 10
-240.389265
 20
274.858582
 30
150.0
 70
    64
  0
VERTEX
  5
FE
  8
TEAM-NET
 10
-279.634158
 20
265.413249
 30
150.0
 70
    64
  0
VERTEX
  5
FF
  8
TEAM-NET
 10
-318.42501
 20
254.250697
 30
150.0
 70
    64
  0
VERTEX
  5
100
  8
TEAM-NET
 10
-356.633135
 20
241.234917
 30
150.0
 70
    64
  0
VERTEX
  5
101
  8
TEAM-NET
 10
-394.089032
 20
226.193735
 30
150.0
 70
    64
  0
VERTEX
  5
102
  8
TEAM-NET
 10
-430.562394
 20
208.909649
 30
150.0
 70
    64
  0
VERTEX
  5
103
  8
TEAM-NET
 10
-465.730111
 20
189.109022
 30
150.0
 70
    64
  0
VERTEX
  5
104
  8
TEAM-NET
 10
-499.12402
 20
166.452169
 30
150.0
 70
    64
  0
VERTEX
  5
105
  8
TEAM-NET
 10
-530.045367
 20
140.533717
 30
150.0
 70
    64
  0
VERTEX
  5
106
  8
TEAM-NET
 10
-557.4314
 20
110.921693
 30
150.0
 70
    64
  0
VERTEX
  5
107
  8
TEAM-NET
 10
-579.685858
 20
77.308367
 30
150.0
 70
    64
  0
VERTEX
  5
108
  8
TEAM-NET
 10
-594.620155
 20
39.898015
 30
150.0
 70
    64
  0
VERTEX
  5
109
  8
TEAM-NET
 10
-599.95
 20
0.0
 30
150.0
 70
    64
  0
SEQEND
  5
10A
  8
TEAM-NET
  0
POLYLINE
  5
10B
  8
TEAM-BODY
 66
     1
 10
0.0
 20
0.0
 30
-150.0
 70
   128
210
0.0
220
0.0
230
-1.0
  0
VERTEX
  5
874
  8
TEAM-BODY
 10
-600.05
 20
0.0
 30
-150.0
  0
VERTEX
  5
875
  8
TEAM-BODY
 10
-598.000696
 20
-24.773804
 30
-150.0
  0
VERTEX
  5
876
  8
TEAM-BODY
 10
-591.866782
 20
-49.378377
 30
-150.0
  0
VERTEX
  5
877
  8
TEAM-BODY
 10
-581.69016
 20
-73.645646
 30
-150.0
  0
VERTEX
  5
878
  8
TEAM-BODY
 10
-567.540345
 20
-97.409841
 30
-150.0
  0
VERTEX
  5
879
  8
TEAM-BODY
 10
-549.513996
 20
-120.508627
 30
-150.0
  0
VERTEX
  5
87A
  8
TEAM-BODY
 10
-527.734251
 20
-142.784218
 30
-150.0
  0
VERTEX
  5
87B
  8
TEAM-BODY
 10
-502.349887
 20
-164.084447
 30
-150.0
  0
VERTEX
  5
87C
  8
TEAM-BODY
 10
-473.534306
 20
-184.263814
 30
-150.0
  0
VERTEX
  5
87D
  8
TEAM-BODY
 10
-441.484346
 20
-203.184471
 30
-150.0
  0
VERTEX
  5
87E
  8
TEAM-BODY
 10
-406.418943
 20
-220.717173
 30
-150.0
  0
VERTEX
  5
87F
  8
TEAM-BODY
 10
-368.577628
 20
-236.742153
 30
-150.0
  0
VERTEX
  5
880
  8
TEAM-BODY
 10
-328.218895
 20
-251.149943
 30
-150.0
  0
VERTEX
  5
881
  8
TEAM-BODY
 10
-285.618436
 20
-263.842125
 30
-150.0
  0
VERTEX
  5
882
  8
TEAM-BODY
 10
-241.067255
 20
-274.731998
 30
-150.0
  0
VERTEX
  5
883
  8
TEAM-BODY
 10
-194.869682
 20
-283.745173
 30
-150.0
  0
VERTEX
  5
884
  8
TEAM-BODY
 10
-147.341292
 20
-290.82008
 30
-150.0
  0
VERTEX
  5
885
  8
TEAM-BODY
 10
-98.806754
 20
-295.908391
 30
-150.0
  0
VERTEX
  5
886
  8
TEAM-BODY
 10
-49.597607
 20
-298.975348
 30
-150.0
  0
VERTEX
  5
887
  8
TEAM-BODY
 10
-0.05
 20
-300.0
 30
-150.0
  0
VERTEX
  5
888
  8
TEAM-BODY
 10
49.497607
 20
-298.975348
 30
-150.0
  0
VERTEX
  5
889
  8
TEAM-BODY
 10
98.706754
 20
-295.908391
 30
-150.0
  0
VERTEX
  5
88A
  8
TEAM-BODY
 10
147.241292
 20
-290.82008
 30
-150.0
  0
VERTEX
  5
88B
  8
TEAM-BODY
 10
194.769682
 20
-283.745173
 30
-150.0
  0
VERTEX
  5
88C
  8
TEAM-BODY
 10
240.967255
 20
-274.731998
 30
-150.0
  0
VERTEX
  5
88D
  8
TEAM-BODY
 10
285.518436
 20
-263.842125
 30
-150.0
  0
VERTEX
  5
88E
  8
TEAM-BODY
 10
328.118895
 20
-251.149943
 30
-150.0
  0
VERTEX
  5
88F
  8
TEAM-BODY
 10
368.477628
 20
-236.742153
 30
-150.0
  0
VERTEX
  5
890
  8
TEAM-BODY
 10
406.318943
 20
-220.717173
 30
-150.0
  0
VERTEX
  5
891
  8
TEAM-BODY
 10
441.384346
 20
-203.184471
 30
-150.0
  0
VERTEX
  5
892
  8
TEAM-BODY
 10
473.434306
 20
-184.263814
 30
-150.0
  0
VERTEX
  5
893
  8
TEAM-BODY
 10
502.249887
 20
-164.084447
 30
-150.0
  0
VERTEX
  5
894
  8
TEAM-BODY
 10
527.634251
 20
-142.784218
 30
-150.0
  0
VERTEX
  5
895
  8
TEAM-BODY
 10
549.413996
 20
-120.508627
 30
-150.0
  0
VERTEX
  5
896
  8
TEAM-BODY
 10
567.440345
 20
-97.409841
 30
-150.0
  0
VERTEX
  5
897
  8
TEAM-BODY
 10
581.59016
 20
-73.645646
 30
-150.0
  0
VERTEX
  5
898
  8
TEAM-BODY
 10
591.766782
 20
-49.378377
 30
-150.0
  0
VERTEX
  5
899
  8
TEAM-BODY
 10
597.900696
 20
-24.773804
 30
-150.0
  0
VERTEX
  5
89A
  8
TEAM-BODY
 10
599.95
 20
0.0
 30
-150.0
  0
SEQEND
  5
89B
  8
TEAM-BODY
  0
CIRCLE
  5
10C
  8
TEAM-DET1
 10
0.0
 20
0.0
 30
150.0
 40
40.0
  0
CIRCLE
  5
10E
  8
TEAM-BODY
 10
0.0
 20
0.0
 30
150.0
 40
35.0
  0
POLYLINE
  5
10F
  8
TEAM-NET
 66
     1
 10
0.0
 20
0.0
 30
0.0
 70
    16
 71
     2
 72
    37
  0
VERTEX
  5
110
  8
TEAM-NET
 10
870.1
 20
0.0
 30
500.0
 70
    64
  0
VERTEX
  5
111
  8
TEAM-NET
 10
862.594214
 20
58.889912
 30
500.0
 70
    64
  0
VERTEX
  5
112
  8
TEAM-NET
 10
845.209266
 20
115.653651
 30
500.0
 70
    64
  0
VERTEX
  5
113
  8
TEAM-NET
 10
818.448885
 20
168.646485
 30
500.0
 70
    64
  0
VERTEX
  5
114
  8
TEAM-NET
 10
783.088455
 20
216.332946
 30
500.0
 70
    64
  0
VERTEX
  5
115
  8
TEAM-NET
 10
740.152545
 20
257.331314
 30
500.0
 70
    64
  0
VERTEX
  5
116
  8
TEAM-NET
 10
690.557906
 20
289.834336
 30
500.0
 70
    64
  0
VERTEX
  5
117
  8
TEAM-NET
 10
636.501418
 20
314.540315
 30
500.0
 70
    64
  0
VERTEX
  5
118
  8
TEAM-NET
 10
581.558588
 20
337.206913
 30
500.0
 70
    64
  0
VERTEX
  5
119
  8
TEAM-NET
 10
525.806322
 20
357.802401
 30
500.0
 70
    64
  0
VERTEX
  5
11A
  8
TEAM-NET
 10
469.322661
 20
376.297949
 30
500.0
 70
    64
  0
VERTEX
  5
11B
  8
TEAM-NET
 10
412.186669
 20
392.66767
 30
500.0
 70
    64
  0
VERTEX
  5
11C
  8
TEAM-NET
 10
354.478324
 20
406.888648
 30
500.0
 70
    64
  0
VERTEX
  5
11D
  8
TEAM-NET
 10
296.278405
 20
418.940977
 30
500.0
 70
    64
  0
VERTEX
  5
11E
  8
TEAM-NET
 10
237.668377
 20
428.807788
 30
500.0
 70
    64
  0
VERTEX
  5
11F
  8
TEAM-NET
 10
178.730282
 20
436.475268
 30
500.0
 70
    64
  0
VERTEX
  5
120
  8
TEAM-NET
 10
119.54662
 20
441.932686
 30
500.0
 70
    64
  0
VERTEX
  5
121
  8
TEAM-NET
 10
60.200234
 20
445.172401
 30
500.0
 70
    64
  0
VERTEX
  5
122
  8
TEAM-NET
 10
0.774196
 20
446.189879
 30
500.0
 70
    64
  0
VERTEX
  5
123
  8
TEAM-NET
 10
-58.648312
 20
444.983696
 30
500.0
 70
    64
  0
VERTEX
  5
124
  8
TEAM-NET
 10
-117.98411
 20
441.55554
 30
500.0
 70
    64
  0
VERTEX
  5
125
  8
TEAM-NET
 10
-177.150144
 20
435.91021
 30
500.0
 70
    64
  0
VERTEX
  5
126
  8
TEAM-NET
 10
-236.063593
 20
428.055608
 30
500.0
 70
    64
  0
VERTEX
  5
127
  8
TEAM-NET
 10
-294.641993
 20
418.002728
 30
500.0
 70
    64
  0
VERTEX
  5
128
  8
TEAM-NET
 10
-352.803346
 20
405.765643
 30
500.0
 70
    64
  0
VERTEX
  5
129
  8
TEAM-NET
 10
-410.466241
 20
391.361481
 30
500.0
 70
    64
  0
VERTEX
  5
12A
  8
TEAM-NET
 10
-467.549961
 20
374.810405
 30
500.0
 70
    64
  0
VERTEX
  5
12B
  8
TEAM-NET
 10
-523.974604
 20
356.135583
 30
500.0
 70
    64
  0
VERTEX
  5
12C
  8
TEAM-NET
 10
-579.661187
 20
335.363156
 30
500.0
 70
    64
  0
VERTEX
  5
12D
  8
TEAM-NET
 10
-634.531762
 20
312.522199
 30
500.0
 70
    64
  0
VERTEX
  5
12E
  8
TEAM-NET
 10
-688.509522
 20
287.644685
 30
500.0
 70
    64
  0
VERTEX
  5
12F
  8
TEAM-NET
 10
-738.635514
 20
255.857828
 30
500.0
 70
    64
  0
VERTEX
  5
130
  8
TEAM-NET
 10
-782.355176
 20
215.704353
 30
500.0
 70
    64
  0
VERTEX
  5
131
  8
TEAM-NET
 10
-818.332066
 20
168.488107
 30
500.0
 70
    64
  0
VERTEX
  5
132
  8
TEAM-NET
 10
-845.444792
 20
115.680812
 30
500.0
 70
    64
  0
VERTEX
  5
133
  8
TEAM-NET
 10
-862.848258
 20
58.928457
 30
500.0
 70
    64
  0
VERTEX
  5
134
  8
TEAM-NET
 10
-870.0
 20
0.0
 30
500.0
 70
    64
  0
VERTEX
  5
135
  8
TEAM-NET
 10
920.1
 20
0.0
 30
600.0
 70
    64
  0
VERTEX
  5
136
  8
TEAM-NET
 10
914.421147
 20
62.792895
 30
600.0
 70
    64
  0
VERTEX
  5
137
  8
TEAM-NET
 10
897.56887
 20
123.548124
 30
600.0
 70
    64
  0
VERTEX
  5
138
  8
TEAM-NET
 10
870.090036
 20
180.294143
 30
600.0
 70
    64
  0
VERTEX
  5
139
  8
TEAM-NET
 10
832.876349
 20
231.189512
 30
600.0
 70
    64
  0
VERTEX
  5
13A
  8
TEAM-NET
 10
787.135415
 20
274.582644
 30
600.0
 70
    64
  0
VERTEX
  5
13B
  8
TEAM-NET
 10
734.351554
 20
309.065409
 30
600.0
 70
    64
  0
VERTEX
  5
13C
  8
TEAM-NET
 10
676.805821
 20
334.977142
 30
600.0
 70
    64
  0
VERTEX
  5
13D
  8
TEAM-NET
 10
618.062383
 20
358.102418
 30
600.0
 70
    64
  0
VERTEX
  5
13E
  8
TEAM-NET
 10
558.530574
 20
379.115116
 30
600.0
 70
    64
  0
VERTEX
  5
13F
  8
TEAM-NET
 10
498.286339
 20
397.988429
 30
600.0
 70
    64
  0
VERTEX
  5
140
  8
TEAM-NET
 10
437.406534
 20
414.698281
 30
600.0
 70
    64
  0
VERTEX
  5
141
  8
TEAM-NET
 10
375.968825
 20
429.223353
 30
600.0
 70
    64
  0
VERTEX
  5
142
  8
TEAM-NET
 10
314.051591
 20
441.545117
 30
600.0
 70
    64
  0
VERTEX
  5
143
  8
TEAM-NET
 10
251.73382
 20
451.647853
 30
600.0
 70
    64
  0
VERTEX
  5
144
  8
TEAM-NET
 10
189.095014
 20
459.518671
 30
600.0
 70
    64
  0
VERTEX
  5
145
  8
TEAM-NET
 10
126.215083
 20
465.147532
 30
600.0
 70
    64
  0
VERTEX
  5
146
  8
TEAM-NET
 10
63.174245
 20
468.527255
 30
600.0
 70
    64
  0
VERTEX
  5
147
  8
TEAM-NET
 10
0.052923
 20
469.653527
 30
600.0
 70
    64
  0
VERTEX
  5
148
  8
TEAM-NET
 10
-63.068358
 20
468.524912
 30
600.0
 70
    64
  0
VERTEX
  5
149
  8
TEAM-NET
 10
-126.10907
 20
465.14285
 30
600.0
 70
    64
  0
VERTEX
  5
14A
  8
TEAM-NET
 10
-188.988793
 20
459.511655
 30
600.0
 70
    64
  0
VERTEX
  5
14B
  8
TEAM-NET
 10
-251.627306
 20
451.638512
 30
600.0
 70
    64
  0
VERTEX
  5
14C
  8
TEAM-NET
 10
-313.944702
 20
441.533464
 30
600.0
 70
    64
  0
VERTEX
  5
14D
  8
TEAM-NET
 10
-375.861479
 20
429.209402
 30
600.0
 70
    64
  0
VERTEX
  5
14E
  8
TEAM-NET
 10
-437.298649
 20
414.682049
 30
600.0
 70
    64
  0
VERTEX
  5
14F
  8
TEAM-NET
 10
-498.177834
 20
397.969938
 30
600.0
 70
    64
  0
VERTEX
  5
150
  8
TEAM-NET
 10
-558.421368
 20
379.094389
 30
600.0
 70
    64
  0
VERTEX
  5
151
  8
TEAM-NET
 10
-617.952398
 20
358.079482
 30
600.0
 70
    64
  0
VERTEX
  5
152
  8
TEAM-NET
 10
-676.694977
 20
334.952026
 30
600.0
 70
    64
  0
VERTEX
  5
153
  8
TEAM-NET
 10
-734.251554
 20
309.065409
 30
600.0
 70
    64
  0
VERTEX
  5
154
  8
TEAM-NET
 10
-787.035415
 20
274.582644
 30
600.0
 70
    64
  0
VERTEX
  5
155
  8
TEAM-NET
 10
-832.776349
 20
231.189512
 30
600.0
 70
    64
  0
VERTEX
  5
156
  8
TEAM-NET
 10
-869.990036
 20
180.294143
 30
600.0
 70
    64
  0
VERTEX
  5
157
  8
TEAM-NET
 10
-897.46887
 20
123.548124
 30
600.0
 70
    64
  0
VERTEX
  5
158
  8
TEAM-NET
 10
-914.321147
 20
62.792895
 30
600.0
 70
    64
  0
VERTEX
  5
159
  8
TEAM-NET
 10
-920.0
 20
0.0
 30
600.0
 70
    64
  0
SEQEND
  5
15A
  8
TEAM-NET
  0
POLYLINE
  5
15B
  8
TEAM-NET
 66
     1
 10
0.0
 20
0.0
 30
0.0
 70
    16
 71
     2
 72
    37
  0
VERTEX
  5
15C
  8
TEAM-NET
 10
-870.0
 20
0.0
 30
500.0
 70
    64
  0
VERTEX
  5
15D
  8
TEAM-NET
 10
-862.848258
 20
-58.928457
 30
500.0
 70
    64
  0
VERTEX
  5
15E
  8
TEAM-NET
 10
-845.444792
 20
-115.680812
 30
500.0
 70
    64
  0
VERTEX
  5
15F
  8
TEAM-NET
 10
-818.332066
 20
-168.488107
 30
500.0
 70
    64
  0
VERTEX
  5
160
  8
TEAM-NET
 10
-782.355176
 20
-215.704353
 30
500.0
 70
    64
  0
VERTEX
  5
161
  8
TEAM-NET
 10
-738.635514
 20
-255.857828
 30
500.0
 70
    64
  0
VERTEX
  5
162
  8
TEAM-NET
 10
-688.509522
 20
-287.644685
 30
500.0
 70
    64
  0
VERTEX
  5
163
  8
TEAM-NET
 10
-634.531762
 20
-312.522199
 30
500.0
 70
    64
  0
VERTEX
  5
164
  8
TEAM-NET
 10
-579.661187
 20
-335.363156
 30
500.0
 70
    64
  0
VERTEX
  5
165
  8
TEAM-NET
 10
-523.974604
 20
-356.135583
 30
500.0
 70
    64
  0
VERTEX
  5
166
  8
TEAM-NET
 10
-467.549961
 20
-374.810405
 30
500.0
 70
    64
  0
VERTEX
  5
167
  8
TEAM-NET
 10
-410.466241
 20
-391.361481
 30
500.0
 70
    64
  0
VERTEX
  5
168
  8
TEAM-NET
 10
-352.803346
 20
-405.765643
 30
500.0
 70
    64
  0
VERTEX
  5
169
  8
TEAM-NET
 10
-294.641993
 20
-418.002728
 30
500.0
 70
    64
  0
VERTEX
  5
16A
  8
TEAM-NET
 10
-236.063593
 20
-428.055608
 30
500.0
 70
    64
  0
VERTEX
  5
16B
  8
TEAM-NET
 10
-177.150144
 20
-435.91021
 30
500.0
 70
    64
  0
VERTEX
  5
16C
  8
TEAM-NET
 10
-117.98411
 20
-441.55554
 30
500.0
 70
    64
  0
VERTEX
  5
16D
  8
TEAM-NET
 10
-58.648312
 20
-444.983696
 30
500.0
 70
    64
  0
VERTEX
  5
16E
  8
TEAM-NET
 10
0.774196
 20
-446.189879
 30
500.0
 70
    64
  0
VERTEX
  5
16F
  8
TEAM-NET
 10
60.200234
 20
-445.172401
 30
500.0
 70
    64
  0
VERTEX
  5
170
  8
TEAM-NET
 10
119.54662
 20
-441.932686
 30
500.0
 70
    64
  0
VERTEX
  5
171
  8
TEAM-NET
 10
178.730282
 20
-436.475268
 30
500.0
 70
    64
  0
VERTEX
  5
172
  8
TEAM-NET
 10
237.668377
 20
-428.807788
 30
500.0
 70
    64
  0
VERTEX
  5
173
  8
TEAM-NET
 10
296.278405
 20
-418.940977
 30
500.0
 70
    64
  0
VERTEX
  5
174
  8
TEAM-NET
 10
354.478324
 20
-406.888648
 30
500.0
 70
    64
  0
VERTEX
  5
175
  8
TEAM-NET
 10
412.186669
 20
-392.66767
 30
500.0
 70
    64
  0
VERTEX
  5
176
  8
TEAM-NET
 10
469.322661
 20
-376.297949
 30
500.0
 70
    64
  0
VERTEX
  5
177
  8
TEAM-NET
 10
525.806322
 20
-357.802401
 30
500.0
 70
    64
  0
VERTEX
  5
178
  8
TEAM-NET
 10
581.558588
 20
-337.206913
 30
500.0
 70
    64
  0
VERTEX
  5
179
  8
TEAM-NET
 10
636.501418
 20
-314.540315
 30
500.0
 70
    64
  0
VERTEX
  5
17A
  8
TEAM-NET
 10
690.557906
 20
-289.834336
 30
500.0
 70
    64
  0
VERTEX
  5
17B
  8
TEAM-NET
 10
740.152545
 20
-257.331314
 30
500.0
 70
    64
  0
VERTEX
  5
17C
  8
TEAM-NET
 10
783.088455
 20
-216.332946
 30
500.0
 70
    64
  0
VERTEX
  5
17D
  8
TEAM-NET
 10
818.448885
 20
-168.646485
 30
500.0
 70
    64
  0
VERTEX
  5
17E
  8
TEAM-NET
 10
845.209266
 20
-115.653651
 30
500.0
 70
    64
  0
VERTEX
  5
17F
  8
TEAM-NET
 10
862.594214
 20
-58.889912
 30
500.0
 70
    64
  0
VERTEX
  5
180
  8
TEAM-NET
 10
870.1
 20
0.0
 30
500.0
 70
    64
  0
VERTEX
  5
181
  8
TEAM-NET
 10
-920.0
 20
0.0
 30
600.0
 70
    64
  0
VERTEX
  5
182
  8
TEAM-NET
 10
-914.321147
 20
-62.792895
 30
600.0
 70
    64
  0
VERTEX
  5
183
  8
TEAM-NET
 10
-897.46887
 20
-123.548124
 30
600.0
 70
    64
  0
VERTEX
  5
184
  8
TEAM-NET
 10
-869.990036
 20
-180.294143
 30
600.0
 70
    64
  0
VERTEX
  5
185
  8
TEAM-NET
 10
-832.776349
 20
-231.189512
 30
600.0
 70
    64
  0
VERTEX
  5
186
  8
TEAM-NET
 10
-787.035415
 20
-274.582644
 30
600.0
 70
    64
  0
VERTEX
  5
187
  8
TEAM-NET
 10
-734.251554
 20
-309.065409
 30
600.0
 70
    64
  0
VERTEX
  5
188
  8
TEAM-NET
 10
-676.694977
 20
-334.952026
 30
600.0
 70
    64
  0
VERTEX
  5
189
  8
TEAM-NET
 10
-617.952398
 20
-358.079482
 30
600.0
 70
    64
  0
VERTEX
  5
18A
  8
TEAM-NET
 10
-558.421368
 20
-379.094389
 30
600.0
 70
    64
  0
VERTEX
  5
18B
  8
TEAM-NET
 10
-498.177834
 20
-397.969938
 30
600.0
 70
    64
  0
VERTEX
  5
18C
  8
TEAM-NET
 10
-437.298649
 20
-414.682049
 30
600.0
 70
    64
  0
VERTEX
  5
18D
  8
TEAM-NET
 10
-375.861479
 20
-429.209402
 30
600.0
 70
    64
  0
VERTEX
  5
18E
  8
TEAM-NET
 10
-313.944702
 20
-441.533464
 30
600.0
 70
    64
  0
VERTEX
  5
18F
  8
TEAM-NET
 10
-251.627306
 20
-451.638512
 30
600.0
 70
    64
  0
VERTEX
  5
190
  8
TEAM-NET
 10
-188.988793
 20
-459.511655
 30
600.0
 70
    64
  0
VERTEX
  5
191
  8
TEAM-NET
 10
-126.10907
 20
-465.14285
 30
600.0
 70
    64
  0
VERTEX
  5
192
  8
TEAM-NET
 10
-63.068358
 20
-468.524912
 30
600.0
 70
    64
  0
VERTEX
  5
193
  8
TEAM-NET
 10
0.052923
 20
-469.653527
 30
600.0
 70
    64
  0
VERTEX
  5
194
  8
TEAM-NET
 10
63.174245
 20
-468.527255
 30
600.0
 70
    64
  0
VERTEX
  5
195
  8
TEAM-NET
 10
126.215083
 20
-465.147532
 30
600.0
 70
    64
  0
VERTEX
  5
196
  8
TEAM-NET
 10
189.095014
 20
-459.518671
 30
600.0
 70
    64
  0
VERTEX
  5
197
  8
TEAM-NET
 10
251.73382
 20
-451.647853
 30
600.0
 70
    64
  0
VERTEX
  5
198
  8
TEAM-NET
 10
314.051591
 20
-441.545117
 30
600.0
 70
    64
  0
VERTEX
  5
199
  8
TEAM-NET
 10
375.968825
 20
-429.223353
 30
600.0
 70
    64
  0
VERTEX
  5
19A
  8
TEAM-NET
 10
437.406534
 20
-414.698281
 30
600.0
 70
    64
  0
VERTEX
  5
19B
  8
TEAM-NET
 10
498.286339
 20
-397.988429
 30
600.0
 70
    64
  0
VERTEX
  5
19C
  8
TEAM-NET
 10
558.530574
 20
-379.115116
 30
600.0
 70
    64
  0
VERTEX
  5
19D
  8
TEAM-NET
 10
618.062383
 20
-358.102418
 30
600.0
 70
    64
  0
VERTEX
  5
19E
  8
TEAM-NET
 10
676.805821
 20
-334.977142
 30
600.0
 70
    64
  0
VERTEX
  5
19F
  8
TEAM-NET
 10
734.351554
 20
-309.065409
 30
600.0
 70
    64
  0
VERTEX
  5
1A0
  8
TEAM-NET
 10
787.135415
 20
-274.582644
 30
600.0
 70
    64
  0
VERTEX
  5
1A1
  8
TEAM-NET
 10
832.876349
 20
-231.189512
 30
600.0
 70
    64
  0
VERTEX
  5
1A2
  8
TEAM-NET
 10
870.090036
 20
-180.294143
 30
600.0
 70
    64
  0
VERTEX
  5
1A3
  8
TEAM-NET
 10
897.56887
 20
-123.548124
 30
600.0
 70
    64
  0
VERTEX
  5
1A4
  8
TEAM-NET
 10
914.421147
 20
-62.792895
 30
600.0
 70
    64
  0
VERTEX
  5
1A5
  8
TEAM-NET
 10
920.1
 20
0.0
 30
600.0
 70
    64
  0
SEQEND
  5
1A6
  8
TEAM-NET
  0
POLYLINE
  5
1A7
  8
TEAM-DET1
 66
     1
 10
0.0
 20
0.0
 30
500.0
  0
VERTEX
  5
89C
  8
TEAM-DET1
 10
870.1
 20
0.0
 30
500.0
 42
0.253752
  0
VERTEX
  5
89D
  8
TEAM-DET1
 10
699.515875
 20
285.501255
 30
500.0
 42
0.23032
  0
VERTEX
  5
89E
  8
TEAM-DET1
 10
-690.295414
 20
286.779354
 30
500.0
 42
0.269981
  0
VERTEX
  5
89F
  8
TEAM-DET1
 10
-870.0
 20
0.0
 30
500.0
 42
0.30196
  0
SEQEND
  5
8A0
  8
TEAM-DET1
  0
POLYLINE
  5
1A8
  8
TEAM-DET1
 66
     1
 10
0.0
 20
0.0
 30
500.0
  0
VERTEX
  5
8A1
  8
TEAM-DET1
 10
870.1
 20
0.0
 30
500.0
 42
-0.253752
  0
VERTEX
  5
8A2
  8
TEAM-DET1
 10
699.515875
 20
-285.501255
 30
500.0
 42
-0.23032
  0
VERTEX
  5
8A3
  8
TEAM-DET1
 10
-690.295414
 20
-286.779354
 30
500.0
 42
-0.269981
  0
VERTEX
  5
8A4
  8
TEAM-DET1
 10
-870.0
 20
0.0
 30
500.0
 42
-0.30196
  0
SEQEND
  5
8A5
  8
TEAM-DET1
  0
POLYLINE
  5
1A9
  8
TEAM-DET1
 66
     1
 10
0.0
 20
0.0
 30
530.0
  0
VERTEX
  5
8A6
  8
TEAM-DET1
 10
24.179987
 20
434.127638
 30
530.0
  0
VERTEX
  5
8A7
  8
TEAM-DET1
 10
24.729987
 20
434.417638
 30
530.0
  0
VERTEX
  5
8A8
  8
TEAM-DET1
 10
25.189987
 20
434.727638
 30
530.0
  0
VERTEX
  5
8A9
  8
TEAM-DET1
 10
25.539987
 20
435.027638
 30
530.0
  0
VERTEX
  5
8AA
  8
TEAM-DET1
 10
25.799987
 20
435.337638
 30
530.0
  0
VERTEX
  5
8AB
  8
TEAM-DET1
 10
25.949987
 20
435.657638
 30
530.0
  0
VERTEX
  5
8AC
  8
TEAM-DET1
 10
25.999987
 20
435.967638
 30
530.0
  0
SEQEND
  5
8AD
  8
TEAM-DET1
  0
POLYLINE
  5
1AA
  8
TEAM-DET1
 66
     1
 10
0.0
 20
0.0
 30
530.0
  0
VERTEX
  5
8AE
  8
TEAM-DET1
 10
-25.540014
 20
436.907638
 30
530.0
  0
VERTEX
  5
8AF
  8
TEAM-DET1
 10
-25.790014
 20
436.597638
 30
530.0
  0
VERTEX
  5
8B0
  8
TEAM-DET1
 10
-25.940014
 20
436.277638
 30
530.0
  0
VERTEX
  5
8B1
  8
TEAM-DET1
 10
-26.000014
 20
435.967638
 30
530.0
  0
VERTEX
  5
8B2
  8
TEAM-DET1
 10
-25.940014
 20
435.657638
 30
530.0
  0
VERTEX
  5
8B3
  8
TEAM-DET1
 10
-25.790014
 20
435.337638
 30
530.0
  0
VERTEX
  5
8B4
  8
TEAM-DET1
 10
-25.540014
 20
435.027638
 30
530.0
  0
VERTEX
  5
8B5
  8
TEAM-DET1
 10
-25.180014
 20
434.727638
 30
530.0
  0
VERTEX
  5
8B6
  8
TEAM-DET1
 10
-24.730014
 20
434.417638
 30
530.0
  0
VERTEX
  5
8B7
  8
TEAM-DET1
 10
-24.170014
 20
434.127638
 30
530.0
  0
VERTEX
  5
8B8
  8
TEAM-DET1
 10
-23.520014
 20
433.837638
 30
530.0
  0
VERTEX
  5
8B9
  8
TEAM-DET1
 10
-22.780014
 20
433.557638
 30
530.0
  0
VERTEX
  5
8BA
  8
TEAM-DET1
 10
-21.950014
 20
433.287638
 30
530.0
  0
VERTEX
  5
8BB
  8
TEAM-DET1
 10
-21.030014
 20
433.027638
 30
530.0
  0
VERTEX
  5
8BC
  8
TEAM-DET1
 10
-20.030014
 20
432.777638
 30
530.0
  0
VERTEX
  5
8BD
  8
TEAM-DET1
 10
-18.950014
 20
432.547638
 30
530.0
  0
VERTEX
  5
8BE
  8
TEAM-DET1
 10
-17.800014
 20
432.317638
 30
530.0
  0
VERTEX
  5
8BF
  8
TEAM-DET1
 10
-16.570014
 20
432.117638
 30
530.0
  0
VERTEX
  5
8C0
  8
TEAM-DET1
 10
-15.280014
 20
431.917638
 30
530.0
  0
VERTEX
  5
8C1
  8
TEAM-DET1
 10
-13.930014
 20
431.747638
 30
530.0
  0
VERTEX
  5
8C2
  8
TEAM-DET1
 10
-12.520014
 20
431.587638
 30
530.0
  0
VERTEX
  5
8C3
  8
TEAM-DET1
 10
-11.070014
 20
431.447638
 30
530.0
  0
VERTEX
  5
8C4
  8
TEAM-DET1
 10
-9.570014
 20
431.317638
 30
530.0
  0
VERTEX
  5
8C5
  8
TEAM-DET1
 10
-8.030014
 20
431.217638
 30
530.0
  0
VERTEX
  5
8C6
  8
TEAM-DET1
 10
-6.460014
 20
431.127638
 30
530.0
  0
VERTEX
  5
8C7
  8
TEAM-DET1
 10
-4.870014
 20
431.057638
 30
530.0
  0
VERTEX
  5
8C8
  8
TEAM-DET1
 10
-3.260014
 20
431.007638
 30
530.0
  0
VERTEX
  5
8C9
  8
TEAM-DET1
 10
-1.630014
 20
430.977638
 30
530.0
  0
VERTEX
  5
8CA
  8
TEAM-DET1
 10
-0.000013
 20
430.967638
 30
530.0
  0
VERTEX
  5
8CB
  8
TEAM-DET1
 10
1.629987
 20
430.977638
 30
530.0
  0
VERTEX
  5
8CC
  8
TEAM-DET1
 10
3.259987
 20
431.007638
 30
530.0
  0
VERTEX
  5
8CD
  8
TEAM-DET1
 10
4.879987
 20
431.057638
 30
530.0
  0
VERTEX
  5
8CE
  8
TEAM-DET1
 10
6.469987
 20
431.127638
 30
530.0
  0
VERTEX
  5
8CF
  8
TEAM-DET1
 10
8.039987
 20
431.217638
 30
530.0
  0
VERTEX
  5
8D0
  8
TEAM-DET1
 10
9.579987
 20
431.317638
 30
530.0
  0
VERTEX
  5
8D1
  8
TEAM-DET1
 10
11.069987
 20
431.447638
 30
530.0
  0
VERTEX
  5
8D2
  8
TEAM-DET1
 10
12.529987
 20
431.587638
 30
530.0
  0
VERTEX
  5
8D3
  8
TEAM-DET1
 10
13.929987
 20
431.747638
 30
530.0
  0
VERTEX
  5
8D4
  8
TEAM-DET1
 10
15.289987
 20
431.917638
 30
530.0
  0
VERTEX
  5
8D5
  8
TEAM-DET1
 10
16.579987
 20
432.117638
 30
530.0
  0
VERTEX
  5
8D6
  8
TEAM-DET1
 10
17.799987
 20
432.317638
 30
530.0
  0
VERTEX
  5
8D7
  8
TEAM-DET1
 10
18.949987
 20
432.547638
 30
530.0
  0
VERTEX
  5
8D8
  8
TEAM-DET1
 10
20.039987
 20
432.777638
 30
530.0
  0
VERTEX
  5
8D9
  8
TEAM-DET1
 10
21.039987
 20
433.027638
 30
530.0
  0
VERTEX
  5
8DA
  8
TEAM-DET1
 10
21.949987
 20
433.287638
 30
530.0
  0
VERTEX
  5
8DB
  8
TEAM-DET1
 10
22.789987
 20
433.557638
 30
530.0
  0
VERTEX
  5
8DC
  8
TEAM-DET1
 10
23.529987
 20
433.837638
 30
530.0
  0
VERTEX
  5
8DD
  8
TEAM-DET1
 10
24.179987
 20
434.127638
 30
530.0
  0
SEQEND
  5
8DE
  8
TEAM-DET1
  0
POLYLINE
  5
1AB
  8
TEAM-DET1
 66
     1
 10
0.0
 20
0.0
 30
530.0
  0
VERTEX
  5
8DF
  8
TEAM-DET1
 10
25.999987
 20
435.967638
 30
530.0
  0
VERTEX
  5
8E0
  8
TEAM-DET1
 10
25.949987
 20
436.277638
 30
530.0
  0
VERTEX
  5
8E1
  8
TEAM-DET1
 10
25.799987
 20
436.597638
 30
530.0
  0
VERTEX
  5
8E2
  8
TEAM-DET1
 10
25.539987
 20
436.907638
 30
530.0
  0
VERTEX
  5
8E3
  8
TEAM-DET1
 10
25.189987
 20
437.207638
 30
530.0
  0
VERTEX
  5
8E4
  8
TEAM-DET1
 10
24.729987
 20
437.507638
 30
530.0
  0
VERTEX
  5
8E5
  8
TEAM-DET1
 10
24.179987
 20
437.807638
 30
530.0
  0
VERTEX
  5
8E6
  8
TEAM-DET1
 10
23.529987
 20
438.097638
 30
530.0
  0
VERTEX
  5
8E7
  8
TEAM-DET1
 10
22.789987
 20
438.377638
 30
530.0
  0
VERTEX
  5
8E8
  8
TEAM-DET1
 10
21.949987
 20
438.647638
 30
530.0
  0
VERTEX
  5
8E9
  8
TEAM-DET1
 10
21.039987
 20
438.907638
 30
530.0
  0
VERTEX
  5
8EA
  8
TEAM-DET1
 10
20.039987
 20
439.157638
 30
530.0
  0
VERTEX
  5
8EB
  8
TEAM-DET1
 10
18.949987
 20
439.387638
 30
530.0
  0
VERTEX
  5
8EC
  8
TEAM-DET1
 10
17.799987
 20
439.617638
 30
530.0
  0
VERTEX
  5
8ED
  8
TEAM-DET1
 10
16.579987
 20
439.817638
 30
530.0
  0
VERTEX
  5
8EE
  8
TEAM-DET1
 10
15.289987
 20
440.007638
 30
530.0
  0
VERTEX
  5
8EF
  8
TEAM-DET1
 10
13.929987
 20
440.187638
 30
530.0
  0
VERTEX
  5
8F0
  8
TEAM-DET1
 10
12.529987
 20
440.347638
 30
530.0
  0
VERTEX
  5
8F1
  8
TEAM-DET1
 10
11.069987
 20
440.487638
 30
530.0
  0
VERTEX
  5
8F2
  8
TEAM-DET1
 10
9.579987
 20
440.617638
 30
530.0
  0
VERTEX
  5
8F3
  8
TEAM-DET1
 10
8.039987
 20
440.727638
 30
530.0
  0
VERTEX
  5
8F4
  8
TEAM-DET1
 10
6.469987
 20
440.807638
 30
530.0
  0
VERTEX
  5
8F5
  8
TEAM-DET1
 10
4.879987
 20
440.877638
 30
530.0
  0
VERTEX
  5
8F6
  8
TEAM-DET1
 10
3.259987
 20
440.927638
 30
530.0
  0
VERTEX
  5
8F7
  8
TEAM-DET1
 10
1.629987
 20
440.957638
 30
530.0
  0
VERTEX
  5
8F8
  8
TEAM-DET1
 10
-0.000013
 20
440.967638
 30
530.0
  0
VERTEX
  5
8F9
  8
TEAM-DET1
 10
-1.630014
 20
440.957638
 30
530.0
  0
VERTEX
  5
8FA
  8
TEAM-DET1
 10
-3.260014
 20
440.927638
 30
530.0
  0
VERTEX
  5
8FB
  8
TEAM-DET1
 10
-4.870014
 20
440.877638
 30
530.0
  0
VERTEX
  5
8FC
  8
TEAM-DET1
 10
-6.460014
 20
440.807638
 30
530.0
  0
VERTEX
  5
8FD
  8
TEAM-DET1
 10
-8.030014
 20
440.727638
 30
530.0
  0
VERTEX
  5
8FE
  8
TEAM-DET1
 10
-9.570014
 20
440.617638
 30
530.0
  0
VERTEX
  5
8FF
  8
TEAM-DET1
 10
-11.070014
 20
440.487638
 30
530.0
  0
VERTEX
  5
900
  8
TEAM-DET1
 10
-12.520014
 20
440.347638
 30
530.0
  0
VERTEX
  5
901
  8
TEAM-DET1
 10
-13.930014
 20
440.187638
 30
530.0
  0
VERTEX
  5
902
  8
TEAM-DET1
 10
-15.280014
 20
440.007638
 30
530.0
  0
VERTEX
  5
903
  8
TEAM-DET1
 10
-16.570014
 20
439.817638
 30
530.0
  0
VERTEX
  5
904
  8
TEAM-DET1
 10
-17.800014
 20
439.617638
 30
530.0
  0
VERTEX
  5
905
  8
TEAM-DET1
 10
-18.950014
 20
439.387638
 30
530.0
  0
VERTEX
  5
906
  8
TEAM-DET1
 10
-20.030014
 20
439.157638
 30
530.0
  0
VERTEX
  5
907
  8
TEAM-DET1
 10
-21.030014
 20
438.907638
 30
530.0
  0
VERTEX
  5
908
  8
TEAM-DET1
 10
-21.950014
 20
438.647638
 30
530.0
  0
VERTEX
  5
909
  8
TEAM-DET1
 10
-22.780014
 20
438.377638
 30
530.0
  0
VERTEX
  5
90A
  8
TEAM-DET1
 10
-23.520014
 20
438.097638
 30
530.0
  0
VERTEX
  5
90B
  8
TEAM-DET1
 10
-24.170014
 20
437.807638
 30
530.0
  0
VERTEX
  5
90C
  8
TEAM-DET1
 10
-24.730014
 20
437.507638
 30
530.0
  0
VERTEX
  5
90D
  8
TEAM-DET1
 10
-25.180014
 20
437.207638
 30
530.0
  0
VERTEX
  5
90E
  8
TEAM-DET1
 10
-25.540014
 20
436.907638
 30
530.0
  0
SEQEND
  5
90F
  8
TEAM-DET1
  0
POLYLINE
  5
1AC
  8
TEAM-BODY
 66
     1
 10
0.0
 20
0.0
 30
600.0
 39
-32.0
 70
   128
  0
VERTEX
  5
910
  8
TEAM-BODY
 10
950.0
 20
0.0
 30
600.0
  0
VERTEX
  5
911
  8
TEAM-BODY
 10
950.0
 20
488.72
 30
600.0
  0
VERTEX
  5
912
  8
TEAM-BODY
 10
950.0
 20
488.72
 30
600.0
 42
0.198915
  0
VERTEX
  5
913
  8
TEAM-BODY
 10
946.696
 20
496.696
 30
600.0
  0
VERTEX
  5
914
  8
TEAM-BODY
 10
946.696
 20
496.696
 30
600.0
 42
0.198909
  0
VERTEX
  5
915
  8
TEAM-BODY
 10
938.72
 20
500.0
 30
600.0
  0
VERTEX
  5
916
  8
TEAM-BODY
 10
-938.72
 20
500.0
 30
600.0
  0
VERTEX
  5
917
  8
TEAM-BODY
 10
-938.72
 20
500.0
 30
600.0
 42
0.198915
  0
VERTEX
  5
918
  8
TEAM-BODY
 10
-946.696
 20
496.696
 30
600.0
  0
VERTEX
  5
919
  8
TEAM-BODY
 10
-946.696
 20
496.696
 30
600.0
 42
0.198909
  0
VERTEX
  5
91A
  8
TEAM-BODY
 10
-950.0
 20
488.72
 30
600.0
  0
VERTEX
  5
91B
  8
TEAM-BODY
 10
-950.0
 20
0.0
 30
600.0
  0
SEQEND
  5
91C
  8
TEAM-BODY
  0
POLYLINE
  5
1AD
  8
TEAM-BODY
 66
     1
 10
0.0
 20
0.0
 30
600.0
 39
-32.0
 70
   128
  0
VERTEX
  5
91D
  8
TEAM-BODY
 10
950.0
 20
0.0
 30
600.0
  0
VERTEX
  5
91E
  8
TEAM-BODY
 10
950.0
 20
-488.72
 30
600.0
  0
VERTEX
  5
91F
  8
TEAM-BODY
 10
950.0
 20
-488.72
 30
600.0
 42
-0.198915
  0
VERTEX
  5
920
  8
TEAM-BODY
 10
946.696
 20
-496.696
 30
600.0
  0
VERTEX
  5
921
  8
TEAM-BODY
 10
946.696
 20
-496.696
 30
600.0
 42
-0.198909
  0
VERTEX
  5
922
  8
TEAM-BODY
 10
938.72
 20
-500.0
 30
600.0
  0
VERTEX
  5
923
  8
TEAM-BODY
 10
-938.72
 20
-500.0
 30
600.0
  0
VERTEX
  5
924
  8
TEAM-BODY
 10
-938.72
 20
-500.0
 30
600.0
 42
-0.198915
  0
VERTEX
  5
925
  8
TEAM-BODY
 10
-946.696
 20
-496.696
 30
600.0
  0
VERTEX
  5
926
  8
TEAM-BODY
 10
-946.696
 20
-496.696
 30
600.0
 42
-0.198909
  0
VERTEX
  5
927
  8
TEAM-BODY
 10
-950.0
 20
-488.72
 30
600.0
  0
VERTEX
  5
928
  8
TEAM-BODY
 10
-950.0
 20
0.0
 30
600.0
  0
SEQEND
  5
929
  8
TEAM-BODY
  0
POLYLINE
  5
1AE
  8
TEAM-BODY
 66
     1
 10
0.0
 20
0.0
 30
600.0
  0
VERTEX
  5
92A
  8
TEAM-BODY
 10
920.1
 20
0.0
 30
600.0
 42
0.298914
  0
VERTEX
  5
92B
  8
TEAM-BODY
 10
709.277858
 20
321.137858
 30
600.0
 42
0.208898
  0
VERTEX
  5
92C
  8
TEAM-BODY
 10
-705.896713
 20
322.540049
 30
600.0
 42
0.301693
  0
VERTEX
  5
92D
  8
TEAM-BODY
 10
-920.0
 20
0.0
 30
600.0
  0
SEQEND
  5
92E
  8
TEAM-BODY
  0
POLYLINE
  5
1AF
  8
TEAM-NET
 66
     1
 10
0.0
 20
0.0
 30
0.0
 70
    16
 71
     2
 72
    37
  0
VERTEX
  5
1B0
  8
TEAM-NET
 10
920.1
 20
0.0
 30
600.0
 70
    64
  0
VERTEX
  5
1B1
  8
TEAM-NET
 10
914.421147
 20
62.792895
 30
600.0
 70
    64
  0
VERTEX
  5
1B2
  8
TEAM-NET
 10
897.56887
 20
123.548124
 30
600.0
 70
    64
  0
VERTEX
  5
1B3
  8
TEAM-NET
 10
870.090036
 20
180.294143
 30
600.0
 70
    64
  0
VERTEX
  5
1B4
  8
TEAM-NET
 10
832.876349
 20
231.189512
 30
600.0
 70
    64
  0
VERTEX
  5
1B5
  8
TEAM-NET
 10
787.135415
 20
274.582644
 30
600.0
 70
    64
  0
VERTEX
  5
1B6
  8
TEAM-NET
 10
734.351554
 20
309.065409
 30
600.0
 70
    64
  0
VERTEX
  5
1B7
  8
TEAM-NET
 10
676.805821
 20
334.977142
 30
600.0
 70
    64
  0
VERTEX
  5
1B8
  8
TEAM-NET
 10
618.062383
 20
358.102418
 30
600.0
 70
    64
  0
VERTEX
  5
1B9
  8
TEAM-NET
 10
558.530574
 20
379.115116
 30
600.0
 70
    64
  0
VERTEX
  5
1BA
  8
TEAM-NET
 10
498.286339
 20
397.988429
 30
600.0
 70
    64
  0
VERTEX
  5
1BB
  8
TEAM-NET
 10
437.406534
 20
414.698281
 30
600.0
 70
    64
  0
VERTEX
  5
1BC
  8
TEAM-NET
 10
375.968825
 20
429.223353
 30
600.0
 70
    64
  0
VERTEX
  5
1BD
  8
TEAM-NET
 10
314.051591
 20
441.545117
 30
600.0
 70
    64
  0
VERTEX
  5
1BE
  8
TEAM-NET
 10
251.73382
 20
451.647853
 30
600.0
 70
    64
  0
VERTEX
  5
1BF
  8
TEAM-NET
 10
189.095014
 20
459.518671
 30
600.0
 70
    64
  0
VERTEX
  5
1C0
  8
TEAM-NET
 10
126.215083
 20
465.147532
 30
600.0
 70
    64
  0
VERTEX
  5
1C1
  8
TEAM-NET
 10
63.174245
 20
468.527255
 30
600.0
 70
    64
  0
VERTEX
  5
1C2
  8
TEAM-NET
 10
0.052923
 20
469.653527
 30
600.0
 70
    64
  0
VERTEX
  5
1C3
  8
TEAM-NET
 10
-63.068358
 20
468.524912
 30
600.0
 70
    64
  0
VERTEX
  5
1C4
  8
TEAM-NET
 10
-126.10907
 20
465.14285
 30
600.0
 70
    64
  0
VERTEX
  5
1C5
  8
TEAM-NET
 10
-188.988793
 20
459.511655
 30
600.0
 70
    64
  0
VERTEX
  5
1C6
  8
TEAM-NET
 10
-251.627306
 20
451.638512
 30
600.0
 70
    64
  0
VERTEX
  5
1C7
  8
TEAM-NET
 10
-313.944702
 20
441.533464
 30
600.0
 70
    64
  0
VERTEX
  5
1C8
  8
TEAM-NET
 10
-375.861479
 20
429.209402
 30
600.0
 70
    64
  0
VERTEX
  5
1C9
  8
TEAM-NET
 10
-437.298649
 20
414.682049
 30
600.0
 70
    64
  0
VERTEX
  5
1CA
  8
TEAM-NET
 10
-498.177834
 20
397.969938
 30
600.0
 70
    64
  0
VERTEX
  5
1CB
  8
TEAM-NET
 10
-558.421368
 20
379.094389
 30
600.0
 70
    64
  0
VERTEX
  5
1CC
  8
TEAM-NET
 10
-617.952398
 20
358.079482
 30
600.0
 70
    64
  0
VERTEX
  5
1CD
  8
TEAM-NET
 10
-676.694977
 20
334.952026
 30
600.0
 70
    64
  0
VERTEX
  5
1CE
  8
TEAM-NET
 10
-734.251554
 20
309.065409
 30
600.0
 70
    64
  0
VERTEX
  5
1CF
  8
TEAM-NET
 10
-787.035415
 20
274.582644
 30
600.0
 70
    64
  0
VERTEX
  5
1D0
  8
TEAM-NET
 10
-832.776349
 20
231.189512
 30
600.0
 70
    64
  0
VERTEX
  5
1D1
  8
TEAM-NET
 10
-869.990036
 20
180.294143
 30
600.0
 70
    64
  0
VERTEX
  5
1D2
  8
TEAM-NET
 10
-897.46887
 20
123.548124
 30
600.0
 70
    64
  0
VERTEX
  5
1D3
  8
TEAM-NET
 10
-914.321147
 20
62.792895
 30
600.0
 70
    64
  0
VERTEX
  5
1D4
  8
TEAM-NET
 10
-920.0
 20
0.0
 30
600.0
 70
    64
  0
VERTEX
  5
1D5
  8
TEAM-NET
 10
950.0
 20
0.0
 30
600.0
 70
    64
  0
VERTEX
  5
1D6
  8
TEAM-NET
 10
950.0
 20
80.289355
 30
600.0
 70
    64
  0
VERTEX
  5
1D7
  8
TEAM-NET
 10
950.0
 20
160.578711
 30
600.0
 70
    64
  0
VERTEX
  5
1D8
  8
TEAM-NET
 10
950.0
 20
240.868066
 30
600.0
 70
    64
  0
VERTEX
  5
1D9
  8
TEAM-NET
 10
950.0
 20
321.157422
 30
600.0
 70
    64
  0
VERTEX
  5
1DA
  8
TEAM-NET
 10
950.0
 20
401.446777
 30
600.0
 70
    64
  0
VERTEX
  5
1DB
  8
TEAM-NET
 10
950.0
 20
481.736133
 30
600.0
 70
    64
  0
VERTEX
  5
1DC
  8
TEAM-NET
 10
883.23291
 20
500.0
 30
600.0
 70
    64
  0
VERTEX
  5
1DD
  8
TEAM-NET
 10
802.943555
 20
500.0
 30
600.0
 70
    64
  0
VERTEX
  5
1DE
  8
TEAM-NET
 10
722.654199
 20
500.0
 30
600.0
 70
    64
  0
VERTEX
  5
1DF
  8
TEAM-NET
 10
642.364844
 20
500.0
 30
600.0
 70
    64
  0
VERTEX
  5
1E0
  8
TEAM-NET
 10
562.075488
 20
500.0
 30
600.0
 70
    64
  0
VERTEX
  5
1E1
  8
TEAM-NET
 10
481.786133
 20
500.0
 30
600.0
 70
    64
  0
VERTEX
  5
1E2
  8
TEAM-NET
 10
401.496777
 20
500.0
 30
600.0
 70
    64
  0
VERTEX
  5
1E3
  8
TEAM-NET
 10
321.207422
 20
500.0
 30
600.0
 70
    64
  0
VERTEX
  5
1E4
  8
TEAM-NET
 10
240.918066
 20
500.0
 30
600.0
 70
    64
  0
VERTEX
  5
1E5
  8
TEAM-NET
 10
160.628711
 20
500.0
 30
600.0
 70
    64
  0
VERTEX
  5
1E6
  8
TEAM-NET
 10
80.339355
 20
500.0
 30
600.0
 70
    64
  0
VERTEX
  5
1E7
  8
TEAM-NET
 10
0.05
 20
500.0
 30
600.0
 70
    64
  0
VERTEX
  5
1E8
  8
TEAM-NET
 10
-80.239355
 20
500.0
 30
600.0
 70
    64
  0
VERTEX
  5
1E9
  8
TEAM-NET
 10
-160.528711
 20
500.0
 30
600.0
 70
    64
  0
VERTEX
  5
1EA
  8
TEAM-NET
 10
-240.818066
 20
500.0
 30
600.0
 70
    64
  0
VERTEX
  5
1EB
  8
TEAM-NET
 10
-321.107422
 20
500.0
 30
600.0
 70
    64
  0
VERTEX
  5
1EC
  8
TEAM-NET
 10
-401.396777
 20
500.0
 30
600.0
 70
    64
  0
VERTEX
  5
1ED
  8
TEAM-NET
 10
-481.686133
 20
500.0
 30
600.0
 70
    64
  0
VERTEX
  5
1EE
  8
TEAM-NET
 10
-561.975488
 20
500.0
 30
600.0
 70
    64
  0
VERTEX
  5
1EF
  8
TEAM-NET
 10
-642.264844
 20
500.0
 30
600.0
 70
    64
  0
VERTEX
  5
1F0
  8
TEAM-NET
 10
-722.554199
 20
500.0
 30
600.0
 70
    64
  0
VERTEX
  5
1F1
  8
TEAM-NET
 10
-802.843555
 20
500.0
 30
600.0
 70
    64
  0
VERTEX
  5
1F2
  8
TEAM-NET
 10
-883.13291
 20
500.0
 30
600.0
 70
    64
  0
VERTEX
  5
1F3
  8
TEAM-NET
 10
-950.0
 20
481.736133
 30
600.0
 70
    64
  0
VERTEX
  5
1F4
  8
TEAM-NET
 10
-950.0
 20
401.446777
 30
600.0
 70
    64
  0
VERTEX
  5
1F5
  8
TEAM-NET
 10
-950.0
 20
321.157422
 30
600.0
 70
    64
  0
VERTEX
  5
1F6
  8
TEAM-NET
 10
-950.0
 20
240.868066
 30
600.0
 70
    64
  0
VERTEX
  5
1F7
  8
TEAM-NET
 10
-950.0
 20
160.578711
 30
600.0
 70
    64
  0
VERTEX
  5
1F8
  8
TEAM-NET
 10
-950.0
 20
80.289355
 30
600.0
 70
    64
  0
VERTEX
  5
1F9
  8
TEAM-NET
 10
-950.0
 20
0.0
 30
600.0
 70
    64
  0
SEQEND
  5
1FA
  8
TEAM-NET
  0
POLYLINE
  5
1FB
  8
TEAM-BODY
 66
     1
 10
0.0
 20
0.0
 30
600.0
  0
VERTEX
  5
92F
  8
TEAM-BODY
 10
920.1
 20
0.0
 30
600.0
 42
-0.298914
  0
VERTEX
  5
930
  8
TEAM-BODY
 10
709.277858
 20
-321.137858
 30
600.0
 42
-0.208898
  0
VERTEX
  5
931
  8
TEAM-BODY
 10
-705.896713
 20
-322.540049
 30
600.0
 42
-0.301693
  0
VERTEX
  5
932
  8
TEAM-BODY
 10
-920.0
 20
0.0
 30
600.0
  0
SEQEND
  5
933
  8
TEAM-BODY
  0
POLYLINE
  5
1FC
  8
TEAM-NET
 66
     1
 10
0.0
 20
0.0
 30
0.0
 70
    16
 71
     2
 72
    37
  0
VERTEX
  5
1FD
  8
TEAM-NET
 10
-920.0
 20
0.0
 30
600.0
 70
    64
  0
VERTEX
  5
1FE
  8
TEAM-NET
 10
-914.321147
 20
-62.792895
 30
600.0
 70
    64
  0
VERTEX
  5
1FF
  8
TEAM-NET
 10
-897.46887
 20
-123.548124
 30
600.0
 70
    64
  0
VERTEX
  5
200
  8
TEAM-NET
 10
-869.990036
 20
-180.294143
 30
600.0
 70
    64
  0
VERTEX
  5
201
  8
TEAM-NET
 10
-832.776349
 20
-231.189512
 30
600.0
 70
    64
  0
VERTEX
  5
202
  8
TEAM-NET
 10
-787.035415
 20
-274.582644
 30
600.0
 70
    64
  0
VERTEX
  5
203
  8
TEAM-NET
 10
-734.251554
 20
-309.065409
 30
600.0
 70
    64
  0
VERTEX
  5
204
  8
TEAM-NET
 10
-676.694977
 20
-334.952026
 30
600.0
 70
    64
  0
VERTEX
  5
205
  8
TEAM-NET
 10
-617.952398
 20
-358.079482
 30
600.0
 70
    64
  0
VERTEX
  5
206
  8
TEAM-NET
 10
-558.421368
 20
-379.094389
 30
600.0
 70
    64
  0
VERTEX
  5
207
  8
TEAM-NET
 10
-498.177834
 20
-397.969938
 30
600.0
 70
    64
  0
VERTEX
  5
208
  8
TEAM-NET
 10
-437.298649
 20
-414.682049
 30
600.0
 70
    64
  0
VERTEX
  5
209
  8
TEAM-NET
 10
-375.861479
 20
-429.209402
 30
600.0
 70
    64
  0
VERTEX
  5
20A
  8
TEAM-NET
 10
-313.944702
 20
-441.533464
 30
600.0
 70
    64
  0
VERTEX
  5
20B
  8
TEAM-NET
 10
-251.627306
 20
-451.638512
 30
600.0
 70
    64
  0
VERTEX
  5
20C
  8
TEAM-NET
 10
-188.988793
 20
-459.511655
 30
600.0
 70
    64
  0
VERTEX
  5
20D
  8
TEAM-NET
 10
-126.10907
 20
-465.14285
 30
600.0
 70
    64
  0
VERTEX
  5
20E
  8
TEAM-NET
 10
-63.068358
 20
-468.524912
 30
600.0
 70
    64
  0
VERTEX
  5
20F
  8
TEAM-NET
 10
0.052923
 20
-469.653527
 30
600.0
 70
    64
  0
VERTEX
  5
210
  8
TEAM-NET
 10
63.174245
 20
-468.527255
 30
600.0
 70
    64
  0
VERTEX
  5
211
  8
TEAM-NET
 10
126.215083
 20
-465.147532
 30
600.0
 70
    64
  0
VERTEX
  5
212
  8
TEAM-NET
 10
189.095014
 20
-459.518671
 30
600.0
 70
    64
  0
VERTEX
  5
213
  8
TEAM-NET
 10
251.73382
 20
-451.647853
 30
600.0
 70
    64
  0
VERTEX
  5
214
  8
TEAM-NET
 10
314.051591
 20
-441.545117
 30
600.0
 70
    64
  0
VERTEX
  5
215
  8
TEAM-NET
 10
375.968825
 20
-429.223353
 30
600.0
 70
    64
  0
VERTEX
  5
216
  8
TEAM-NET
 10
437.406534
 20
-414.698281
 30
600.0
 70
    64
  0
VERTEX
  5
217
  8
TEAM-NET
 10
498.286339
 20
-397.988429
 30
600.0
 70
    64
  0
VERTEX
  5
218
  8
TEAM-NET
 10
558.530574
 20
-379.115116
 30
600.0
 70
    64
  0
VERTEX
  5
219
  8
TEAM-NET
 10
618.062383
 20
-358.102418
 30
600.0
 70
    64
  0
VERTEX
  5
21A
  8
TEAM-NET
 10
676.805821
 20
-334.977142
 30
600.0
 70
    64
  0
VERTEX
  5
21B
  8
TEAM-NET
 10
734.351554
 20
-309.065409
 30
600.0
 70
    64
  0
VERTEX
  5
21C
  8
TEAM-NET
 10
787.135415
 20
-274.582644
 30
600.0
 70
    64
  0
VERTEX
  5
21D
  8
TEAM-NET
 10
832.876349
 20
-231.189512
 30
600.0
 70
    64
  0
VERTEX
  5
21E
  8
TEAM-NET
 10
870.090036
 20
-180.294143
 30
600.0
 70
    64
  0
VERTEX
  5
21F
  8
TEAM-NET
 10
897.56887
 20
-123.548124
 30
600.0
 70
    64
  0
VERTEX
  5
220
  8
TEAM-NET
 10
914.421147
 20
-62.792895
 30
600.0
 70
    64
  0
VERTEX
  5
221
  8
TEAM-NET
 10
920.1
 20
0.0
 30
600.0
 70
    64
  0
VERTEX
  5
222
  8
TEAM-NET
 10
-950.0
 20
0.0
 30
600.0
 70
    64
  0
VERTEX
  5
223
  8
TEAM-NET
 10
-950.0
 20
-80.289355
 30
600.0
 70
    64
  0
VERTEX
  5
224
  8
TEAM-NET
 10
-950.0
 20
-160.578711
 30
600.0
 70
    64
  0
VERTEX
  5
225
  8
TEAM-NET
 10
-950.0
 20
-240.868066
 30
600.0
 70
    64
  0
VERTEX
  5
226
  8
TEAM-NET
 10
-950.0
 20
-321.157422
 30
600.0
 70
    64
  0
VERTEX
  5
227
  8
TEAM-NET
 10
-950.0
 20
-401.446777
 30
600.0
 70
    64
  0
VERTEX
  5
228
  8
TEAM-NET
 10
-950.0
 20
-481.736133
 30
600.0
 70
    64
  0
VERTEX
  5
229
  8
TEAM-NET
 10
-883.13291
 20
-500.0
 30
600.0
 70
    64
  0
VERTEX
  5
22A
  8
TEAM-NET
 10
-802.843555
 20
-500.0
 30
600.0
 70
    64
  0
VERTEX
  5
22B
  8
TEAM-NET
 10
-722.554199
 20
-500.0
 30
600.0
 70
    64
  0
VERTEX
  5
22C
  8
TEAM-NET
 10
-642.264844
 20
-500.0
 30
600.0
 70
    64
  0
VERTEX
  5
22D
  8
TEAM-NET
 10
-561.975488
 20
-500.0
 30
600.0
 70
    64
  0
VERTEX
  5
22E
  8
TEAM-NET
 10
-481.686133
 20
-500.0
 30
600.0
 70
    64
  0
VERTEX
  5
22F
  8
TEAM-NET
 10
-401.396777
 20
-500.0
 30
600.0
 70
    64
  0
VERTEX
  5
230
  8
TEAM-NET
 10
-321.107422
 20
-500.0
 30
600.0
 70
    64
  0
VERTEX
  5
231
  8
TEAM-NET
 10
-240.818066
 20
-500.0
 30
600.0
 70
    64
  0
VERTEX
  5
232
  8
TEAM-NET
 10
-160.528711
 20
-500.0
 30
600.0
 70
    64
  0
VERTEX
  5
233
  8
TEAM-NET
 10
-80.239355
 20
-500.0
 30
600.0
 70
    64
  0
VERTEX
  5
234
  8
TEAM-NET
 10
0.05
 20
-500.0
 30
600.0
 70
    64
  0
VERTEX
  5
235
  8
TEAM-NET
 10
80.339355
 20
-500.0
 30
600.0
 70
    64
  0
VERTEX
  5
236
  8
TEAM-NET
 10
160.628711
 20
-500.0
 30
600.0
 70
    64
  0
VERTEX
  5
237
  8
TEAM-NET
 10
240.918066
 20
-500.0
 30
600.0
 70
    64
  0
VERTEX
  5
238
  8
TEAM-NET
 10
321.207422
 20
-500.0
 30
600.0
 70
    64
  0
VERTEX
  5
239
  8
TEAM-NET
 10
401.496777
 20
-500.0
 30
600.0
 70
    64
  0
VERTEX
  5
23A
  8
TEAM-NET
 10
481.786133
 20
-500.0
 30
600.0
 70
    64
  0
VERTEX
  5
23B
  8
TEAM-NET
 10
562.075488
 20
-500.0
 30
600.0
 70
    64
  0
VERTEX
  5
23C
  8
TEAM-NET
 10
642.364844
 20
-500.0
 30
600.0
 70
    64
  0
VERTEX
  5
23D
  8
TEAM-NET
 10
722.654199
 20
-500.0
 30
600.0
 70
    64
  0
VERTEX
  5
23E
  8
TEAM-NET
 10
802.943555
 20
-500.0
 30
600.0
 70
    64
  0
VERTEX
  5
23F
  8
TEAM-NET
 10
883.23291
 20
-500.0
 30
600.0
 70
    64
  0
VERTEX
  5
240
  8
TEAM-NET
 10
950.0
 20
-481.736133
 30
600.0
 70
    64
  0
VERTEX
  5
241
  8
TEAM-NET
 10
950.0
 20
-401.446777
 30
600.0
 70
    64
  0
VERTEX
  5
242
  8
TEAM-NET
 10
950.0
 20
-321.157422
 30
600.0
 70
    64
  0
VERTEX
  5
243
  8
TEAM-NET
 10
950.0
 20
-240.868066
 30
600.0
 70
    64
  0
VERTEX
  5
244
  8
TEAM-NET
 10
950.0
 20
-160.578711
 30
600.0
 70
    64
  0
VERTEX
  5
245
  8
TEAM-NET
 10
950.0
 20
-80.289355
 30
600.0
 70
    64
  0
VERTEX
  5
246
  8
TEAM-NET
 10
950.0
 20
0.0
 30
600.0
 70
    64
  0
SEQEND
  5
247
  8
TEAM-NET
  0
TEXT
  5
248
  8
TEAM-TXT
 10
-871.236308
 20
418.428384
 30
600.0
 40
30.0
  1
team 111509
 41
0.7
 51
15.0
  7
TEAM
  0
ENDSEC
  0
EOF
