  0
SECTION
  2
HEADER
  9
$ACADVER
  1
AC1009
  9
$INSBASE
 10
0.0
 20
0.0
 30
0.0
  9
$EXTMIN
 10
-1107.454196
 20
-965.713493
 30
-0.015405
  9
$EXTMAX
 10
1224.072475
 20
965.767923
 30
700.038763
  9
$LIMMIN
 10
-1107.454196
 20
-965.713493
  9
$LIMMAX
 10
1224.072475
 20
965.767923
  9
$ORTHOMODE
 70
     1
  9
$REGENMODE
 70
     1
  9
$FILLMODE
 70
     1
  9
$QTEXTMODE
 70
     0
  9
$MIRRTEXT
 70
     0
  9
$DRAGMODE
 70
     2
  9
$LTSCALE
 40
50.0
  9
$OSMODE
 70
     7
  9
$ATTMODE
 70
     1
  9
$TEXTSIZE
 40
200.0
  9
$TRACEWID
 40
1.0
  9
$TEXTSTYLE
  7
STANDARD
  9
$CLAYER
  8
TEAM-MAS
  9
$CELTYPE
  6
BYLAYER
  9
$CECOLOR
 62
   256
  9
$DIMSCALE
 40
1.0
  9
$DIMASZ
 40
20.0
  9
$DIMEXO
 40
10.0
  9
$DIMDLI
 40
1.0
  9
$DIMRND
 40
0.0
  9
$DIMDLE
 40
0.0
  9
$DIMEXE
 40
1.0
  9
$DIMTP
 40
0.0
  9
$DIMTM
 40
0.0
  9
$DIMTXT
 40
35.0
  9
$DIMCEN
 40
1.0
  9
$DIMTSZ
 40
0.0
  9
$DIMTOL
 70
     0
  9
$DIMLIM
 70
     0
  9
$DIMTIH
 70
     0
  9
$DIMTOH
 70
     0
  9
$DIMSE1
 70
     0
  9
$DIMSE2
 70
     0
  9
$DIMTAD
 70
     0
  9
$DIMZIN
 70
     0
  9
$DIMBLK
  1

  9
$DIMASO
 70
     1
  9
$DIMSHO
 70
     0
  9
$DIMPOST
  1

  9
$DIMAPOST
  1

  9
$DIMALT
 70
     0
  9
$DIMALTD
 70
     2
  9
$DIMALTF
 40
25.4
  9
$DIMLFAC
 40
1.0
  9
$DIMTOFL
 70
     0
  9
$DIMTVP
 40
0.0
  9
$DIMTIX
 70
     0
  9
$DIMSOXD
 70
     0
  9
$DIMSAH
 70
     0
  9
$DIMBLK1
  1

  9
$DIMBLK2
  1

  9
$DIMSTYLE
  2
TEAM
  9
$DIMCLRD
 70
     9
  9
$DIMCLRE
 70
     9
  9
$DIMCLRT
 70
    11
  9
$DIMTFAC
 40
1.0
  9
$DIMGAP
 40
15.0
  9
$LUNITS
 70
     2
  9
$LUPREC
 70
     1
  9
$SKETCHINC
 40
1.0
  9
$FILLETRAD
 40
300.0
  9
$AUNITS
 70
     0
  9
$AUPREC
 70
     0
  9
$MENU
  1
ROPLANS
  9
$ELEVATION
 40
0.0
  9
$PELEVATION
 40
0.0
  9
$THICKNESS
 40
0.0
  9
$LIMCHECK
 70
     0
  9
$BLIPMODE
 70
     1
  9
$CHAMFERA
 40
0.0
  9
$CHAMFERB
 40
0.0
  9
$SKPOLY
 70
     0
  9
$TDCREATE
 40
2450392.957851
  9
$TDUPDATE
 40
2455843.591272
  9
$TDINDWG
 40
2.850297
  9
$TDUSRTIMER
 40
2.850297
  9
$USRTIMER
 70
     1
  9
$ANGBASE
 50
0.0
  9
$ANGDIR
 70
     0
  9
$PDMODE
 70
     0
  9
$PDSIZE
 40
0.0
  9
$PLINEWID
 40
0.0
  9
$COORDS
 70
     2
  9
$SPLFRAME
 70
     0
  9
$SPLINETYPE
 70
     6
  9
$SPLINESEGS
 70
     8
  9
$ATTDIA
 70
     0
  9
$ATTREQ
 70
     0
  9
$HANDLING
 70
     1
  9
$HANDSEED
  5
51F
  9
$SURFTAB1
 70
    64
  9
$SURFTAB2
 70
    64
  9
$SURFTYPE
 70
     6
  9
$SURFU
 70
     6
  9
$SURFV
 70
     6
  9
$UCSNAME
  2

  9
$UCSORG
 10
0.0
 20
0.0
 30
0.0
  9
$UCSXDIR
 10
1.0
 20
0.0
 30
0.0
  9
$UCSYDIR
 10
0.0
 20
1.0
 30
0.0
  9
$PUCSNAME
  2

  9
$PUCSORG
 10
0.0
 20
0.0
 30
0.0
  9
$PUCSXDIR
 10
1.0
 20
0.0
 30
0.0
  9
$PUCSYDIR
 10
0.0
 20
1.0
 30
0.0
  9
$USERI1
 70
     0
  9
$USERI2
 70
     0
  9
$USERI3
 70
     0
  9
$USERI4
 70
     0
  9
$USERI5
 70
     0
  9
$USERR1
 40
0.0
  9
$USERR2
 40
0.0
  9
$USERR3
 40
0.0
  9
$USERR4
 40
0.0
  9
$USERR5
 40
0.0
  9
$WORLDVIEW
 70
     1
  9
$SHADEDGE
 70
     0
  9
$SHADEDIF
 70
    70
  9
$TILEMODE
 70
     1
  9
$MAXACTVP
 70
    16
  9
$PLIMCHECK
 70
     0
  9
$PEXTMIN
 10
-0.805942
 20
0.005011
 30
0.0
  9
$PEXTMAX
 10
20.250094
 20
11.356329
 30
0.0
  9
$PLIMMIN
 10
0.0
 20
0.0
  9
$PLIMMAX
 10
12.0
 20
9.0
  9
$UNITMODE
 70
     0
  9
$VISRETAIN
 70
     0
  9
$PLINEGEN
 70
     0
  9
$PSLTSCALE
 70
     0
  0
ENDSEC
  0
SECTION
  2
TABLES
  0
TABLE
  2
VPORT
 70
     2
  0
VPORT
  2
*ACTIVE
 70
     0
 10
0.0
 20
0.0
 11
1.0
 21
1.0
 12
58.30914
 22
0.027215
 13
0.0
 23
0.0
 14
1.0
 24
1.0
 15
50.0
 25
50.0
 16
0.0
 26
0.0
 36
1.0
 17
0.0
 27
0.0
 37
0.0
 40
1943.591018
 41
1.903766
 42
50.0
 43
0.0
 44
0.0
 50
0.0
 51
0.0
 71
     0
 72
   100
 73
     1
 74
     1
 75
     0
 76
     0
 77
     0
 78
     0
  0
ENDTAB
  0
TABLE
  2
LTYPE
 70
     1
  0
LTYPE
  2
CONTINUOUS
 70
     0
  3
Solid Line
 72
    65
 73
     0
 40
0.0
  0
ENDTAB
  0
TABLE
  2
LAYER
 70
     7
  0
LAYER
  2
0
 70
     0
 62
     7
  6
CONTINUOUS
  0
LAYER
  2
TEAM-BODY
 70
     0
 62
     2
  6
CONTINUOUS
  0
LAYER
  2
TEAM-MAS
 70
     0
 62
     9
  6
CONTINUOUS
  0
LAYER
  2
TEAM-TXT
 70
     0
 62
    11
  6
CONTINUOUS
  0
LAYER
  2
TEAM-DET1
 70
     0
 62
     4
  6
CONTINUOUS
  0
LAYER
  2
TEAM-NET
 70
     0
 62
    15
  6
CONTINUOUS
  0
LAYER
  2
TEAM-INSP
 70
     0
 62
     5
  6
CONTINUOUS
  0
ENDTAB
  0
TABLE
  2
STYLE
 70
     2
  0
STYLE
  2
STANDARD
 70
     0
 40
0.0
 41
1.0
 50
0.0
 71
     0
 42
200.0
  3
txt
  4

  0
STYLE
  2
TEAM
 70
     0
 40
0.0
 41
0.8
 50
15.0
 71
     0
 42
7.0
  3
ROMANS.shx
  4

  0
ENDTAB
  0
TABLE
  2
VIEW
 70
     0
  0
ENDTAB
  0
TABLE
  2
UCS
 70
     0
  0
ENDTAB
  0
TABLE
  2
APPID
 70
     1
  0
APPID
  2
ACAD
 70
     0
  0
ENDTAB
  0
TABLE
  2
DIMSTYLE
 70
     1
  0
DIMSTYLE
  2
TEAM
 70
     0
  3

  4

  5

  6

  7

 40
1.0
 41
20.0
 42
10.0
 43
1.0
 44
1.0
 45
0.0
 46
0.0
 47
0.0
 48
0.0
140
35.0
141
1.0
142
0.0
143
25.4
144
1.0
145
0.0
146
1.0
147
15.0
 71
     0
 72
     0
 73
     0
 74
     0
 75
     0
 76
     0
 77
     0
 78
     0
170
     0
171
     2
172
     0
173
     0
174
     0
175
     0
176
     9
177
     9
178
    11
  0
ENDTAB
  0
ENDSEC
  0
SECTION
  2
BLOCKS
  0
BLOCK
  8
0
  2
$MODEL_SPACE
 70
     0
 10
0.0
 20
0.0
 30
0.0
  3
$MODEL_SPACE
  1

  0
ENDBLK
  5
46D
  8
0
  0
BLOCK
 67
     1
  8
0
  2
$PAPER_SPACE
 70
     0
 10
0.0
 20
0.0
 30
0.0
  3
$PAPER_SPACE
  1

  0
ENDBLK
  5
46B
 67
     1
  8
0
  0
ENDSEC
  0
SECTION
  2
ENTITIES
  0
POLYLINE
  5
20
  8
TEAM-NET
 66
     1
 10
0.0
 20
0.0
 30
0.0
 70
    16
 71
     2
 72
    65
  0
VERTEX
  5
21
  8
TEAM-NET
 10
918.255698
 20
0.0
 30
700.0
 70
    64
  0
VERTEX
  5
22
  8
TEAM-NET
 10
917.124474
 20
-38.625591
 30
700.0
 70
    64
  0
VERTEX
  5
23
  8
TEAM-NET
 10
913.734679
 20
-77.118776
 30
700.0
 70
    64
  0
VERTEX
  5
24
  8
TEAM-NET
 10
908.097933
 20
-115.347601
 30
700.0
 70
    64
  0
VERTEX
  5
25
  8
TEAM-NET
 10
900.23356
 20
-153.18102
 30
700.0
 70
    64
  0
VERTEX
  5
26
  8
TEAM-NET
 10
890.168517
 20
-190.489342
 30
700.0
 70
    64
  0
VERTEX
  5
27
  8
TEAM-NET
 10
877.937307
 20
-227.144676
 30
700.0
 70
    64
  0
VERTEX
  5
28
  8
TEAM-NET
 10
863.581858
 20
-263.021368
 30
700.0
 70
    64
  0
VERTEX
  5
29
  8
TEAM-NET
 10
847.15138
 20
-297.996436
 30
700.0
 70
    64
  0
VERTEX
  5
2A
  8
TEAM-NET
 10
828.702196
 20
-331.949986
 30
700.0
 70
    64
  0
VERTEX
  5
2B
  8
TEAM-NET
 10
808.297548
 20
-364.765628
 30
700.0
 70
    64
  0
VERTEX
  5
2C
  8
TEAM-NET
 10
786.007383
 20
-396.33087
 30
700.0
 70
    64
  0
VERTEX
  5
2D
  8
TEAM-NET
 10
761.908111
 20
-426.537509
 30
700.0
 70
    64
  0
VERTEX
  5
2E
  8
TEAM-NET
 10
736.082342
 20
-455.281998
 30
700.0
 70
    64
  0
VERTEX
  5
2F
  8
TEAM-NET
 10
708.618607
 20
-482.465802
 30
700.0
 70
    64
  0
VERTEX
  5
30
  8
TEAM-NET
 10
679.611049
 20
-507.995737
 30
700.0
 70
    64
  0
VERTEX
  5
31
  8
TEAM-NET
 10
649.159105
 20
-531.784286
 30
700.0
 70
    64
  0
VERTEX
  5
32
  8
TEAM-NET
 10
617.367162
 20
-553.749904
 30
700.0
 70
    64
  0
VERTEX
  5
33
  8
TEAM-NET
 10
584.344203
 20
-573.817294
 30
700.0
 70
    64
  0
VERTEX
  5
34
  8
TEAM-NET
 10
550.203428
 20
-591.917666
 30
700.0
 70
    64
  0
VERTEX
  5
35
  8
TEAM-NET
 10
515.06187
 20
-607.988972
 30
700.0
 70
    64
  0
VERTEX
  5
36
  8
TEAM-NET
 10
479.039993
 20
-621.976121
 30
700.0
 70
    64
  0
VERTEX
  5
37
  8
TEAM-NET
 10
442.261278
 20
-633.831166
 30
700.0
 70
    64
  0
VERTEX
  5
38
  8
TEAM-NET
 10
404.8518
 20
-643.513467
 30
700.0
 70
    64
  0
VERTEX
  5
39
  8
TEAM-NET
 10
366.939799
 20
-650.989836
 30
700.0
 70
    64
  0
VERTEX
  5
3A
  8
TEAM-NET
 10
328.655233
 20
-656.234642
 30
700.0
 70
    64
  0
VERTEX
  5
3B
  8
TEAM-NET
 10
290.129341
 20
-659.229907
 30
700.0
 70
    64
  0
VERTEX
  5
3C
  8
TEAM-NET
 10
251.494069
 20
-660.0
 30
700.0
 70
    64
  0
VERTEX
  5
3D
  8
TEAM-NET
 10
212.846395
 20
-660.0
 30
700.0
 70
    64
  0
VERTEX
  5
3E
  8
TEAM-NET
 10
174.198721
 20
-660.0
 30
700.0
 70
    64
  0
VERTEX
  5
3F
  8
TEAM-NET
 10
135.551046
 20
-660.0
 30
700.0
 70
    64
  0
VERTEX
  5
40
  8
TEAM-NET
 10
96.903372
 20
-660.0
 30
700.0
 70
    64
  0
VERTEX
  5
41
  8
TEAM-NET
 10
58.255698
 20
-660.0
 30
700.0
 70
    64
  0
VERTEX
  5
42
  8
TEAM-NET
 10
19.608024
 20
-660.0
 30
700.0
 70
    64
  0
VERTEX
  5
43
  8
TEAM-NET
 10
-19.039651
 20
-660.0
 30
700.0
 70
    64
  0
VERTEX
  5
44
  8
TEAM-NET
 10
-57.687325
 20
-660.0
 30
700.0
 70
    64
  0
VERTEX
  5
45
  8
TEAM-NET
 10
-96.334999
 20
-660.0
 30
700.0
 70
    64
  0
VERTEX
  5
46
  8
TEAM-NET
 10
-134.982673
 20
-660.0
 30
700.0
 70
    64
  0
VERTEX
  5
47
  8
TEAM-NET
 10
-173.617945
 20
-659.229907
 30
700.0
 70
    64
  0
VERTEX
  5
48
  8
TEAM-NET
 10
-212.143837
 20
-656.234642
 30
700.0
 70
    64
  0
VERTEX
  5
49
  8
TEAM-NET
 10
-250.428403
 20
-650.989836
 30
700.0
 70
    64
  0
VERTEX
  5
4A
  8
TEAM-NET
 10
-288.340405
 20
-643.513467
 30
700.0
 70
    64
  0
VERTEX
  5
4B
  8
TEAM-NET
 10
-325.749882
 20
-633.831166
 30
700.0
 70
    64
  0
VERTEX
  5
4C
  8
TEAM-NET
 10
-362.528597
 20
-621.976121
 30
700.0
 70
    64
  0
VERTEX
  5
4D
  8
TEAM-NET
 10
-398.550475
 20
-607.988972
 30
700.0
 70
    64
  0
VERTEX
  5
4E
  8
TEAM-NET
 10
-433.692032
 20
-591.917666
 30
700.0
 70
    64
  0
VERTEX
  5
4F
  8
TEAM-NET
 10
-467.832807
 20
-573.817294
 30
700.0
 70
    64
  0
VERTEX
  5
50
  8
TEAM-NET
 10
-500.855767
 20
-553.749904
 30
700.0
 70
    64
  0
VERTEX
  5
51
  8
TEAM-NET
 10
-532.647709
 20
-531.784286
 30
700.0
 70
    64
  0
VERTEX
  5
52
  8
TEAM-NET
 10
-563.099653
 20
-507.995737
 30
700.0
 70
    64
  0
VERTEX
  5
53
  8
TEAM-NET
 10
-592.107211
 20
-482.465802
 30
700.0
 70
    64
  0
VERTEX
  5
54
  8
TEAM-NET
 10
-619.570947
 20
-455.281998
 30
700.0
 70
    64
  0
VERTEX
  5
55
  8
TEAM-NET
 10
-645.396715
 20
-426.537509
 30
700.0
 70
    64
  0
VERTEX
  5
56
  8
TEAM-NET
 10
-669.495988
 20
-396.33087
 30
700.0
 70
    64
  0
VERTEX
  5
57
  8
TEAM-NET
 10
-691.786152
 20
-364.765628
 30
700.0
 70
    64
  0
VERTEX
  5
58
  8
TEAM-NET
 10
-712.1908
 20
-331.949986
 30
700.0
 70
    64
  0
VERTEX
  5
59
  8
TEAM-NET
 10
-730.639984
 20
-297.996436
 30
700.0
 70
    64
  0
VERTEX
  5
5A
  8
TEAM-NET
 10
-747.070462
 20
-263.021368
 30
700.0
 70
    64
  0
VERTEX
  5
5B
  8
TEAM-NET
 10
-761.425911
 20
-227.144676
 30
700.0
 70
    64
  0
VERTEX
  5
5C
  8
TEAM-NET
 10
-773.657121
 20
-190.489342
 30
700.0
 70
    64
  0
VERTEX
  5
5D
  8
TEAM-NET
 10
-783.722164
 20
-153.18102
 30
700.0
 70
    64
  0
VERTEX
  5
5E
  8
TEAM-NET
 10
-791.586538
 20
-115.347601
 30
700.0
 70
    64
  0
VERTEX
  5
5F
  8
TEAM-NET
 10
-797.223283
 20
-77.118776
 30
700.0
 70
    64
  0
VERTEX
  5
60
  8
TEAM-NET
 10
-800.613078
 20
-38.625591
 30
700.0
 70
    64
  0
VERTEX
  5
61
  8
TEAM-NET
 10
-801.744302
 20
0.0
 30
700.0
 70
    64
  0
VERTEX
  5
62
  8
TEAM-NET
 10
612.4492
 20
0.0
 30
220.0
 70
    64
  0
VERTEX
  5
63
  8
TEAM-NET
 10
611.976581
 20
-23.315963
 30
220.0
 70
    64
  0
VERTEX
  5
64
  8
TEAM-NET
 10
610.559501
 20
-46.593621
 30
220.0
 70
    64
  0
VERTEX
  5
65
  8
TEAM-NET
 10
608.200288
 20
-69.794733
 30
220.0
 70
    64
  0
VERTEX
  5
66
  8
TEAM-NET
 10
604.902817
 20
-92.881182
 30
220.0
 70
    64
  0
VERTEX
  5
67
  8
TEAM-NET
 10
600.672505
 20
-115.815043
 30
220.0
 70
    64
  0
VERTEX
  5
68
  8
TEAM-NET
 10
595.516303
 20
-138.558637
 30
220.0
 70
    64
  0
VERTEX
  5
69
  8
TEAM-NET
 10
589.442682
 20
-161.0746
 30
220.0
 70
    64
  0
VERTEX
  5
6A
  8
TEAM-NET
 10
582.461619
 20
-183.325942
 30
220.0
 70
    64
  0
VERTEX
  5
6B
  8
TEAM-NET
 10
574.584583
 20
-205.276108
 30
220.0
 70
    64
  0
VERTEX
  5
6C
  8
TEAM-NET
 10
565.824515
 20
-226.889037
 30
220.0
 70
    64
  0
VERTEX
  5
6D
  8
TEAM-NET
 10
556.195806
 20
-248.129222
 30
220.0
 70
    64
  0
VERTEX
  5
6E
  8
TEAM-NET
 10
545.714276
 20
-268.961768
 30
220.0
 70
    64
  0
VERTEX
  5
6F
  8
TEAM-NET
 10
534.397143
 20
-289.352452
 30
220.0
 70
    64
  0
VERTEX
  5
70
  8
TEAM-NET
 10
522.262999
 20
-309.267774
 30
220.0
 70
    64
  0
VERTEX
  5
71
  8
TEAM-NET
 10
509.33178
 20
-328.675016
 30
220.0
 70
    64
  0
VERTEX
  5
72
  8
TEAM-NET
 10
495.453169
 20
-347.412476
 30
220.0
 70
    64
  0
VERTEX
  5
73
  8
TEAM-NET
 10
480.190644
 20
-365.03954
 30
220.0
 70
    64
  0
VERTEX
  5
74
  8
TEAM-NET
 10
463.605247
 20
-381.428032
 30
220.0
 70
    64
  0
VERTEX
  5
75
  8
TEAM-NET
 10
445.797167
 20
-396.478957
 30
220.0
 70
    64
  0
VERTEX
  5
76
  8
TEAM-NET
 10
426.873974
 20
-410.101396
 30
220.0
 70
    64
  0
VERTEX
  5
77
  8
TEAM-NET
 10
406.949978
 20
-422.213061
 30
220.0
 70
    64
  0
VERTEX
  5
78
  8
TEAM-NET
 10
386.145532
 20
-432.74079
 30
220.0
 70
    64
  0
VERTEX
  5
79
  8
TEAM-NET
 10
364.586308
 20
-441.620989
 30
220.0
 70
    64
  0
VERTEX
  5
7A
  8
TEAM-NET
 10
342.402538
 20
-448.800015
 30
220.0
 70
    64
  0
VERTEX
  5
7B
  8
TEAM-NET
 10
319.728226
 20
-454.234503
 30
220.0
 70
    64
  0
VERTEX
  5
7C
  8
TEAM-NET
 10
296.700341
 20
-457.891625
 30
220.0
 70
    64
  0
VERTEX
  5
7D
  8
TEAM-NET
 10
273.457984
 20
-459.749289
 30
220.0
 70
    64
  0
VERTEX
  5
7E
  8
TEAM-NET
 10
250.139052
 20
-460.0
 30
220.0
 70
    64
  0
VERTEX
  5
7F
  8
TEAM-NET
 10
226.816703
 20
-460.0
 30
220.0
 70
    64
  0
VERTEX
  5
80
  8
TEAM-NET
 10
203.494355
 20
-460.0
 30
220.0
 70
    64
  0
VERTEX
  5
81
  8
TEAM-NET
 10
180.172006
 20
-460.0
 30
220.0
 70
    64
  0
VERTEX
  5
82
  8
TEAM-NET
 10
156.849657
 20
-460.0
 30
220.0
 70
    64
  0
VERTEX
  5
83
  8
TEAM-NET
 10
133.527308
 20
-460.0
 30
220.0
 70
    64
  0
VERTEX
  5
84
  8
TEAM-NET
 10
110.204959
 20
-460.0
 30
220.0
 70
    64
  0
VERTEX
  5
85
  8
TEAM-NET
 10
86.882611
 20
-460.0
 30
220.0
 70
    64
  0
VERTEX
  5
86
  8
TEAM-NET
 10
63.560262
 20
-460.0
 30
220.0
 70
    64
  0
VERTEX
  5
87
  8
TEAM-NET
 10
40.240477
 20
-459.792976
 30
220.0
 70
    64
  0
VERTEX
  5
88
  8
TEAM-NET
 10
16.991347
 20
-458.02209
 30
220.0
 70
    64
  0
VERTEX
  5
89
  8
TEAM-NET
 10
-6.05003
 20
-454.450957
 30
220.0
 70
    64
  0
VERTEX
  5
8A
  8
TEAM-NET
 10
-28.744471
 20
-449.101152
 30
220.0
 70
    64
  0
VERTEX
  5
8B
  8
TEAM-NET
 10
-50.954886
 20
-442.004988
 30
220.0
 70
    64
  0
VERTEX
  5
8C
  8
TEAM-NET
 10
-72.547109
 20
-433.205333
 30
220.0
 70
    64
  0
VERTEX
  5
8D
  8
TEAM-NET
 10
-93.390711
 20
-422.755341
 30
220.0
 70
    64
  0
VERTEX
  5
8E
  8
TEAM-NET
 10
-113.359782
 20
-410.718137
 30
220.0
 70
    64
  0
VERTEX
  5
8F
  8
TEAM-NET
 10
-132.333696
 20
-397.166434
 30
220.0
 70
    64
  0
VERTEX
  5
90
  8
TEAM-NET
 10
-150.197838
 20
-382.182093
 30
220.0
 70
    64
  0
VERTEX
  5
91
  8
TEAM-NET
 10
-166.844298
 20
-365.855628
 30
220.0
 70
    64
  0
VERTEX
  5
92
  8
TEAM-NET
 10
-182.17252
 20
-348.285663
 30
220.0
 70
    64
  0
VERTEX
  5
93
  8
TEAM-NET
 10
-196.089911
 20
-329.578331
 30
220.0
 70
    64
  0
VERTEX
  5
94
  8
TEAM-NET
 10
-208.777326
 20
-310.011022
 30
220.0
 70
    64
  0
VERTEX
  5
95
  8
TEAM-NET
 10
-220.669428
 20
-289.950148
 30
220.0
 70
    64
  0
VERTEX
  5
96
  8
TEAM-NET
 10
-231.757229
 20
-269.433779
 30
220.0
 70
    64
  0
VERTEX
  5
97
  8
TEAM-NET
 10
-242.023312
 20
-248.494144
 30
220.0
 70
    64
  0
VERTEX
  5
98
  8
TEAM-NET
 10
-251.45155
 20
-227.16414
 30
220.0
 70
    64
  0
VERTEX
  5
99
  8
TEAM-NET
 10
-260.027131
 20
-205.477274
 30
220.0
 70
    64
  0
VERTEX
  5
9A
  8
TEAM-NET
 10
-267.736583
 20
-183.467616
 30
220.0
 70
    64
  0
VERTEX
  5
9B
  8
TEAM-NET
 10
-274.567796
 20
-161.16974
 30
220.0
 70
    64
  0
VERTEX
  5
9C
  8
TEAM-NET
 10
-280.510038
 20
-138.618675
 30
220.0
 70
    64
  0
VERTEX
  5
9D
  8
TEAM-NET
 10
-285.553973
 20
-115.849849
 30
220.0
 70
    64
  0
VERTEX
  5
9E
  8
TEAM-NET
 10
-289.691679
 20
-92.899029
 30
220.0
 70
    64
  0
VERTEX
  5
9F
  8
TEAM-NET
 10
-292.916655
 20
-69.80227
 30
220.0
 70
    64
  0
VERTEX
  5
A0
  8
TEAM-NET
 10
-295.223835
 20
-46.595856
 30
220.0
 70
    64
  0
VERTEX
  5
A1
  8
TEAM-NET
 10
-296.609594
 20
-23.316242
 30
220.0
 70
    64
  0
VERTEX
  5
A2
  8
TEAM-NET
 10
-297.071756
 20
0.0
 30
220.0
 70
    64
  0
SEQEND
  5
A4
  8
TEAM-NET
  0
POLYLINE
  5
A5
  8
TEAM-NET
 66
     1
 10
0.0
 20
0.0
 30
0.0
 70
    16
 71
     2
 72
    65
  0
VERTEX
  5
A6
  8
TEAM-NET
 10
612.4492
 20
0.0
 30
220.0
 70
    64
  0
VERTEX
  5
A7
  8
TEAM-NET
 10
611.976581
 20
23.315963
 30
220.0
 70
    64
  0
VERTEX
  5
A8
  8
TEAM-NET
 10
610.559501
 20
46.593621
 30
220.0
 70
    64
  0
VERTEX
  5
A9
  8
TEAM-NET
 10
608.200288
 20
69.794733
 30
220.0
 70
    64
  0
VERTEX
  5
AA
  8
TEAM-NET
 10
604.902817
 20
92.881182
 30
220.0
 70
    64
  0
VERTEX
  5
AB
  8
TEAM-NET
 10
600.672505
 20
115.815043
 30
220.0
 70
    64
  0
VERTEX
  5
AC
  8
TEAM-NET
 10
595.516303
 20
138.558637
 30
220.0
 70
    64
  0
VERTEX
  5
AD
  8
TEAM-NET
 10
589.442682
 20
161.0746
 30
220.0
 70
    64
  0
VERTEX
  5
AE
  8
TEAM-NET
 10
582.461619
 20
183.325942
 30
220.0
 70
    64
  0
VERTEX
  5
AF
  8
TEAM-NET
 10
574.584583
 20
205.276108
 30
220.0
 70
    64
  0
VERTEX
  5
B0
  8
TEAM-NET
 10
565.824515
 20
226.889037
 30
220.0
 70
    64
  0
VERTEX
  5
B1
  8
TEAM-NET
 10
556.195806
 20
248.129222
 30
220.0
 70
    64
  0
VERTEX
  5
B2
  8
TEAM-NET
 10
545.714276
 20
268.961768
 30
220.0
 70
    64
  0
VERTEX
  5
B3
  8
TEAM-NET
 10
534.397143
 20
289.352452
 30
220.0
 70
    64
  0
VERTEX
  5
B4
  8
TEAM-NET
 10
522.262999
 20
309.267774
 30
220.0
 70
    64
  0
VERTEX
  5
B5
  8
TEAM-NET
 10
509.33178
 20
328.675016
 30
220.0
 70
    64
  0
VERTEX
  5
B6
  8
TEAM-NET
 10
495.453169
 20
347.412476
 30
220.0
 70
    64
  0
VERTEX
  5
B7
  8
TEAM-NET
 10
480.190644
 20
365.03954
 30
220.0
 70
    64
  0
VERTEX
  5
B8
  8
TEAM-NET
 10
463.605247
 20
381.428032
 30
220.0
 70
    64
  0
VERTEX
  5
B9
  8
TEAM-NET
 10
445.797167
 20
396.478957
 30
220.0
 70
    64
  0
VERTEX
  5
BA
  8
TEAM-NET
 10
426.873974
 20
410.101396
 30
220.0
 70
    64
  0
VERTEX
  5
BB
  8
TEAM-NET
 10
406.949978
 20
422.213061
 30
220.0
 70
    64
  0
VERTEX
  5
BC
  8
TEAM-NET
 10
386.145532
 20
432.74079
 30
220.0
 70
    64
  0
VERTEX
  5
BD
  8
TEAM-NET
 10
364.586308
 20
441.620989
 30
220.0
 70
    64
  0
VERTEX
  5
BE
  8
TEAM-NET
 10
342.402538
 20
448.800015
 30
220.0
 70
    64
  0
VERTEX
  5
BF
  8
TEAM-NET
 10
319.728226
 20
454.234503
 30
220.0
 70
    64
  0
VERTEX
  5
C0
  8
TEAM-NET
 10
296.700341
 20
457.891625
 30
220.0
 70
    64
  0
VERTEX
  5
C1
  8
TEAM-NET
 10
273.457984
 20
459.749289
 30
220.0
 70
    64
  0
VERTEX
  5
C2
  8
TEAM-NET
 10
250.139052
 20
460.0
 30
220.0
 70
    64
  0
VERTEX
  5
C3
  8
TEAM-NET
 10
226.816703
 20
460.0
 30
220.0
 70
    64
  0
VERTEX
  5
C4
  8
TEAM-NET
 10
203.494355
 20
460.0
 30
220.0
 70
    64
  0
VERTEX
  5
C5
  8
TEAM-NET
 10
180.172006
 20
460.0
 30
220.0
 70
    64
  0
VERTEX
  5
C6
  8
TEAM-NET
 10
156.849657
 20
460.0
 30
220.0
 70
    64
  0
VERTEX
  5
C7
  8
TEAM-NET
 10
133.527308
 20
460.0
 30
220.0
 70
    64
  0
VERTEX
  5
C8
  8
TEAM-NET
 10
110.204959
 20
460.0
 30
220.0
 70
    64
  0
VERTEX
  5
C9
  8
TEAM-NET
 10
86.882611
 20
460.0
 30
220.0
 70
    64
  0
VERTEX
  5
CA
  8
TEAM-NET
 10
63.560262
 20
460.0
 30
220.0
 70
    64
  0
VERTEX
  5
CB
  8
TEAM-NET
 10
40.240477
 20
459.792976
 30
220.0
 70
    64
  0
VERTEX
  5
CC
  8
TEAM-NET
 10
16.991347
 20
458.02209
 30
220.0
 70
    64
  0
VERTEX
  5
CD
  8
TEAM-NET
 10
-6.05003
 20
454.450957
 30
220.0
 70
    64
  0
VERTEX
  5
CE
  8
TEAM-NET
 10
-28.744471
 20
449.101152
 30
220.0
 70
    64
  0
VERTEX
  5
CF
  8
TEAM-NET
 10
-50.954886
 20
442.004988
 30
220.0
 70
    64
  0
VERTEX
  5
D0
  8
TEAM-NET
 10
-72.547109
 20
433.205333
 30
220.0
 70
    64
  0
VERTEX
  5
D1
  8
TEAM-NET
 10
-93.390711
 20
422.755341
 30
220.0
 70
    64
  0
VERTEX
  5
D2
  8
TEAM-NET
 10
-113.359782
 20
410.718137
 30
220.0
 70
    64
  0
VERTEX
  5
D3
  8
TEAM-NET
 10
-132.333696
 20
397.166434
 30
220.0
 70
    64
  0
VERTEX
  5
D4
  8
TEAM-NET
 10
-150.197838
 20
382.182093
 30
220.0
 70
    64
  0
VERTEX
  5
D5
  8
TEAM-NET
 10
-166.844298
 20
365.855628
 30
220.0
 70
    64
  0
VERTEX
  5
D6
  8
TEAM-NET
 10
-182.17252
 20
348.285663
 30
220.0
 70
    64
  0
VERTEX
  5
D7
  8
TEAM-NET
 10
-196.089911
 20
329.578331
 30
220.0
 70
    64
  0
VERTEX
  5
D8
  8
TEAM-NET
 10
-208.777326
 20
310.011022
 30
220.0
 70
    64
  0
VERTEX
  5
D9
  8
TEAM-NET
 10
-220.669428
 20
289.950148
 30
220.0
 70
    64
  0
VERTEX
  5
DA
  8
TEAM-NET
 10
-231.757229
 20
269.433779
 30
220.0
 70
    64
  0
VERTEX
  5
DB
  8
TEAM-NET
 10
-242.023312
 20
248.494144
 30
220.0
 70
    64
  0
VERTEX
  5
DC
  8
TEAM-NET
 10
-251.45155
 20
227.16414
 30
220.0
 70
    64
  0
VERTEX
  5
DD
  8
TEAM-NET
 10
-260.027131
 20
205.477274
 30
220.0
 70
    64
  0
VERTEX
  5
DE
  8
TEAM-NET
 10
-267.736583
 20
183.467616
 30
220.0
 70
    64
  0
VERTEX
  5
DF
  8
TEAM-NET
 10
-274.567796
 20
161.16974
 30
220.0
 70
    64
  0
VERTEX
  5
E0
  8
TEAM-NET
 10
-280.510038
 20
138.618675
 30
220.0
 70
    64
  0
VERTEX
  5
E1
  8
TEAM-NET
 10
-285.553973
 20
115.849849
 30
220.0
 70
    64
  0
VERTEX
  5
E2
  8
TEAM-NET
 10
-289.691679
 20
92.899029
 30
220.0
 70
    64
  0
VERTEX
  5
E3
  8
TEAM-NET
 10
-292.916655
 20
69.80227
 30
220.0
 70
    64
  0
VERTEX
  5
E4
  8
TEAM-NET
 10
-295.223835
 20
46.595856
 30
220.0
 70
    64
  0
VERTEX
  5
E5
  8
TEAM-NET
 10
-296.609594
 20
23.316242
 30
220.0
 70
    64
  0
VERTEX
  5
E6
  8
TEAM-NET
 10
-297.071756
 20
0.0
 30
220.0
 70
    64
  0
VERTEX
  5
E7
  8
TEAM-NET
 10
918.255698
 20
0.0
 30
700.0
 70
    64
  0
VERTEX
  5
E8
  8
TEAM-NET
 10
917.124474
 20
38.625591
 30
700.0
 70
    64
  0
VERTEX
  5
E9
  8
TEAM-NET
 10
913.734679
 20
77.118776
 30
700.0
 70
    64
  0
VERTEX
  5
EA
  8
TEAM-NET
 10
908.097933
 20
115.347601
 30
700.0
 70
    64
  0
VERTEX
  5
EB
  8
TEAM-NET
 10
900.23356
 20
153.18102
 30
700.0
 70
    64
  0
VERTEX
  5
EC
  8
TEAM-NET
 10
890.168517
 20
190.489342
 30
700.0
 70
    64
  0
VERTEX
  5
ED
  8
TEAM-NET
 10
877.937307
 20
227.144676
 30
700.0
 70
    64
  0
VERTEX
  5
EE
  8
TEAM-NET
 10
863.581858
 20
263.021368
 30
700.0
 70
    64
  0
VERTEX
  5
EF
  8
TEAM-NET
 10
847.15138
 20
297.996436
 30
700.0
 70
    64
  0
VERTEX
  5
F0
  8
TEAM-NET
 10
828.702196
 20
331.949986
 30
700.0
 70
    64
  0
VERTEX
  5
F1
  8
TEAM-NET
 10
808.297548
 20
364.765628
 30
700.0
 70
    64
  0
VERTEX
  5
F2
  8
TEAM-NET
 10
786.007383
 20
396.33087
 30
700.0
 70
    64
  0
VERTEX
  5
F3
  8
TEAM-NET
 10
761.908111
 20
426.537509
 30
700.0
 70
    64
  0
VERTEX
  5
F4
  8
TEAM-NET
 10
736.082342
 20
455.281998
 30
700.0
 70
    64
  0
VERTEX
  5
F5
  8
TEAM-NET
 10
708.618607
 20
482.465802
 30
700.0
 70
    64
  0
VERTEX
  5
F6
  8
TEAM-NET
 10
679.611049
 20
507.995737
 30
700.0
 70
    64
  0
VERTEX
  5
F7
  8
TEAM-NET
 10
649.159105
 20
531.784286
 30
700.0
 70
    64
  0
VERTEX
  5
F8
  8
TEAM-NET
 10
617.367162
 20
553.749904
 30
700.0
 70
    64
  0
VERTEX
  5
F9
  8
TEAM-NET
 10
584.344203
 20
573.817294
 30
700.0
 70
    64
  0
VERTEX
  5
FA
  8
TEAM-NET
 10
550.203428
 20
591.917666
 30
700.0
 70
    64
  0
VERTEX
  5
FB
  8
TEAM-NET
 10
515.06187
 20
607.988972
 30
700.0
 70
    64
  0
VERTEX
  5
FC
  8
TEAM-NET
 10
479.039993
 20
621.976121
 30
700.0
 70
    64
  0
VERTEX
  5
FD
  8
TEAM-NET
 10
442.261278
 20
633.831166
 30
700.0
 70
    64
  0
VERTEX
  5
FE
  8
TEAM-NET
 10
404.8518
 20
643.513467
 30
700.0
 70
    64
  0
VERTEX
  5
FF
  8
TEAM-NET
 10
366.939799
 20
650.989836
 30
700.0
 70
    64
  0
VERTEX
  5
100
  8
TEAM-NET
 10
328.655233
 20
656.234642
 30
700.0
 70
    64
  0
VERTEX
  5
101
  8
TEAM-NET
 10
290.129341
 20
659.229907
 30
700.0
 70
    64
  0
VERTEX
  5
102
  8
TEAM-NET
 10
251.494069
 20
660.0
 30
700.0
 70
    64
  0
VERTEX
  5
103
  8
TEAM-NET
 10
212.846395
 20
660.0
 30
700.0
 70
    64
  0
VERTEX
  5
104
  8
TEAM-NET
 10
174.198721
 20
660.0
 30
700.0
 70
    64
  0
VERTEX
  5
105
  8
TEAM-NET
 10
135.551046
 20
660.0
 30
700.0
 70
    64
  0
VERTEX
  5
106
  8
TEAM-NET
 10
96.903372
 20
660.0
 30
700.0
 70
    64
  0
VERTEX
  5
107
  8
TEAM-NET
 10
58.255698
 20
660.0
 30
700.0
 70
    64
  0
VERTEX
  5
108
  8
TEAM-NET
 10
19.608024
 20
660.0
 30
700.0
 70
    64
  0
VERTEX
  5
109
  8
TEAM-NET
 10
-19.039651
 20
660.0
 30
700.0
 70
    64
  0
VERTEX
  5
10A
  8
TEAM-NET
 10
-57.687325
 20
660.0
 30
700.0
 70
    64
  0
VERTEX
  5
10B
  8
TEAM-NET
 10
-96.334999
 20
660.0
 30
700.0
 70
    64
  0
VERTEX
  5
10C
  8
TEAM-NET
 10
-134.982673
 20
660.0
 30
700.0
 70
    64
  0
VERTEX
  5
10D
  8
TEAM-NET
 10
-173.617945
 20
659.229907
 30
700.0
 70
    64
  0
VERTEX
  5
10E
  8
TEAM-NET
 10
-212.143837
 20
656.234642
 30
700.0
 70
    64
  0
VERTEX
  5
10F
  8
TEAM-NET
 10
-250.428403
 20
650.989836
 30
700.0
 70
    64
  0
VERTEX
  5
110
  8
TEAM-NET
 10
-288.340405
 20
643.513467
 30
700.0
 70
    64
  0
VERTEX
  5
111
  8
TEAM-NET
 10
-325.749882
 20
633.831166
 30
700.0
 70
    64
  0
VERTEX
  5
112
  8
TEAM-NET
 10
-362.528597
 20
621.976121
 30
700.0
 70
    64
  0
VERTEX
  5
113
  8
TEAM-NET
 10
-398.550475
 20
607.988972
 30
700.0
 70
    64
  0
VERTEX
  5
114
  8
TEAM-NET
 10
-433.692032
 20
591.917666
 30
700.0
 70
    64
  0
VERTEX
  5
115
  8
TEAM-NET
 10
-467.832807
 20
573.817294
 30
700.0
 70
    64
  0
VERTEX
  5
116
  8
TEAM-NET
 10
-500.855767
 20
553.749904
 30
700.0
 70
    64
  0
VERTEX
  5
117
  8
TEAM-NET
 10
-532.647709
 20
531.784286
 30
700.0
 70
    64
  0
VERTEX
  5
118
  8
TEAM-NET
 10
-563.099653
 20
507.995737
 30
700.0
 70
    64
  0
VERTEX
  5
119
  8
TEAM-NET
 10
-592.107211
 20
482.465802
 30
700.0
 70
    64
  0
VERTEX
  5
11A
  8
TEAM-NET
 10
-619.570947
 20
455.281998
 30
700.0
 70
    64
  0
VERTEX
  5
11B
  8
TEAM-NET
 10
-645.396715
 20
426.537509
 30
700.0
 70
    64
  0
VERTEX
  5
11C
  8
TEAM-NET
 10
-669.495988
 20
396.33087
 30
700.0
 70
    64
  0
VERTEX
  5
11D
  8
TEAM-NET
 10
-691.786152
 20
364.765628
 30
700.0
 70
    64
  0
VERTEX
  5
11E
  8
TEAM-NET
 10
-712.1908
 20
331.949986
 30
700.0
 70
    64
  0
VERTEX
  5
11F
  8
TEAM-NET
 10
-730.639984
 20
297.996436
 30
700.0
 70
    64
  0
VERTEX
  5
120
  8
TEAM-NET
 10
-747.070462
 20
263.021368
 30
700.0
 70
    64
  0
VERTEX
  5
121
  8
TEAM-NET
 10
-761.425911
 20
227.144676
 30
700.0
 70
    64
  0
VERTEX
  5
122
  8
TEAM-NET
 10
-773.657121
 20
190.489342
 30
700.0
 70
    64
  0
VERTEX
  5
123
  8
TEAM-NET
 10
-783.722164
 20
153.18102
 30
700.0
 70
    64
  0
VERTEX
  5
124
  8
TEAM-NET
 10
-791.586538
 20
115.347601
 30
700.0
 70
    64
  0
VERTEX
  5
125
  8
TEAM-NET
 10
-797.223283
 20
77.118776
 30
700.0
 70
    64
  0
VERTEX
  5
126
  8
TEAM-NET
 10
-800.613078
 20
38.625591
 30
700.0
 70
    64
  0
VERTEX
  5
127
  8
TEAM-NET
 10
-801.744302
 20
0.0
 30
700.0
 70
    64
  0
SEQEND
  5
128
  8
TEAM-NET
  0
CIRCLE
  5
129
  8
TEAM-INSP
 10
0.0
 20
0.0
 30
0.0
 40
10.0
  0
POLYLINE
  5
12B
  8
TEAM-NET
 66
     1
 10
0.0
 20
0.0
 30
0.0
 70
    16
 71
     2
 72
    65
  0
VERTEX
  5
12C
  8
TEAM-NET
 10
612.4492
 20
0.0
 30
220.0
 70
    64
  0
VERTEX
  5
12D
  8
TEAM-NET
 10
611.976581
 20
-23.315963
 30
220.0
 70
    64
  0
VERTEX
  5
12E
  8
TEAM-NET
 10
610.559501
 20
-46.593621
 30
220.0
 70
    64
  0
VERTEX
  5
12F
  8
TEAM-NET
 10
608.200288
 20
-69.794733
 30
220.0
 70
    64
  0
VERTEX
  5
130
  8
TEAM-NET
 10
604.902817
 20
-92.881182
 30
220.0
 70
    64
  0
VERTEX
  5
131
  8
TEAM-NET
 10
600.672505
 20
-115.815043
 30
220.0
 70
    64
  0
VERTEX
  5
132
  8
TEAM-NET
 10
595.516303
 20
-138.558637
 30
220.0
 70
    64
  0
VERTEX
  5
133
  8
TEAM-NET
 10
589.442682
 20
-161.0746
 30
220.0
 70
    64
  0
VERTEX
  5
134
  8
TEAM-NET
 10
582.461619
 20
-183.325942
 30
220.0
 70
    64
  0
VERTEX
  5
135
  8
TEAM-NET
 10
574.584583
 20
-205.276108
 30
220.0
 70
    64
  0
VERTEX
  5
136
  8
TEAM-NET
 10
565.824515
 20
-226.889037
 30
220.0
 70
    64
  0
VERTEX
  5
137
  8
TEAM-NET
 10
556.195806
 20
-248.129222
 30
220.0
 70
    64
  0
VERTEX
  5
138
  8
TEAM-NET
 10
545.714276
 20
-268.961768
 30
220.0
 70
    64
  0
VERTEX
  5
139
  8
TEAM-NET
 10
534.397143
 20
-289.352452
 30
220.0
 70
    64
  0
VERTEX
  5
13A
  8
TEAM-NET
 10
522.262999
 20
-309.267774
 30
220.0
 70
    64
  0
VERTEX
  5
13B
  8
TEAM-NET
 10
509.33178
 20
-328.675016
 30
220.0
 70
    64
  0
VERTEX
  5
13C
  8
TEAM-NET
 10
495.453169
 20
-347.412476
 30
220.0
 70
    64
  0
VERTEX
  5
13D
  8
TEAM-NET
 10
480.190644
 20
-365.03954
 30
220.0
 70
    64
  0
VERTEX
  5
13E
  8
TEAM-NET
 10
463.605247
 20
-381.428032
 30
220.0
 70
    64
  0
VERTEX
  5
13F
  8
TEAM-NET
 10
445.797167
 20
-396.478957
 30
220.0
 70
    64
  0
VERTEX
  5
140
  8
TEAM-NET
 10
426.873974
 20
-410.101396
 30
220.0
 70
    64
  0
VERTEX
  5
141
  8
TEAM-NET
 10
406.949978
 20
-422.213061
 30
220.0
 70
    64
  0
VERTEX
  5
142
  8
TEAM-NET
 10
386.145532
 20
-432.74079
 30
220.0
 70
    64
  0
VERTEX
  5
143
  8
TEAM-NET
 10
364.586308
 20
-441.620989
 30
220.0
 70
    64
  0
VERTEX
  5
144
  8
TEAM-NET
 10
342.402538
 20
-448.800015
 30
220.0
 70
    64
  0
VERTEX
  5
145
  8
TEAM-NET
 10
319.728226
 20
-454.234503
 30
220.0
 70
    64
  0
VERTEX
  5
146
  8
TEAM-NET
 10
296.700341
 20
-457.891625
 30
220.0
 70
    64
  0
VERTEX
  5
147
  8
TEAM-NET
 10
273.457984
 20
-459.749289
 30
220.0
 70
    64
  0
VERTEX
  5
148
  8
TEAM-NET
 10
250.139052
 20
-460.0
 30
220.0
 70
    64
  0
VERTEX
  5
149
  8
TEAM-NET
 10
226.816703
 20
-460.0
 30
220.0
 70
    64
  0
VERTEX
  5
14A
  8
TEAM-NET
 10
203.494355
 20
-460.0
 30
220.0
 70
    64
  0
VERTEX
  5
14B
  8
TEAM-NET
 10
180.172006
 20
-460.0
 30
220.0
 70
    64
  0
VERTEX
  5
14C
  8
TEAM-NET
 10
156.849657
 20
-460.0
 30
220.0
 70
    64
  0
VERTEX
  5
14D
  8
TEAM-NET
 10
133.527308
 20
-460.0
 30
220.0
 70
    64
  0
VERTEX
  5
14E
  8
TEAM-NET
 10
110.204959
 20
-460.0
 30
220.0
 70
    64
  0
VERTEX
  5
14F
  8
TEAM-NET
 10
86.882611
 20
-460.0
 30
220.0
 70
    64
  0
VERTEX
  5
150
  8
TEAM-NET
 10
63.560262
 20
-460.0
 30
220.0
 70
    64
  0
VERTEX
  5
151
  8
TEAM-NET
 10
40.240477
 20
-459.792976
 30
220.0
 70
    64
  0
VERTEX
  5
152
  8
TEAM-NET
 10
16.991347
 20
-458.02209
 30
220.0
 70
    64
  0
VERTEX
  5
153
  8
TEAM-NET
 10
-6.05003
 20
-454.450957
 30
220.0
 70
    64
  0
VERTEX
  5
154
  8
TEAM-NET
 10
-28.744471
 20
-449.101152
 30
220.0
 70
    64
  0
VERTEX
  5
155
  8
TEAM-NET
 10
-50.954886
 20
-442.004988
 30
220.0
 70
    64
  0
VERTEX
  5
156
  8
TEAM-NET
 10
-72.547109
 20
-433.205333
 30
220.0
 70
    64
  0
VERTEX
  5
157
  8
TEAM-NET
 10
-93.390711
 20
-422.755341
 30
220.0
 70
    64
  0
VERTEX
  5
158
  8
TEAM-NET
 10
-113.359782
 20
-410.718137
 30
220.0
 70
    64
  0
VERTEX
  5
159
  8
TEAM-NET
 10
-132.333696
 20
-397.166434
 30
220.0
 70
    64
  0
VERTEX
  5
15A
  8
TEAM-NET
 10
-150.197838
 20
-382.182093
 30
220.0
 70
    64
  0
VERTEX
  5
15B
  8
TEAM-NET
 10
-166.844298
 20
-365.855628
 30
220.0
 70
    64
  0
VERTEX
  5
15C
  8
TEAM-NET
 10
-182.17252
 20
-348.285663
 30
220.0
 70
    64
  0
VERTEX
  5
15D
  8
TEAM-NET
 10
-196.089911
 20
-329.578331
 30
220.0
 70
    64
  0
VERTEX
  5
15E
  8
TEAM-NET
 10
-208.777326
 20
-310.011022
 30
220.0
 70
    64
  0
VERTEX
  5
15F
  8
TEAM-NET
 10
-220.669428
 20
-289.950148
 30
220.0
 70
    64
  0
VERTEX
  5
160
  8
TEAM-NET
 10
-231.757229
 20
-269.433779
 30
220.0
 70
    64
  0
VERTEX
  5
161
  8
TEAM-NET
 10
-242.023312
 20
-248.494144
 30
220.0
 70
    64
  0
VERTEX
  5
162
  8
TEAM-NET
 10
-251.45155
 20
-227.16414
 30
220.0
 70
    64
  0
VERTEX
  5
163
  8
TEAM-NET
 10
-260.027131
 20
-205.477274
 30
220.0
 70
    64
  0
VERTEX
  5
164
  8
TEAM-NET
 10
-267.736583
 20
-183.467616
 30
220.0
 70
    64
  0
VERTEX
  5
165
  8
TEAM-NET
 10
-274.567796
 20
-161.16974
 30
220.0
 70
    64
  0
VERTEX
  5
166
  8
TEAM-NET
 10
-280.510038
 20
-138.618675
 30
220.0
 70
    64
  0
VERTEX
  5
167
  8
TEAM-NET
 10
-285.553973
 20
-115.849849
 30
220.0
 70
    64
  0
VERTEX
  5
168
  8
TEAM-NET
 10
-289.691679
 20
-92.899029
 30
220.0
 70
    64
  0
VERTEX
  5
169
  8
TEAM-NET
 10
-292.916655
 20
-69.80227
 30
220.0
 70
    64
  0
VERTEX
  5
16A
  8
TEAM-NET
 10
-295.223835
 20
-46.595856
 30
220.0
 70
    64
  0
VERTEX
  5
16B
  8
TEAM-NET
 10
-296.609594
 20
-23.316242
 30
220.0
 70
    64
  0
VERTEX
  5
16C
  8
TEAM-NET
 10
-297.071756
 20
0.0
 30
220.0
 70
    64
  0
VERTEX
  5
16D
  8
TEAM-NET
 10
612.4492
 20
0.0
 30
220.0
 70
    64
  0
VERTEX
  5
16E
  8
TEAM-NET
 10
611.976581
 20
23.315963
 30
220.0
 70
    64
  0
VERTEX
  5
16F
  8
TEAM-NET
 10
610.559501
 20
46.593621
 30
220.0
 70
    64
  0
VERTEX
  5
170
  8
TEAM-NET
 10
608.200288
 20
69.794733
 30
220.0
 70
    64
  0
VERTEX
  5
171
  8
TEAM-NET
 10
604.902817
 20
92.881182
 30
220.0
 70
    64
  0
VERTEX
  5
172
  8
TEAM-NET
 10
600.672505
 20
115.815043
 30
220.0
 70
    64
  0
VERTEX
  5
173
  8
TEAM-NET
 10
595.516303
 20
138.558637
 30
220.0
 70
    64
  0
VERTEX
  5
174
  8
TEAM-NET
 10
589.442682
 20
161.0746
 30
220.0
 70
    64
  0
VERTEX
  5
175
  8
TEAM-NET
 10
582.461619
 20
183.325942
 30
220.0
 70
    64
  0
VERTEX
  5
176
  8
TEAM-NET
 10
574.584583
 20
205.276108
 30
220.0
 70
    64
  0
VERTEX
  5
177
  8
TEAM-NET
 10
565.824515
 20
226.889037
 30
220.0
 70
    64
  0
VERTEX
  5
178
  8
TEAM-NET
 10
556.195806
 20
248.129222
 30
220.0
 70
    64
  0
VERTEX
  5
179
  8
TEAM-NET
 10
545.714276
 20
268.961768
 30
220.0
 70
    64
  0
VERTEX
  5
17A
  8
TEAM-NET
 10
534.397143
 20
289.352452
 30
220.0
 70
    64
  0
VERTEX
  5
17B
  8
TEAM-NET
 10
522.262999
 20
309.267774
 30
220.0
 70
    64
  0
VERTEX
  5
17C
  8
TEAM-NET
 10
509.33178
 20
328.675016
 30
220.0
 70
    64
  0
VERTEX
  5
17D
  8
TEAM-NET
 10
495.453169
 20
347.412476
 30
220.0
 70
    64
  0
VERTEX
  5
17E
  8
TEAM-NET
 10
480.190644
 20
365.03954
 30
220.0
 70
    64
  0
VERTEX
  5
17F
  8
TEAM-NET
 10
463.605247
 20
381.428032
 30
220.0
 70
    64
  0
VERTEX
  5
180
  8
TEAM-NET
 10
445.797167
 20
396.478957
 30
220.0
 70
    64
  0
VERTEX
  5
181
  8
TEAM-NET
 10
426.873974
 20
410.101396
 30
220.0
 70
    64
  0
VERTEX
  5
182
  8
TEAM-NET
 10
406.949978
 20
422.213061
 30
220.0
 70
    64
  0
VERTEX
  5
183
  8
TEAM-NET
 10
386.145532
 20
432.74079
 30
220.0
 70
    64
  0
VERTEX
  5
184
  8
TEAM-NET
 10
364.586308
 20
441.620989
 30
220.0
 70
    64
  0
VERTEX
  5
185
  8
TEAM-NET
 10
342.402538
 20
448.800015
 30
220.0
 70
    64
  0
VERTEX
  5
186
  8
TEAM-NET
 10
319.728226
 20
454.234503
 30
220.0
 70
    64
  0
VERTEX
  5
187
  8
TEAM-NET
 10
296.700341
 20
457.891625
 30
220.0
 70
    64
  0
VERTEX
  5
188
  8
TEAM-NET
 10
273.457984
 20
459.749289
 30
220.0
 70
    64
  0
VERTEX
  5
189
  8
TEAM-NET
 10
250.139052
 20
460.0
 30
220.0
 70
    64
  0
VERTEX
  5
18A
  8
TEAM-NET
 10
226.816703
 20
460.0
 30
220.0
 70
    64
  0
VERTEX
  5
18B
  8
TEAM-NET
 10
203.494355
 20
460.0
 30
220.0
 70
    64
  0
VERTEX
  5
18C
  8
TEAM-NET
 10
180.172006
 20
460.0
 30
220.0
 70
    64
  0
VERTEX
  5
18D
  8
TEAM-NET
 10
156.849657
 20
460.0
 30
220.0
 70
    64
  0
VERTEX
  5
18E
  8
TEAM-NET
 10
133.527308
 20
460.0
 30
220.0
 70
    64
  0
VERTEX
  5
18F
  8
TEAM-NET
 10
110.204959
 20
460.0
 30
220.0
 70
    64
  0
VERTEX
  5
190
  8
TEAM-NET
 10
86.882611
 20
460.0
 30
220.0
 70
    64
  0
VERTEX
  5
191
  8
TEAM-NET
 10
63.560262
 20
460.0
 30
220.0
 70
    64
  0
VERTEX
  5
192
  8
TEAM-NET
 10
40.240477
 20
459.792976
 30
220.0
 70
    64
  0
VERTEX
  5
193
  8
TEAM-NET
 10
16.991347
 20
458.02209
 30
220.0
 70
    64
  0
VERTEX
  5
194
  8
TEAM-NET
 10
-6.05003
 20
454.450957
 30
220.0
 70
    64
  0
VERTEX
  5
195
  8
TEAM-NET
 10
-28.744471
 20
449.101152
 30
220.0
 70
    64
  0
VERTEX
  5
196
  8
TEAM-NET
 10
-50.954886
 20
442.004988
 30
220.0
 70
    64
  0
VERTEX
  5
197
  8
TEAM-NET
 10
-72.547109
 20
433.205333
 30
220.0
 70
    64
  0
VERTEX
  5
198
  8
TEAM-NET
 10
-93.390711
 20
422.755341
 30
220.0
 70
    64
  0
VERTEX
  5
199
  8
TEAM-NET
 10
-113.359782
 20
410.718137
 30
220.0
 70
    64
  0
VERTEX
  5
19A
  8
TEAM-NET
 10
-132.333696
 20
397.166434
 30
220.0
 70
    64
  0
VERTEX
  5
19B
  8
TEAM-NET
 10
-150.197838
 20
382.182093
 30
220.0
 70
    64
  0
VERTEX
  5
19C
  8
TEAM-NET
 10
-166.844298
 20
365.855628
 30
220.0
 70
    64
  0
VERTEX
  5
19D
  8
TEAM-NET
 10
-182.17252
 20
348.285663
 30
220.0
 70
    64
  0
VERTEX
  5
19E
  8
TEAM-NET
 10
-196.089911
 20
329.578331
 30
220.0
 70
    64
  0
VERTEX
  5
19F
  8
TEAM-NET
 10
-208.777326
 20
310.011022
 30
220.0
 70
    64
  0
VERTEX
  5
1A0
  8
TEAM-NET
 10
-220.669428
 20
289.950148
 30
220.0
 70
    64
  0
VERTEX
  5
1A1
  8
TEAM-NET
 10
-231.757229
 20
269.433779
 30
220.0
 70
    64
  0
VERTEX
  5
1A2
  8
TEAM-NET
 10
-242.023312
 20
248.494144
 30
220.0
 70
    64
  0
VERTEX
  5
1A3
  8
TEAM-NET
 10
-251.45155
 20
227.16414
 30
220.0
 70
    64
  0
VERTEX
  5
1A4
  8
TEAM-NET
 10
-260.027131
 20
205.477274
 30
220.0
 70
    64
  0
VERTEX
  5
1A5
  8
TEAM-NET
 10
-267.736583
 20
183.467616
 30
220.0
 70
    64
  0
VERTEX
  5
1A6
  8
TEAM-NET
 10
-274.567796
 20
161.16974
 30
220.0
 70
    64
  0
VERTEX
  5
1A7
  8
TEAM-NET
 10
-280.510038
 20
138.618675
 30
220.0
 70
    64
  0
VERTEX
  5
1A8
  8
TEAM-NET
 10
-285.553973
 20
115.849849
 30
220.0
 70
    64
  0
VERTEX
  5
1A9
  8
TEAM-NET
 10
-289.691679
 20
92.899029
 30
220.0
 70
    64
  0
VERTEX
  5
1AA
  8
TEAM-NET
 10
-292.916655
 20
69.80227
 30
220.0
 70
    64
  0
VERTEX
  5
1AB
  8
TEAM-NET
 10
-295.223835
 20
46.595856
 30
220.0
 70
    64
  0
VERTEX
  5
1AC
  8
TEAM-NET
 10
-296.609594
 20
23.316242
 30
220.0
 70
    64
  0
VERTEX
  5
1AD
  8
TEAM-NET
 10
-297.071756
 20
0.0
 30
220.0
 70
    64
  0
SEQEND
  5
1AE
  8
TEAM-NET
  0
POLYLINE
  5
1AF
  8
TEAM-NET
 66
     1
 10
0.0
 20
0.0
 30
0.0
 70
    16
 71
     2
 72
    13
  0
VERTEX
  5
1B0
  8
TEAM-NET
 10
258.255698
 20
-275.0
 30
220.0
 70
    64
  0
VERTEX
  5
1B1
  8
TEAM-NET
 10
233.255698
 20
-275.0
 30
220.0
 70
    64
  0
VERTEX
  5
1B2
  8
TEAM-NET
 10
208.255698
 20
-275.0
 30
220.0
 70
    64
  0
VERTEX
  5
1B3
  8
TEAM-NET
 10
183.255698
 20
-275.0
 30
220.0
 70
    64
  0
VERTEX
  5
1B4
  8
TEAM-NET
 10
183.255698
 20
-250.0
 30
220.0
 70
    64
  0
VERTEX
  5
1B5
  8
TEAM-NET
 10
183.255698
 20
-225.0
 30
220.0
 70
    64
  0
VERTEX
  5
1B6
  8
TEAM-NET
 10
183.255698
 20
-200.0
 30
220.0
 70
    64
  0
VERTEX
  5
1B7
  8
TEAM-NET
 10
183.255698
 20
-175.0
 30
220.0
 70
    64
  0
VERTEX
  5
1B8
  8
TEAM-NET
 10
183.255698
 20
-150.0
 30
220.0
 70
    64
  0
VERTEX
  5
1B9
  8
TEAM-NET
 10
183.255698
 20
-125.0
 30
220.0
 70
    64
  0
VERTEX
  5
1BA
  8
TEAM-NET
 10
208.255698
 20
-125.0
 30
220.0
 70
    64
  0
VERTEX
  5
1BB
  8
TEAM-NET
 10
233.255698
 20
-125.0
 30
220.0
 70
    64
  0
VERTEX
  5
1BC
  8
TEAM-NET
 10
258.255698
 20
-125.0
 30
220.0
 70
    64
  0
VERTEX
  5
1BD
  8
TEAM-NET
 10
258.255698
 20
-275.0
 30
220.0
 70
    64
  0
VERTEX
  5
1BE
  8
TEAM-NET
 10
283.255698
 20
-275.0
 30
220.0
 70
    64
  0
VERTEX
  5
1BF
  8
TEAM-NET
 10
308.255698
 20
-275.0
 30
220.0
 70
    64
  0
VERTEX
  5
1C0
  8
TEAM-NET
 10
333.255698
 20
-275.0
 30
220.0
 70
    64
  0
VERTEX
  5
1C1
  8
TEAM-NET
 10
333.255698
 20
-250.0
 30
220.0
 70
    64
  0
VERTEX
  5
1C2
  8
TEAM-NET
 10
333.255698
 20
-225.0
 30
220.0
 70
    64
  0
VERTEX
  5
1C3
  8
TEAM-NET
 10
333.255698
 20
-200.0
 30
220.0
 70
    64
  0
VERTEX
  5
1C4
  8
TEAM-NET
 10
333.255698
 20
-175.0
 30
220.0
 70
    64
  0
VERTEX
  5
1C5
  8
TEAM-NET
 10
333.255698
 20
-150.0
 30
220.0
 70
    64
  0
VERTEX
  5
1C6
  8
TEAM-NET
 10
333.255698
 20
-125.0
 30
220.0
 70
    64
  0
VERTEX
  5
1C7
  8
TEAM-NET
 10
308.255698
 20
-125.0
 30
220.0
 70
    64
  0
VERTEX
  5
1C8
  8
TEAM-NET
 10
283.255698
 20
-125.0
 30
220.0
 70
    64
  0
VERTEX
  5
1C9
  8
TEAM-NET
 10
258.255698
 20
-125.0
 30
220.0
 70
    64
  0
SEQEND
  5
1CA
  8
TEAM-NET
  0
POLYLINE
  5
1CB
  8
TEAM-BODY
 66
     1
 10
0.0
 20
0.0
 30
220.0
  0
VERTEX
  5
473
  8
TEAM-BODY
 10
258.255698
 20
-275.0
 30
220.0
  0
VERTEX
  5
474
  8
TEAM-BODY
 10
183.255698
 20
-275.0
 30
220.0
  0
VERTEX
  5
475
  8
TEAM-BODY
 10
183.255698
 20
-125.0
 30
220.0
  0
VERTEX
  5
476
  8
TEAM-BODY
 10
258.255698
 20
-125.0
 30
220.0
  0
SEQEND
  5
477
  8
TEAM-BODY
  0
POLYLINE
  5
1CD
  8
TEAM-BODY
 66
     1
 10
0.0
 20
0.0
 30
220.0
  0
VERTEX
  5
478
  8
TEAM-BODY
 10
258.255698
 20
-275.0
 30
220.0
  0
VERTEX
  5
479
  8
TEAM-BODY
 10
333.255698
 20
-275.0
 30
220.0
  0
VERTEX
  5
47A
  8
TEAM-BODY
 10
333.255698
 20
-125.0
 30
220.0
  0
VERTEX
  5
47B
  8
TEAM-BODY
 10
258.255698
 20
-125.0
 30
220.0
  0
SEQEND
  5
47C
  8
TEAM-BODY
  0
POLYLINE
  5
1CE
  8
TEAM-BODY
 66
     1
 10
0.0
 20
0.0
 30
220.0
  0
VERTEX
  5
47D
  8
TEAM-BODY
 10
612.4492
 20
0.0
 30
220.0
 42
0.156257
  0
VERTEX
  5
47E
  8
TEAM-BODY
 10
505.357053
 20
334.313602
 30
220.0
 42
0.242276
  0
VERTEX
  5
47F
  8
TEAM-BODY
 10
261.195696
 20
460.0
 30
220.0
  0
VERTEX
  5
480
  8
TEAM-BODY
 10
51.383703
 20
460.0
 30
220.0
 42
0.25073
  0
VERTEX
  5
481
  8
TEAM-BODY
 10
-198.209745
 20
326.442515
 30
220.0
 42
0.148102
  0
VERTEX
  5
482
  8
TEAM-BODY
 10
-297.071756
 20
0.0
 30
220.0
  0
SEQEND
  5
483
  8
TEAM-BODY
  0
POLYLINE
  5
1CF
  8
TEAM-BODY
 66
     1
 10
0.0
 20
0.0
 30
220.0
  0
VERTEX
  5
484
  8
TEAM-BODY
 10
-297.071756
 20
0.0
 30
220.0
 42
0.148102
  0
VERTEX
  5
485
  8
TEAM-BODY
 10
-198.209745
 20
-326.442515
 30
220.0
 42
0.25073
  0
VERTEX
  5
486
  8
TEAM-BODY
 10
51.383703
 20
-460.0
 30
220.0
  0
VERTEX
  5
487
  8
TEAM-BODY
 10
261.195696
 20
-460.0
 30
220.0
 42
0.242276
  0
VERTEX
  5
488
  8
TEAM-BODY
 10
505.357053
 20
-334.313602
 30
220.0
 42
0.156257
  0
VERTEX
  5
489
  8
TEAM-BODY
 10
612.4492
 20
0.0
 30
220.0
  0
SEQEND
  5
48A
  8
TEAM-BODY
  0
POLYLINE
  5
1D0
  8
TEAM-BODY
 66
     1
 10
0.0
 20
0.0
 30
700.0
 39
-50.0
  0
VERTEX
  5
48B
  8
TEAM-BODY
 10
-941.744302
 20
0.0
 30
700.0
 42
0.414214
  0
VERTEX
  5
48C
  8
TEAM-BODY
 10
-141.744302
 20
-800.0
 30
700.0
  0
VERTEX
  5
48D
  8
TEAM-BODY
 10
258.255698
 20
-800.0
 30
700.0
 42
0.414214
  0
VERTEX
  5
48E
  8
TEAM-BODY
 10
1058.255698
 20
0.0
 30
700.0
 42
0.414214
  0
SEQEND
  5
48F
  8
TEAM-BODY
  0
POLYLINE
  5
1D1
  8
TEAM-BODY
 66
     1
 10
0.0
 20
0.0
 30
700.0
 39
-50.0
  0
VERTEX
  5
490
  8
TEAM-BODY
 10
1058.255698
 20
0.0
 30
700.0
 42
0.414214
  0
VERTEX
  5
491
  8
TEAM-BODY
 10
258.255698
 20
800.0
 30
700.0
  0
VERTEX
  5
492
  8
TEAM-BODY
 10
-141.744302
 20
800.0
 30
700.0
 42
0.414214
  0
VERTEX
  5
493
  8
TEAM-BODY
 10
-941.744302
 20
0.0
 30
700.0
  0
SEQEND
  5
494
  8
TEAM-BODY
  0
POLYLINE
  5
1D2
  8
TEAM-BODY
 66
     1
 10
0.0
 20
0.0
 30
700.0
  0
VERTEX
  5
495
  8
TEAM-BODY
 10
-901.744302
 20
0.0
 30
700.0
 42
0.414214
  0
VERTEX
  5
496
  8
TEAM-BODY
 10
-141.744302
 20
-760.0
 30
700.0
  0
VERTEX
  5
497
  8
TEAM-BODY
 10
258.255698
 20
-760.0
 30
700.0
 42
0.414214
  0
VERTEX
  5
498
  8
TEAM-BODY
 10
1018.255698
 20
0.0
 30
700.0
  0
SEQEND
  5
499
  8
TEAM-BODY
  0
POLYLINE
  5
1D3
  8
TEAM-NET
 66
     1
 10
0.0
 20
0.0
 30
0.0
 70
    16
 71
     2
 72
    65
  0
VERTEX
  5
1D4
  8
TEAM-NET
 10
918.255698
 20
0.0
 30
700.0
 70
    64
  0
VERTEX
  5
1D5
  8
TEAM-NET
 10
917.124474
 20
-38.625591
 30
700.0
 70
    64
  0
VERTEX
  5
1D6
  8
TEAM-NET
 10
913.734679
 20
-77.118776
 30
700.0
 70
    64
  0
VERTEX
  5
1D7
  8
TEAM-NET
 10
908.097933
 20
-115.347601
 30
700.0
 70
    64
  0
VERTEX
  5
1D8
  8
TEAM-NET
 10
900.23356
 20
-153.18102
 30
700.0
 70
    64
  0
VERTEX
  5
1D9
  8
TEAM-NET
 10
890.168517
 20
-190.489342
 30
700.0
 70
    64
  0
VERTEX
  5
1DA
  8
TEAM-NET
 10
877.937307
 20
-227.144676
 30
700.0
 70
    64
  0
VERTEX
  5
1DB
  8
TEAM-NET
 10
863.581858
 20
-263.021368
 30
700.0
 70
    64
  0
VERTEX
  5
1DC
  8
TEAM-NET
 10
847.15138
 20
-297.996436
 30
700.0
 70
    64
  0
VERTEX
  5
1DD
  8
TEAM-NET
 10
828.702196
 20
-331.949986
 30
700.0
 70
    64
  0
VERTEX
  5
1DE
  8
TEAM-NET
 10
808.297548
 20
-364.765628
 30
700.0
 70
    64
  0
VERTEX
  5
1DF
  8
TEAM-NET
 10
786.007383
 20
-396.33087
 30
700.0
 70
    64
  0
VERTEX
  5
1E0
  8
TEAM-NET
 10
761.908111
 20
-426.537509
 30
700.0
 70
    64
  0
VERTEX
  5
1E1
  8
TEAM-NET
 10
736.082342
 20
-455.281998
 30
700.0
 70
    64
  0
VERTEX
  5
1E2
  8
TEAM-NET
 10
708.618607
 20
-482.465802
 30
700.0
 70
    64
  0
VERTEX
  5
1E3
  8
TEAM-NET
 10
679.611049
 20
-507.995737
 30
700.0
 70
    64
  0
VERTEX
  5
1E4
  8
TEAM-NET
 10
649.159105
 20
-531.784286
 30
700.0
 70
    64
  0
VERTEX
  5
1E5
  8
TEAM-NET
 10
617.367162
 20
-553.749904
 30
700.0
 70
    64
  0
VERTEX
  5
1E6
  8
TEAM-NET
 10
584.344203
 20
-573.817294
 30
700.0
 70
    64
  0
VERTEX
  5
1E7
  8
TEAM-NET
 10
550.203428
 20
-591.917666
 30
700.0
 70
    64
  0
VERTEX
  5
1E8
  8
TEAM-NET
 10
515.06187
 20
-607.988972
 30
700.0
 70
    64
  0
VERTEX
  5
1E9
  8
TEAM-NET
 10
479.039993
 20
-621.976121
 30
700.0
 70
    64
  0
VERTEX
  5
1EA
  8
TEAM-NET
 10
442.261278
 20
-633.831166
 30
700.0
 70
    64
  0
VERTEX
  5
1EB
  8
TEAM-NET
 10
404.8518
 20
-643.513467
 30
700.0
 70
    64
  0
VERTEX
  5
1EC
  8
TEAM-NET
 10
366.939799
 20
-650.989836
 30
700.0
 70
    64
  0
VERTEX
  5
1ED
  8
TEAM-NET
 10
328.655233
 20
-656.234642
 30
700.0
 70
    64
  0
VERTEX
  5
1EE
  8
TEAM-NET
 10
290.129341
 20
-659.229907
 30
700.0
 70
    64
  0
VERTEX
  5
1EF
  8
TEAM-NET
 10
251.494069
 20
-660.0
 30
700.0
 70
    64
  0
VERTEX
  5
1F0
  8
TEAM-NET
 10
212.846395
 20
-660.0
 30
700.0
 70
    64
  0
VERTEX
  5
1F1
  8
TEAM-NET
 10
174.198721
 20
-660.0
 30
700.0
 70
    64
  0
VERTEX
  5
1F2
  8
TEAM-NET
 10
135.551046
 20
-660.0
 30
700.0
 70
    64
  0
VERTEX
  5
1F3
  8
TEAM-NET
 10
96.903372
 20
-660.0
 30
700.0
 70
    64
  0
VERTEX
  5
1F4
  8
TEAM-NET
 10
58.255698
 20
-660.0
 30
700.0
 70
    64
  0
VERTEX
  5
1F5
  8
TEAM-NET
 10
19.608024
 20
-660.0
 30
700.0
 70
    64
  0
VERTEX
  5
1F6
  8
TEAM-NET
 10
-19.039651
 20
-660.0
 30
700.0
 70
    64
  0
VERTEX
  5
1F7
  8
TEAM-NET
 10
-57.687325
 20
-660.0
 30
700.0
 70
    64
  0
VERTEX
  5
1F8
  8
TEAM-NET
 10
-96.334999
 20
-660.0
 30
700.0
 70
    64
  0
VERTEX
  5
1F9
  8
TEAM-NET
 10
-134.982673
 20
-660.0
 30
700.0
 70
    64
  0
VERTEX
  5
1FA
  8
TEAM-NET
 10
-173.617945
 20
-659.229907
 30
700.0
 70
    64
  0
VERTEX
  5
1FB
  8
TEAM-NET
 10
-212.143837
 20
-656.234642
 30
700.0
 70
    64
  0
VERTEX
  5
1FC
  8
TEAM-NET
 10
-250.428403
 20
-650.989836
 30
700.0
 70
    64
  0
VERTEX
  5
1FD
  8
TEAM-NET
 10
-288.340405
 20
-643.513467
 30
700.0
 70
    64
  0
VERTEX
  5
1FE
  8
TEAM-NET
 10
-325.749882
 20
-633.831166
 30
700.0
 70
    64
  0
VERTEX
  5
1FF
  8
TEAM-NET
 10
-362.528597
 20
-621.976121
 30
700.0
 70
    64
  0
VERTEX
  5
200
  8
TEAM-NET
 10
-398.550475
 20
-607.988972
 30
700.0
 70
    64
  0
VERTEX
  5
201
  8
TEAM-NET
 10
-433.692032
 20
-591.917666
 30
700.0
 70
    64
  0
VERTEX
  5
202
  8
TEAM-NET
 10
-467.832807
 20
-573.817294
 30
700.0
 70
    64
  0
VERTEX
  5
203
  8
TEAM-NET
 10
-500.855767
 20
-553.749904
 30
700.0
 70
    64
  0
VERTEX
  5
204
  8
TEAM-NET
 10
-532.647709
 20
-531.784286
 30
700.0
 70
    64
  0
VERTEX
  5
205
  8
TEAM-NET
 10
-563.099653
 20
-507.995737
 30
700.0
 70
    64
  0
VERTEX
  5
206
  8
TEAM-NET
 10
-592.107211
 20
-482.465802
 30
700.0
 70
    64
  0
VERTEX
  5
207
  8
TEAM-NET
 10
-619.570947
 20
-455.281998
 30
700.0
 70
    64
  0
VERTEX
  5
208
  8
TEAM-NET
 10
-645.396715
 20
-426.537509
 30
700.0
 70
    64
  0
VERTEX
  5
209
  8
TEAM-NET
 10
-669.495988
 20
-396.33087
 30
700.0
 70
    64
  0
VERTEX
  5
20A
  8
TEAM-NET
 10
-691.786152
 20
-364.765628
 30
700.0
 70
    64
  0
VERTEX
  5
20B
  8
TEAM-NET
 10
-712.1908
 20
-331.949986
 30
700.0
 70
    64
  0
VERTEX
  5
20C
  8
TEAM-NET
 10
-730.639984
 20
-297.996436
 30
700.0
 70
    64
  0
VERTEX
  5
20D
  8
TEAM-NET
 10
-747.070462
 20
-263.021368
 30
700.0
 70
    64
  0
VERTEX
  5
20E
  8
TEAM-NET
 10
-761.425911
 20
-227.144676
 30
700.0
 70
    64
  0
VERTEX
  5
20F
  8
TEAM-NET
 10
-773.657121
 20
-190.489342
 30
700.0
 70
    64
  0
VERTEX
  5
210
  8
TEAM-NET
 10
-783.722164
 20
-153.18102
 30
700.0
 70
    64
  0
VERTEX
  5
211
  8
TEAM-NET
 10
-791.586538
 20
-115.347601
 30
700.0
 70
    64
  0
VERTEX
  5
212
  8
TEAM-NET
 10
-797.223283
 20
-77.118776
 30
700.0
 70
    64
  0
VERTEX
  5
213
  8
TEAM-NET
 10
-800.613078
 20
-38.625591
 30
700.0
 70
    64
  0
VERTEX
  5
214
  8
TEAM-NET
 10
-801.744302
 20
0.0
 30
700.0
 70
    64
  0
VERTEX
  5
215
  8
TEAM-NET
 10
1058.255698
 20
0.0
 30
700.0
 70
    64
  0
VERTEX
  5
216
  8
TEAM-NET
 10
1056.961008
 20
-45.49535
 30
700.0
 70
    64
  0
VERTEX
  5
217
  8
TEAM-NET
 10
1053.081131
 20
-90.843443
 30
700.0
 70
    64
  0
VERTEX
  5
218
  8
TEAM-NET
 10
1046.628623
 20
-135.897502
 30
700.0
 70
    64
  0
VERTEX
  5
219
  8
TEAM-NET
 10
1037.62437
 20
-180.511698
 30
700.0
 70
    64
  0
VERTEX
  5
21A
  8
TEAM-NET
 10
1026.097516
 20
-224.541628
 30
700.0
 70
    64
  0
VERTEX
  5
21B
  8
TEAM-NET
 10
1012.08537
 20
-267.844778
 30
700.0
 70
    64
  0
VERTEX
  5
21C
  8
TEAM-NET
 10
995.633286
 20
-310.280989
 30
700.0
 70
    64
  0
VERTEX
  5
21D
  8
TEAM-NET
 10
976.794515
 20
-351.712906
 30
700.0
 70
    64
  0
VERTEX
  5
21E
  8
TEAM-NET
 10
955.630032
 20
-392.006426
 30
700.0
 70
    64
  0
VERTEX
  5
21F
  8
TEAM-NET
 10
932.208342
 20
-431.031129
 30
700.0
 70
    64
  0
VERTEX
  5
220
  8
TEAM-NET
 10
906.605252
 20
-468.660704
 30
700.0
 70
    64
  0
VERTEX
  5
221
  8
TEAM-NET
 10
878.903635
 20
-504.773353
 30
700.0
 70
    64
  0
VERTEX
  5
222
  8
TEAM-NET
 10
849.193152
 20
-539.252191
 30
700.0
 70
    64
  0
VERTEX
  5
223
  8
TEAM-NET
 10
817.569968
 20
-571.985618
 30
700.0
 70
    64
  0
VERTEX
  5
224
  8
TEAM-NET
 10
784.136438
 20
-602.867686
 30
700.0
 70
    64
  0
VERTEX
  5
225
  8
TEAM-NET
 10
749.000777
 20
-631.798439
 30
700.0
 70
    64
  0
VERTEX
  5
226
  8
TEAM-NET
 10
712.276711
 20
-658.684234
 30
700.0
 70
    64
  0
VERTEX
  5
227
  8
TEAM-NET
 10
674.083104
 20
-683.43805
 30
700.0
 70
    64
  0
VERTEX
  5
228
  8
TEAM-NET
 10
634.543578
 20
-705.979767
 30
700.0
 70
    64
  0
VERTEX
  5
229
  8
TEAM-NET
 10
593.786113
 20
-726.236422
 30
700.0
 70
    64
  0
VERTEX
  5
22A
  8
TEAM-NET
 10
551.942628
 20
-744.142451
 30
700.0
 70
    64
  0
VERTEX
  5
22B
  8
TEAM-NET
 10
509.14856
 20
-759.639896
 30
700.0
 70
    64
  0
VERTEX
  5
22C
  8
TEAM-NET
 10
465.542422
 20
-772.678597
 30
700.0
 70
    64
  0
VERTEX
  5
22D
  8
TEAM-NET
 10
421.265353
 20
-783.216351
 30
700.0
 70
    64
  0
VERTEX
  5
22E
  8
TEAM-NET
 10
376.460667
 20
-791.21905
 30
700.0
 70
    64
  0
VERTEX
  5
22F
  8
TEAM-NET
 10
331.273385
 20
-796.660792
 30
700.0
 70
    64
  0
VERTEX
  5
230
  8
TEAM-NET
 10
285.849764
 20
-799.523963
 30
700.0
 70
    64
  0
VERTEX
  5
231
  8
TEAM-NET
 10
240.33533
 20
-800.0
 30
700.0
 70
    64
  0
VERTEX
  5
232
  8
TEAM-NET
 10
194.815422
 20
-800.0
 30
700.0
 70
    64
  0
VERTEX
  5
233
  8
TEAM-NET
 10
149.295514
 20
-800.0
 30
700.0
 70
    64
  0
VERTEX
  5
234
  8
TEAM-NET
 10
103.775606
 20
-800.0
 30
700.0
 70
    64
  0
VERTEX
  5
235
  8
TEAM-NET
 10
58.255698
 20
-800.0
 30
700.0
 70
    64
  0
VERTEX
  5
236
  8
TEAM-NET
 10
12.73579
 20
-800.0
 30
700.0
 70
    64
  0
VERTEX
  5
237
  8
TEAM-NET
 10
-32.784119
 20
-800.0
 30
700.0
 70
    64
  0
VERTEX
  5
238
  8
TEAM-NET
 10
-78.304027
 20
-800.0
 30
700.0
 70
    64
  0
VERTEX
  5
239
  8
TEAM-NET
 10
-123.823935
 20
-800.0
 30
700.0
 70
    64
  0
VERTEX
  5
23A
  8
TEAM-NET
 10
-169.338368
 20
-799.523963
 30
700.0
 70
    64
  0
VERTEX
  5
23B
  8
TEAM-NET
 10
-214.761989
 20
-796.660792
 30
700.0
 70
    64
  0
VERTEX
  5
23C
  8
TEAM-NET
 10
-259.949272
 20
-791.21905
 30
700.0
 70
    64
  0
VERTEX
  5
23D
  8
TEAM-NET
 10
-304.753957
 20
-783.216351
 30
700.0
 70
    64
  0
VERTEX
  5
23E
  8
TEAM-NET
 10
-349.031026
 20
-772.678597
 30
700.0
 70
    64
  0
VERTEX
  5
23F
  8
TEAM-NET
 10
-392.637165
 20
-759.639896
 30
700.0
 70
    64
  0
VERTEX
  5
240
  8
TEAM-NET
 10
-435.431233
 20
-744.142451
 30
700.0
 70
    64
  0
VERTEX
  5
241
  8
TEAM-NET
 10
-477.274717
 20
-726.236422
 30
700.0
 70
    64
  0
VERTEX
  5
242
  8
TEAM-NET
 10
-518.032182
 20
-705.979767
 30
700.0
 70
    64
  0
VERTEX
  5
243
  8
TEAM-NET
 10
-557.571708
 20
-683.43805
 30
700.0
 70
    64
  0
VERTEX
  5
244
  8
TEAM-NET
 10
-595.765315
 20
-658.684234
 30
700.0
 70
    64
  0
VERTEX
  5
245
  8
TEAM-NET
 10
-632.489382
 20
-631.798439
 30
700.0
 70
    64
  0
VERTEX
  5
246
  8
TEAM-NET
 10
-667.625042
 20
-602.867686
 30
700.0
 70
    64
  0
VERTEX
  5
247
  8
TEAM-NET
 10
-701.058572
 20
-571.985618
 30
700.0
 70
    64
  0
VERTEX
  5
248
  8
TEAM-NET
 10
-732.681756
 20
-539.252191
 30
700.0
 70
    64
  0
VERTEX
  5
249
  8
TEAM-NET
 10
-762.392239
 20
-504.773353
 30
700.0
 70
    64
  0
VERTEX
  5
24A
  8
TEAM-NET
 10
-790.093857
 20
-468.660704
 30
700.0
 70
    64
  0
VERTEX
  5
24B
  8
TEAM-NET
 10
-815.696946
 20
-431.031129
 30
700.0
 70
    64
  0
VERTEX
  5
24C
  8
TEAM-NET
 10
-839.118637
 20
-392.006426
 30
700.0
 70
    64
  0
VERTEX
  5
24D
  8
TEAM-NET
 10
-860.283119
 20
-351.712906
 30
700.0
 70
    64
  0
VERTEX
  5
24E
  8
TEAM-NET
 10
-879.121891
 20
-310.280989
 30
700.0
 70
    64
  0
VERTEX
  5
24F
  8
TEAM-NET
 10
-895.573975
 20
-267.844778
 30
700.0
 70
    64
  0
VERTEX
  5
250
  8
TEAM-NET
 10
-909.58612
 20
-224.541628
 30
700.0
 70
    64
  0
VERTEX
  5
251
  8
TEAM-NET
 10
-921.112974
 20
-180.511698
 30
700.0
 70
    64
  0
VERTEX
  5
252
  8
TEAM-NET
 10
-930.117227
 20
-135.897502
 30
700.0
 70
    64
  0
VERTEX
  5
253
  8
TEAM-NET
 10
-936.569735
 20
-90.843443
 30
700.0
 70
    64
  0
VERTEX
  5
254
  8
TEAM-NET
 10
-940.449613
 20
-45.49535
 30
700.0
 70
    64
  0
VERTEX
  5
255
  8
TEAM-NET
 10
-941.744302
 20
0.0
 30
700.0
 70
    64
  0
SEQEND
  5
256
  8
TEAM-NET
  0
POLYLINE
  5
257
  8
TEAM-NET
 66
     1
 10
0.0
 20
0.0
 30
0.0
 70
    16
 71
     2
 72
    65
  0
VERTEX
  5
258
  8
TEAM-NET
 10
918.255698
 20
0.0
 30
700.0
 70
    64
  0
VERTEX
  5
259
  8
TEAM-NET
 10
917.124474
 20
38.625591
 30
700.0
 70
    64
  0
VERTEX
  5
25A
  8
TEAM-NET
 10
913.734679
 20
77.118776
 30
700.0
 70
    64
  0
VERTEX
  5
25B
  8
TEAM-NET
 10
908.097933
 20
115.347601
 30
700.0
 70
    64
  0
VERTEX
  5
25C
  8
TEAM-NET
 10
900.23356
 20
153.18102
 30
700.0
 70
    64
  0
VERTEX
  5
25D
  8
TEAM-NET
 10
890.168517
 20
190.489342
 30
700.0
 70
    64
  0
VERTEX
  5
25E
  8
TEAM-NET
 10
877.937307
 20
227.144676
 30
700.0
 70
    64
  0
VERTEX
  5
25F
  8
TEAM-NET
 10
863.581858
 20
263.021368
 30
700.0
 70
    64
  0
VERTEX
  5
260
  8
TEAM-NET
 10
847.15138
 20
297.996436
 30
700.0
 70
    64
  0
VERTEX
  5
261
  8
TEAM-NET
 10
828.702196
 20
331.949986
 30
700.0
 70
    64
  0
VERTEX
  5
262
  8
TEAM-NET
 10
808.297548
 20
364.765628
 30
700.0
 70
    64
  0
VERTEX
  5
263
  8
TEAM-NET
 10
786.007383
 20
396.33087
 30
700.0
 70
    64
  0
VERTEX
  5
264
  8
TEAM-NET
 10
761.908111
 20
426.537509
 30
700.0
 70
    64
  0
VERTEX
  5
265
  8
TEAM-NET
 10
736.082342
 20
455.281998
 30
700.0
 70
    64
  0
VERTEX
  5
266
  8
TEAM-NET
 10
708.618607
 20
482.465802
 30
700.0
 70
    64
  0
VERTEX
  5
267
  8
TEAM-NET
 10
679.611049
 20
507.995737
 30
700.0
 70
    64
  0
VERTEX
  5
268
  8
TEAM-NET
 10
649.159105
 20
531.784286
 30
700.0
 70
    64
  0
VERTEX
  5
269
  8
TEAM-NET
 10
617.367162
 20
553.749904
 30
700.0
 70
    64
  0
VERTEX
  5
26A
  8
TEAM-NET
 10
584.344203
 20
573.817294
 30
700.0
 70
    64
  0
VERTEX
  5
26B
  8
TEAM-NET
 10
550.203428
 20
591.917666
 30
700.0
 70
    64
  0
VERTEX
  5
26C
  8
TEAM-NET
 10
515.06187
 20
607.988972
 30
700.0
 70
    64
  0
VERTEX
  5
26D
  8
TEAM-NET
 10
479.039993
 20
621.976121
 30
700.0
 70
    64
  0
VERTEX
  5
26E
  8
TEAM-NET
 10
442.261278
 20
633.831166
 30
700.0
 70
    64
  0
VERTEX
  5
26F
  8
TEAM-NET
 10
404.8518
 20
643.513467
 30
700.0
 70
    64
  0
VERTEX
  5
270
  8
TEAM-NET
 10
366.939799
 20
650.989836
 30
700.0
 70
    64
  0
VERTEX
  5
271
  8
TEAM-NET
 10
328.655233
 20
656.234642
 30
700.0
 70
    64
  0
VERTEX
  5
272
  8
TEAM-NET
 10
290.129341
 20
659.229907
 30
700.0
 70
    64
  0
VERTEX
  5
273
  8
TEAM-NET
 10
251.494069
 20
660.0
 30
700.0
 70
    64
  0
VERTEX
  5
274
  8
TEAM-NET
 10
212.846395
 20
660.0
 30
700.0
 70
    64
  0
VERTEX
  5
275
  8
TEAM-NET
 10
174.198721
 20
660.0
 30
700.0
 70
    64
  0
VERTEX
  5
276
  8
TEAM-NET
 10
135.551046
 20
660.0
 30
700.0
 70
    64
  0
VERTEX
  5
277
  8
TEAM-NET
 10
96.903372
 20
660.0
 30
700.0
 70
    64
  0
VERTEX
  5
278
  8
TEAM-NET
 10
58.255698
 20
660.0
 30
700.0
 70
    64
  0
VERTEX
  5
279
  8
TEAM-NET
 10
19.608024
 20
660.0
 30
700.0
 70
    64
  0
VERTEX
  5
27A
  8
TEAM-NET
 10
-19.039651
 20
660.0
 30
700.0
 70
    64
  0
VERTEX
  5
27B
  8
TEAM-NET
 10
-57.687325
 20
660.0
 30
700.0
 70
    64
  0
VERTEX
  5
27C
  8
TEAM-NET
 10
-96.334999
 20
660.0
 30
700.0
 70
    64
  0
VERTEX
  5
27D
  8
TEAM-NET
 10
-134.982673
 20
660.0
 30
700.0
 70
    64
  0
VERTEX
  5
27E
  8
TEAM-NET
 10
-173.617945
 20
659.229907
 30
700.0
 70
    64
  0
VERTEX
  5
27F
  8
TEAM-NET
 10
-212.143837
 20
656.234642
 30
700.0
 70
    64
  0
VERTEX
  5
280
  8
TEAM-NET
 10
-250.428403
 20
650.989836
 30
700.0
 70
    64
  0
VERTEX
  5
281
  8
TEAM-NET
 10
-288.340405
 20
643.513467
 30
700.0
 70
    64
  0
VERTEX
  5
282
  8
TEAM-NET
 10
-325.749882
 20
633.831166
 30
700.0
 70
    64
  0
VERTEX
  5
283
  8
TEAM-NET
 10
-362.528597
 20
621.976121
 30
700.0
 70
    64
  0
VERTEX
  5
284
  8
TEAM-NET
 10
-398.550475
 20
607.988972
 30
700.0
 70
    64
  0
VERTEX
  5
285
  8
TEAM-NET
 10
-433.692032
 20
591.917666
 30
700.0
 70
    64
  0
VERTEX
  5
286
  8
TEAM-NET
 10
-467.832807
 20
573.817294
 30
700.0
 70
    64
  0
VERTEX
  5
287
  8
TEAM-NET
 10
-500.855767
 20
553.749904
 30
700.0
 70
    64
  0
VERTEX
  5
288
  8
TEAM-NET
 10
-532.647709
 20
531.784286
 30
700.0
 70
    64
  0
VERTEX
  5
289
  8
TEAM-NET
 10
-563.099653
 20
507.995737
 30
700.0
 70
    64
  0
VERTEX
  5
28A
  8
TEAM-NET
 10
-592.107211
 20
482.465802
 30
700.0
 70
    64
  0
VERTEX
  5
28B
  8
TEAM-NET
 10
-619.570947
 20
455.281998
 30
700.0
 70
    64
  0
VERTEX
  5
28C
  8
TEAM-NET
 10
-645.396715
 20
426.537509
 30
700.0
 70
    64
  0
VERTEX
  5
28D
  8
TEAM-NET
 10
-669.495988
 20
396.33087
 30
700.0
 70
    64
  0
VERTEX
  5
28E
  8
TEAM-NET
 10
-691.786152
 20
364.765628
 30
700.0
 70
    64
  0
VERTEX
  5
28F
  8
TEAM-NET
 10
-712.1908
 20
331.949986
 30
700.0
 70
    64
  0
VERTEX
  5
290
  8
TEAM-NET
 10
-730.639984
 20
297.996436
 30
700.0
 70
    64
  0
VERTEX
  5
291
  8
TEAM-NET
 10
-747.070462
 20
263.021368
 30
700.0
 70
    64
  0
VERTEX
  5
292
  8
TEAM-NET
 10
-761.425911
 20
227.144676
 30
700.0
 70
    64
  0
VERTEX
  5
293
  8
TEAM-NET
 10
-773.657121
 20
190.489342
 30
700.0
 70
    64
  0
VERTEX
  5
294
  8
TEAM-NET
 10
-783.722164
 20
153.18102
 30
700.0
 70
    64
  0
VERTEX
  5
295
  8
TEAM-NET
 10
-791.586538
 20
115.347601
 30
700.0
 70
    64
  0
VERTEX
  5
296
  8
TEAM-NET
 10
-797.223283
 20
77.118776
 30
700.0
 70
    64
  0
VERTEX
  5
297
  8
TEAM-NET
 10
-800.613078
 20
38.625591
 30
700.0
 70
    64
  0
VERTEX
  5
298
  8
TEAM-NET
 10
-801.744302
 20
0.0
 30
700.0
 70
    64
  0
VERTEX
  5
299
  8
TEAM-NET
 10
1058.255698
 20
0.0
 30
700.0
 70
    64
  0
VERTEX
  5
29A
  8
TEAM-NET
 10
1056.961008
 20
45.49535
 30
700.0
 70
    64
  0
VERTEX
  5
29B
  8
TEAM-NET
 10
1053.081131
 20
90.843443
 30
700.0
 70
    64
  0
VERTEX
  5
29C
  8
TEAM-NET
 10
1046.628623
 20
135.897502
 30
700.0
 70
    64
  0
VERTEX
  5
29D
  8
TEAM-NET
 10
1037.62437
 20
180.511698
 30
700.0
 70
    64
  0
VERTEX
  5
29E
  8
TEAM-NET
 10
1026.097516
 20
224.541628
 30
700.0
 70
    64
  0
VERTEX
  5
29F
  8
TEAM-NET
 10
1012.08537
 20
267.844778
 30
700.0
 70
    64
  0
VERTEX
  5
2A0
  8
TEAM-NET
 10
995.633286
 20
310.280989
 30
700.0
 70
    64
  0
VERTEX
  5
2A1
  8
TEAM-NET
 10
976.794515
 20
351.712906
 30
700.0
 70
    64
  0
VERTEX
  5
2A2
  8
TEAM-NET
 10
955.630032
 20
392.006426
 30
700.0
 70
    64
  0
VERTEX
  5
2A3
  8
TEAM-NET
 10
932.208342
 20
431.031129
 30
700.0
 70
    64
  0
VERTEX
  5
2A4
  8
TEAM-NET
 10
906.605252
 20
468.660704
 30
700.0
 70
    64
  0
VERTEX
  5
2A5
  8
TEAM-NET
 10
878.903635
 20
504.773353
 30
700.0
 70
    64
  0
VERTEX
  5
2A6
  8
TEAM-NET
 10
849.193152
 20
539.252191
 30
700.0
 70
    64
  0
VERTEX
  5
2A7
  8
TEAM-NET
 10
817.569968
 20
571.985618
 30
700.0
 70
    64
  0
VERTEX
  5
2A8
  8
TEAM-NET
 10
784.136438
 20
602.867686
 30
700.0
 70
    64
  0
VERTEX
  5
2A9
  8
TEAM-NET
 10
749.000777
 20
631.798439
 30
700.0
 70
    64
  0
VERTEX
  5
2AA
  8
TEAM-NET
 10
712.276711
 20
658.684234
 30
700.0
 70
    64
  0
VERTEX
  5
2AB
  8
TEAM-NET
 10
674.083104
 20
683.43805
 30
700.0
 70
    64
  0
VERTEX
  5
2AC
  8
TEAM-NET
 10
634.543578
 20
705.979767
 30
700.0
 70
    64
  0
VERTEX
  5
2AD
  8
TEAM-NET
 10
593.786113
 20
726.236422
 30
700.0
 70
    64
  0
VERTEX
  5
2AE
  8
TEAM-NET
 10
551.942628
 20
744.142451
 30
700.0
 70
    64
  0
VERTEX
  5
2AF
  8
TEAM-NET
 10
509.14856
 20
759.639896
 30
700.0
 70
    64
  0
VERTEX
  5
2B0
  8
TEAM-NET
 10
465.542422
 20
772.678597
 30
700.0
 70
    64
  0
VERTEX
  5
2B1
  8
TEAM-NET
 10
421.265353
 20
783.216351
 30
700.0
 70
    64
  0
VERTEX
  5
2B2
  8
TEAM-NET
 10
376.460667
 20
791.21905
 30
700.0
 70
    64
  0
VERTEX
  5
2B3
  8
TEAM-NET
 10
331.273385
 20
796.660792
 30
700.0
 70
    64
  0
VERTEX
  5
2B4
  8
TEAM-NET
 10
285.849764
 20
799.523963
 30
700.0
 70
    64
  0
VERTEX
  5
2B5
  8
TEAM-NET
 10
240.33533
 20
800.0
 30
700.0
 70
    64
  0
VERTEX
  5
2B6
  8
TEAM-NET
 10
194.815422
 20
800.0
 30
700.0
 70
    64
  0
VERTEX
  5
2B7
  8
TEAM-NET
 10
149.295514
 20
800.0
 30
700.0
 70
    64
  0
VERTEX
  5
2B8
  8
TEAM-NET
 10
103.775606
 20
800.0
 30
700.0
 70
    64
  0
VERTEX
  5
2B9
  8
TEAM-NET
 10
58.255698
 20
800.0
 30
700.0
 70
    64
  0
VERTEX
  5
2BA
  8
TEAM-NET
 10
12.73579
 20
800.0
 30
700.0
 70
    64
  0
VERTEX
  5
2BB
  8
TEAM-NET
 10
-32.784119
 20
800.0
 30
700.0
 70
    64
  0
VERTEX
  5
2BC
  8
TEAM-NET
 10
-78.304027
 20
800.0
 30
700.0
 70
    64
  0
VERTEX
  5
2BD
  8
TEAM-NET
 10
-123.823935
 20
800.0
 30
700.0
 70
    64
  0
VERTEX
  5
2BE
  8
TEAM-NET
 10
-169.338368
 20
799.523963
 30
700.0
 70
    64
  0
VERTEX
  5
2BF
  8
TEAM-NET
 10
-214.761989
 20
796.660792
 30
700.0
 70
    64
  0
VERTEX
  5
2C0
  8
TEAM-NET
 10
-259.949272
 20
791.21905
 30
700.0
 70
    64
  0
VERTEX
  5
2C1
  8
TEAM-NET
 10
-304.753957
 20
783.216351
 30
700.0
 70
    64
  0
VERTEX
  5
2C2
  8
TEAM-NET
 10
-349.031026
 20
772.678597
 30
700.0
 70
    64
  0
VERTEX
  5
2C3
  8
TEAM-NET
 10
-392.637165
 20
759.639896
 30
700.0
 70
    64
  0
VERTEX
  5
2C4
  8
TEAM-NET
 10
-435.431233
 20
744.142451
 30
700.0
 70
    64
  0
VERTEX
  5
2C5
  8
TEAM-NET
 10
-477.274717
 20
726.236422
 30
700.0
 70
    64
  0
VERTEX
  5
2C6
  8
TEAM-NET
 10
-518.032182
 20
705.979767
 30
700.0
 70
    64
  0
VERTEX
  5
2C7
  8
TEAM-NET
 10
-557.571708
 20
683.43805
 30
700.0
 70
    64
  0
VERTEX
  5
2C8
  8
TEAM-NET
 10
-595.765315
 20
658.684234
 30
700.0
 70
    64
  0
VERTEX
  5
2C9
  8
TEAM-NET
 10
-632.489382
 20
631.798439
 30
700.0
 70
    64
  0
VERTEX
  5
2CA
  8
TEAM-NET
 10
-667.625042
 20
602.867686
 30
700.0
 70
    64
  0
VERTEX
  5
2CB
  8
TEAM-NET
 10
-701.058572
 20
571.985618
 30
700.0
 70
    64
  0
VERTEX
  5
2CC
  8
TEAM-NET
 10
-732.681756
 20
539.252191
 30
700.0
 70
    64
  0
VERTEX
  5
2CD
  8
TEAM-NET
 10
-762.392239
 20
504.773353
 30
700.0
 70
    64
  0
VERTEX
  5
2CE
  8
TEAM-NET
 10
-790.093857
 20
468.660704
 30
700.0
 70
    64
  0
VERTEX
  5
2CF
  8
TEAM-NET
 10
-815.696946
 20
431.031129
 30
700.0
 70
    64
  0
VERTEX
  5
2D0
  8
TEAM-NET
 10
-839.118637
 20
392.006426
 30
700.0
 70
    64
  0
VERTEX
  5
2D1
  8
TEAM-NET
 10
-860.283119
 20
351.712906
 30
700.0
 70
    64
  0
VERTEX
  5
2D2
  8
TEAM-NET
 10
-879.121891
 20
310.280989
 30
700.0
 70
    64
  0
VERTEX
  5
2D3
  8
TEAM-NET
 10
-895.573975
 20
267.844778
 30
700.0
 70
    64
  0
VERTEX
  5
2D4
  8
TEAM-NET
 10
-909.58612
 20
224.541628
 30
700.0
 70
    64
  0
VERTEX
  5
2D5
  8
TEAM-NET
 10
-921.112974
 20
180.511698
 30
700.0
 70
    64
  0
VERTEX
  5
2D6
  8
TEAM-NET
 10
-930.117227
 20
135.897502
 30
700.0
 70
    64
  0
VERTEX
  5
2D7
  8
TEAM-NET
 10
-936.569735
 20
90.843443
 30
700.0
 70
    64
  0
VERTEX
  5
2D8
  8
TEAM-NET
 10
-940.449613
 20
45.49535
 30
700.0
 70
    64
  0
VERTEX
  5
2D9
  8
TEAM-NET
 10
-941.744302
 20
0.0
 30
700.0
 70
    64
  0
SEQEND
  5
2DA
  8
TEAM-NET
  0
POLYLINE
  5
2DB
  8
TEAM-BODY
 66
     1
 10
0.0
 20
0.0
 30
700.0
  0
VERTEX
  5
49A
  8
TEAM-BODY
 10
-801.744302
 20
0.0
 30
700.0
 42
0.414214
  0
VERTEX
  5
49B
  8
TEAM-BODY
 10
-141.744302
 20
-660.0
 30
700.0
  0
VERTEX
  5
49C
  8
TEAM-BODY
 10
258.255698
 20
-660.0
 30
700.0
 42
0.414214
  0
VERTEX
  5
49D
  8
TEAM-BODY
 10
918.255698
 20
0.0
 30
700.0
  0
SEQEND
  5
49E
  8
TEAM-BODY
  0
POLYLINE
  5
2DC
  8
TEAM-BODY
 66
     1
 10
0.0
 20
0.0
 30
700.0
  0
VERTEX
  5
49F
  8
TEAM-BODY
 10
1018.255698
 20
0.0
 30
700.0
 42
0.414214
  0
VERTEX
  5
4A0
  8
TEAM-BODY
 10
258.255698
 20
760.0
 30
700.0
  0
VERTEX
  5
4A1
  8
TEAM-BODY
 10
-141.744302
 20
760.0
 30
700.0
 42
0.414214
  0
VERTEX
  5
4A2
  8
TEAM-BODY
 10
-901.744302
 20
0.0
 30
700.0
 42
0.397957
  0
SEQEND
  5
4A3
  8
TEAM-BODY
  0
POLYLINE
  5
2DD
  8
TEAM-BODY
 66
     1
 10
0.0
 20
0.0
 30
700.0
  0
VERTEX
  5
4A4
  8
TEAM-BODY
 10
918.255698
 20
0.0
 30
700.0
 42
0.414214
  0
VERTEX
  5
4A5
  8
TEAM-BODY
 10
258.255698
 20
660.0
 30
700.0
  0
VERTEX
  5
4A6
  8
TEAM-BODY
 10
-141.744302
 20
660.0
 30
700.0
 42
0.414214
  0
VERTEX
  5
4A7
  8
TEAM-BODY
 10
-801.744302
 20
0.0
 30
700.0
 42
0.395507
  0
SEQEND
  5
4A8
  8
TEAM-BODY
  0
POLYLINE
  5
2DE
  8
TEAM-DET1
 66
     1
 10
0.0
 20
0.0
 30
700.0
 70
     1
  0
VERTEX
  5
4A9
  8
TEAM-DET1
 10
-21.481192
 20
-735.099668
 30
700.0
  0
VERTEX
  5
4AA
  8
TEAM-DET1
 10
137.992587
 20
-735.099668
 30
700.0
  0
VERTEX
  5
4AB
  8
TEAM-DET1
 10
137.992587
 20
-686.593568
 30
700.0
  0
VERTEX
  5
4AC
  8
TEAM-DET1
 10
-21.481192
 20
-686.593568
 30
700.0
  0
SEQEND
  5
4AD
  8
TEAM-DET1
  0
POLYLINE
  5
2E0
  8
TEAM-DET1
 66
     1
 10
0.0
 20
0.0
 30
700.0
 70
     1
  0
VERTEX
  5
4AE
  8
TEAM-DET1
 10
6.255698
 20
-710.846618
 30
700.0
  0
VERTEX
  5
4AF
  8
TEAM-DET1
 10
6.895906
 20
-709.047622
 30
700.0
  0
VERTEX
  5
4B0
  8
TEAM-DET1
 10
8.80076
 20
-707.292922
 30
700.0
  0
VERTEX
  5
4B1
  8
TEAM-DET1
 10
11.92336
 20
-705.625726
 30
700.0
  0
VERTEX
  5
4B2
  8
TEAM-DET1
 10
16.186816
 20
-704.087086
 30
700.0
  0
VERTEX
  5
4B3
  8
TEAM-DET1
 10
21.486146
 20
-702.71489
 30
700.0
  0
VERTEX
  5
4B4
  8
TEAM-DET1
 10
27.690866
 20
-701.542922
 30
700.0
  0
VERTEX
  5
4B5
  8
TEAM-DET1
 10
34.648192
 20
-700.600042
 30
700.0
  0
VERTEX
  5
4B6
  8
TEAM-DET1
 10
42.186816
 20
-699.909468
 30
700.0
  0
VERTEX
  5
4B7
  8
TEAM-DET1
 10
50.121106
 20
-699.488202
 30
700.0
  0
VERTEX
  5
4B8
  8
TEAM-DET1
 10
58.255698
 20
-699.346618
 30
700.0
  0
VERTEX
  5
4B9
  8
TEAM-DET1
 10
66.39029
 20
-699.488202
 30
700.0
  0
VERTEX
  5
4BA
  8
TEAM-DET1
 10
74.324582
 20
-699.909468
 30
700.0
  0
VERTEX
  5
4BB
  8
TEAM-DET1
 10
81.863204
 20
-700.600042
 30
700.0
  0
VERTEX
  5
4BC
  8
TEAM-DET1
 10
88.820532
 20
-701.542922
 30
700.0
  0
VERTEX
  5
4BD
  8
TEAM-DET1
 10
95.025252
 20
-702.71489
 30
700.0
  0
VERTEX
  5
4BE
  8
TEAM-DET1
 10
100.324582
 20
-704.087086
 30
700.0
  0
VERTEX
  5
4BF
  8
TEAM-DET1
 10
104.588038
 20
-705.625726
 30
700.0
  0
VERTEX
  5
4C0
  8
TEAM-DET1
 10
107.710638
 20
-707.292922
 30
700.0
  0
VERTEX
  5
4C1
  8
TEAM-DET1
 10
109.615492
 20
-709.047622
 30
700.0
  0
VERTEX
  5
4C2
  8
TEAM-DET1
 10
110.255698
 20
-710.846618
 30
700.0
  0
VERTEX
  5
4C3
  8
TEAM-DET1
 10
109.615492
 20
-712.645614
 30
700.0
  0
VERTEX
  5
4C4
  8
TEAM-DET1
 10
107.710638
 20
-714.400312
 30
700.0
  0
VERTEX
  5
4C5
  8
TEAM-DET1
 10
104.588038
 20
-716.067508
 30
700.0
  0
VERTEX
  5
4C6
  8
TEAM-DET1
 10
100.324582
 20
-717.606148
 30
700.0
  0
VERTEX
  5
4C7
  8
TEAM-DET1
 10
95.025252
 20
-718.978346
 30
700.0
  0
VERTEX
  5
4C8
  8
TEAM-DET1
 10
88.820532
 20
-720.150312
 30
700.0
  0
VERTEX
  5
4C9
  8
TEAM-DET1
 10
81.863204
 20
-721.093192
 30
700.0
  0
VERTEX
  5
4CA
  8
TEAM-DET1
 10
74.324582
 20
-721.783768
 30
700.0
  0
VERTEX
  5
4CB
  8
TEAM-DET1
 10
66.39029
 20
-722.205034
 30
700.0
  0
VERTEX
  5
4CC
  8
TEAM-DET1
 10
58.255698
 20
-722.346618
 30
700.0
  0
VERTEX
  5
4CD
  8
TEAM-DET1
 10
50.121106
 20
-722.205034
 30
700.0
  0
VERTEX
  5
4CE
  8
TEAM-DET1
 10
42.186816
 20
-721.783768
 30
700.0
  0
VERTEX
  5
4CF
  8
TEAM-DET1
 10
34.648192
 20
-721.093192
 30
700.0
  0
VERTEX
  5
4D0
  8
TEAM-DET1
 10
27.690866
 20
-720.150312
 30
700.0
  0
VERTEX
  5
4D1
  8
TEAM-DET1
 10
21.486146
 20
-718.978346
 30
700.0
  0
VERTEX
  5
4D2
  8
TEAM-DET1
 10
16.186816
 20
-717.606148
 30
700.0
  0
VERTEX
  5
4D3
  8
TEAM-DET1
 10
11.92336
 20
-716.067508
 30
700.0
  0
VERTEX
  5
4D4
  8
TEAM-DET1
 10
8.80076
 20
-714.400312
 30
700.0
  0
VERTEX
  5
4D5
  8
TEAM-DET1
 10
6.895906
 20
-712.645614
 30
700.0
  0
SEQEND
  5
4D6
  8
TEAM-DET1
  0
POLYLINE
  5
2E1
  8
TEAM-DET1
 66
     1
 10
0.0
 20
0.0
 30
700.0
 70
     1
  0
VERTEX
  5
4D7
  8
TEAM-DET1
 10
6.255698
 20
713.673478
 30
700.0
  0
VERTEX
  5
4D8
  8
TEAM-DET1
 10
6.895906
 20
711.874482
 30
700.0
  0
VERTEX
  5
4D9
  8
TEAM-DET1
 10
8.80076
 20
710.119782
 30
700.0
  0
VERTEX
  5
4DA
  8
TEAM-DET1
 10
11.92336
 20
708.452586
 30
700.0
  0
VERTEX
  5
4DB
  8
TEAM-DET1
 10
16.186816
 20
706.913946
 30
700.0
  0
VERTEX
  5
4DC
  8
TEAM-DET1
 10
21.486146
 20
705.54175
 30
700.0
  0
VERTEX
  5
4DD
  8
TEAM-DET1
 10
27.690866
 20
704.369782
 30
700.0
  0
VERTEX
  5
4DE
  8
TEAM-DET1
 10
34.648192
 20
703.426902
 30
700.0
  0
VERTEX
  5
4DF
  8
TEAM-DET1
 10
42.186816
 20
702.736328
 30
700.0
  0
VERTEX
  5
4E0
  8
TEAM-DET1
 10
50.121106
 20
702.315062
 30
700.0
  0
VERTEX
  5
4E1
  8
TEAM-DET1
 10
58.255698
 20
702.173478
 30
700.0
  0
VERTEX
  5
4E2
  8
TEAM-DET1
 10
66.39029
 20
702.315062
 30
700.0
  0
VERTEX
  5
4E3
  8
TEAM-DET1
 10
74.324582
 20
702.736328
 30
700.0
  0
VERTEX
  5
4E4
  8
TEAM-DET1
 10
81.863204
 20
703.426902
 30
700.0
  0
VERTEX
  5
4E5
  8
TEAM-DET1
 10
88.820532
 20
704.369782
 30
700.0
  0
VERTEX
  5
4E6
  8
TEAM-DET1
 10
95.025252
 20
705.54175
 30
700.0
  0
VERTEX
  5
4E7
  8
TEAM-DET1
 10
100.324582
 20
706.913946
 30
700.0
  0
VERTEX
  5
4E8
  8
TEAM-DET1
 10
104.588038
 20
708.452586
 30
700.0
  0
VERTEX
  5
4E9
  8
TEAM-DET1
 10
107.710638
 20
710.119782
 30
700.0
  0
VERTEX
  5
4EA
  8
TEAM-DET1
 10
109.615492
 20
711.874482
 30
700.0
  0
VERTEX
  5
4EB
  8
TEAM-DET1
 10
110.255698
 20
713.673478
 30
700.0
  0
VERTEX
  5
4EC
  8
TEAM-DET1
 10
109.615492
 20
715.472474
 30
700.0
  0
VERTEX
  5
4ED
  8
TEAM-DET1
 10
107.710638
 20
717.227172
 30
700.0
  0
VERTEX
  5
4EE
  8
TEAM-DET1
 10
104.588038
 20
718.894368
 30
700.0
  0
VERTEX
  5
4EF
  8
TEAM-DET1
 10
100.324582
 20
720.433008
 30
700.0
  0
VERTEX
  5
4F0
  8
TEAM-DET1
 10
95.025252
 20
721.805206
 30
700.0
  0
VERTEX
  5
4F1
  8
TEAM-DET1
 10
88.820532
 20
722.977172
 30
700.0
  0
VERTEX
  5
4F2
  8
TEAM-DET1
 10
81.863204
 20
723.920052
 30
700.0
  0
VERTEX
  5
4F3
  8
TEAM-DET1
 10
74.324582
 20
724.610628
 30
700.0
  0
VERTEX
  5
4F4
  8
TEAM-DET1
 10
66.39029
 20
725.031894
 30
700.0
  0
VERTEX
  5
4F5
  8
TEAM-DET1
 10
58.255698
 20
725.173478
 30
700.0
  0
VERTEX
  5
4F6
  8
TEAM-DET1
 10
50.121106
 20
725.031894
 30
700.0
  0
VERTEX
  5
4F7
  8
TEAM-DET1
 10
42.186816
 20
724.610628
 30
700.0
  0
VERTEX
  5
4F8
  8
TEAM-DET1
 10
34.648192
 20
723.920052
 30
700.0
  0
VERTEX
  5
4F9
  8
TEAM-DET1
 10
27.690866
 20
722.977172
 30
700.0
  0
VERTEX
  5
4FA
  8
TEAM-DET1
 10
21.486146
 20
721.805206
 30
700.0
  0
VERTEX
  5
4FB
  8
TEAM-DET1
 10
16.186816
 20
720.433008
 30
700.0
  0
VERTEX
  5
4FC
  8
TEAM-DET1
 10
11.92336
 20
718.894368
 30
700.0
  0
VERTEX
  5
4FD
  8
TEAM-DET1
 10
8.80076
 20
717.227172
 30
700.0
  0
VERTEX
  5
4FE
  8
TEAM-DET1
 10
6.895906
 20
715.472474
 30
700.0
  0
SEQEND
  5
4FF
  8
TEAM-DET1
  0
POLYLINE
  5
2E2
  8
TEAM-DET1
 66
     1
 10
0.0
 20
0.0
 30
700.0
 70
     1
  0
VERTEX
  5
500
  8
TEAM-DET1
 10
-21.481192
 20
737.926528
 30
700.0
  0
VERTEX
  5
501
  8
TEAM-DET1
 10
137.992587
 20
737.926528
 30
700.0
  0
VERTEX
  5
502
  8
TEAM-DET1
 10
137.992587
 20
689.420428
 30
700.0
  0
VERTEX
  5
503
  8
TEAM-DET1
 10
-21.481192
 20
689.420428
 30
700.0
  0
SEQEND
  5
504
  8
TEAM-DET1
  0
POLYLINE
  5
2E3
  8
TEAM-DET1
 66
     1
 10
0.0
 20
0.0
 30
700.0
 70
     1
  0
VERTEX
  5
505
  8
TEAM-DET1
 10
-21.481192
 20
-748.076668
 30
700.0
  0
VERTEX
  5
506
  8
TEAM-DET1
 10
137.992587
 20
-748.076668
 30
700.0
  0
VERTEX
  5
507
  8
TEAM-DET1
 10
137.992587
 20
-735.099668
 30
700.0
  0
VERTEX
  5
508
  8
TEAM-DET1
 10
-21.481192
 20
-735.099668
 30
700.0
  0
SEQEND
  5
509
  8
TEAM-DET1
  0
POLYLINE
  5
2E4
  8
TEAM-DET1
 66
     1
 10
0.0
 20
0.0
 30
700.0
 70
     1
  0
VERTEX
  5
50A
  8
TEAM-DET1
 10
-21.481192
 20
-761.053667
 30
700.0
  0
VERTEX
  5
50B
  8
TEAM-DET1
 10
137.992587
 20
-761.053667
 30
700.0
  0
VERTEX
  5
50C
  8
TEAM-DET1
 10
137.992587
 20
-748.076668
 30
700.0
  0
VERTEX
  5
50D
  8
TEAM-DET1
 10
-21.481192
 20
-748.076668
 30
700.0
  0
SEQEND
  5
50E
  8
TEAM-DET1
  0
POLYLINE
  5
2E5
  8
TEAM-DET1
 66
     1
 10
0.0
 20
0.0
 30
700.0
 70
     1
  0
VERTEX
  5
50F
  8
TEAM-DET1
 10
-21.481192
 20
-774.030667
 30
700.0
  0
VERTEX
  5
510
  8
TEAM-DET1
 10
137.992587
 20
-774.030667
 30
700.0
  0
VERTEX
  5
511
  8
TEAM-DET1
 10
137.992587
 20
-761.053667
 30
700.0
  0
VERTEX
  5
512
  8
TEAM-DET1
 10
-21.481192
 20
-761.053667
 30
700.0
  0
SEQEND
  5
513
  8
TEAM-DET1
  0
POLYLINE
  5
2E6
  8
TEAM-DET1
 66
     1
 10
0.0
 20
0.0
 30
700.0
 70
     1
  0
VERTEX
  5
514
  8
TEAM-DET1
 10
-21.481192
 20
-787.007666
 30
700.0
  0
VERTEX
  5
515
  8
TEAM-DET1
 10
137.992587
 20
-787.007666
 30
700.0
  0
VERTEX
  5
516
  8
TEAM-DET1
 10
137.992587
 20
-774.030667
 30
700.0
  0
VERTEX
  5
517
  8
TEAM-DET1
 10
-21.481192
 20
-774.030667
 30
700.0
  0
SEQEND
  5
518
  8
TEAM-DET1
  0
POLYLINE
  5
2E7
  8
TEAM-DET1
 66
     1
 10
0.0
 20
0.0
 30
700.0
 70
     1
  0
VERTEX
  5
519
  8
TEAM-DET1
 10
-21.481192
 20
-799.984666
 30
700.0
  0
VERTEX
  5
51A
  8
TEAM-DET1
 10
137.992587
 20
-799.984666
 30
700.0
  0
VERTEX
  5
51B
  8
TEAM-DET1
 10
137.992587
 20
-787.007666
 30
700.0
  0
VERTEX
  5
51C
  8
TEAM-DET1
 10
-21.481192
 20
-787.007666
 30
700.0
  0
SEQEND
  5
51D
  8
TEAM-DET1
  0
TEXT
  5
2E8
  8
TEAM-TXT
 10
-596.669901
 20
147.962559
 30
700.0
 40
30.0
  1
team 121029
 41
0.8
 51
15.0
  7
TEAM
  0
ENDSEC
  0
EOF
