  0
SECTION
  2
HEADER
  9
$ACADVER
  1
AC1009
  9
$INSBASE
 10
0.0
 20
0.0
 30
0.0
  9
$EXTMIN
 10
-950.141134
 20
-450.036967
 30
-0.019895
  9
$EXTMAX
 10
950.109562
 20
450.004294
 30
600.035648
  9
$LIMMIN
 10
-950.141134
 20
-450.036967
  9
$LIMMAX
 10
950.109562
 20
450.004294
  9
$ORTHOMODE
 70
     1
  9
$REGENMODE
 70
     1
  9
$FILLMODE
 70
     1
  9
$QTEXTMODE
 70
     0
  9
$MIRRTEXT
 70
     0
  9
$DRAGMODE
 70
     2
  9
$LTSCALE
 40
50.0
  9
$OSMODE
 70
     0
  9
$ATTMODE
 70
     1
  9
$TEXTSIZE
 40
200.0
  9
$TRACEWID
 40
1.0
  9
$TEXTSTYLE
  7
STANDARD
  9
$CLAYER
  8
TEAM-MAS
  9
$CELTYPE
  6
BYLAYER
  9
$CECOLOR
 62
   256
  9
$DIMSCALE
 40
0.0
  9
$DIMASZ
 40
20.0
  9
$DIMEXO
 40
10.0
  9
$DIMDLI
 40
1.0
  9
$DIMRND
 40
0.0
  9
$DIMDLE
 40
0.0
  9
$DIMEXE
 40
1.0
  9
$DIMTP
 40
0.0
  9
$DIMTM
 40
0.0
  9
$DIMTXT
 40
35.0
  9
$DIMCEN
 40
1.0
  9
$DIMTSZ
 40
0.0
  9
$DIMTOL
 70
     0
  9
$DIMLIM
 70
     0
  9
$DIMTIH
 70
     0
  9
$DIMTOH
 70
     0
  9
$DIMSE1
 70
     0
  9
$DIMSE2
 70
     0
  9
$DIMTAD
 70
     0
  9
$DIMZIN
 70
     0
  9
$DIMBLK
  1

  9
$DIMASO
 70
     1
  9
$DIMSHO
 70
     0
  9
$DIMPOST
  1

  9
$DIMAPOST
  1

  9
$DIMALT
 70
     0
  9
$DIMALTD
 70
     2
  9
$DIMALTF
 40
25.4
  9
$DIMLFAC
 40
1.0
  9
$DIMTOFL
 70
     0
  9
$DIMTVP
 40
0.0
  9
$DIMTIX
 70
     0
  9
$DIMSOXD
 70
     0
  9
$DIMSAH
 70
     0
  9
$DIMBLK1
  1

  9
$DIMBLK2
  1

  9
$DIMSTYLE
  2
TEAM
  9
$DIMCLRD
 70
     9
  9
$DIMCLRE
 70
     9
  9
$DIMCLRT
 70
    11
  9
$DIMTFAC
 40
1.0
  9
$DIMGAP
 40
15.0
  9
$LUNITS
 70
     2
  9
$LUPREC
 70
     1
  9
$SKETCHINC
 40
1.0
  9
$FILLETRAD
 40
100.0
  9
$AUNITS
 70
     0
  9
$AUPREC
 70
     0
  9
$MENU
  1
ROPLANS
  9
$ELEVATION
 40
0.0
  9
$PELEVATION
 40
0.0
  9
$THICKNESS
 40
0.0
  9
$LIMCHECK
 70
     0
  9
$BLIPMODE
 70
     1
  9
$CHAMFERA
 40
0.0
  9
$CHAMFERB
 40
0.0
  9
$SKPOLY
 70
     0
  9
$TDCREATE
 40
2450392.957851
  9
$TDUPDATE
 40
2455687.935341
  9
$TDINDWG
 40
2.198397
  9
$TDUSRTIMER
 40
2.198397
  9
$USRTIMER
 70
     1
  9
$ANGBASE
 50
0.0
  9
$ANGDIR
 70
     0
  9
$PDMODE
 70
     0
  9
$PDSIZE
 40
0.0
  9
$PLINEWID
 40
0.0
  9
$COORDS
 70
     2
  9
$SPLFRAME
 70
     0
  9
$SPLINETYPE
 70
     6
  9
$SPLINESEGS
 70
     8
  9
$ATTDIA
 70
     0
  9
$ATTREQ
 70
     0
  9
$HANDLING
 70
     1
  9
$HANDSEED
  5
410
  9
$SURFTAB1
 70
    24
  9
$SURFTAB2
 70
    24
  9
$SURFTYPE
 70
     6
  9
$SURFU
 70
     6
  9
$SURFV
 70
     6
  9
$UCSNAME
  2

  9
$UCSORG
 10
0.0
 20
0.0
 30
0.0
  9
$UCSXDIR
 10
1.0
 20
0.0
 30
0.0
  9
$UCSYDIR
 10
0.0
 20
1.0
 30
0.0
  9
$PUCSNAME
  2

  9
$PUCSORG
 10
0.0
 20
0.0
 30
0.0
  9
$PUCSXDIR
 10
1.0
 20
0.0
 30
0.0
  9
$PUCSYDIR
 10
0.0
 20
1.0
 30
0.0
  9
$USERI1
 70
     0
  9
$USERI2
 70
     0
  9
$USERI3
 70
     0
  9
$USERI4
 70
     0
  9
$USERI5
 70
     0
  9
$USERR1
 40
0.0
  9
$USERR2
 40
0.0
  9
$USERR3
 40
0.0
  9
$USERR4
 40
0.0
  9
$USERR5
 40
0.0
  9
$WORLDVIEW
 70
     1
  9
$SHADEDGE
 70
     0
  9
$SHADEDIF
 70
    70
  9
$TILEMODE
 70
     1
  9
$MAXACTVP
 70
    16
  9
$PLIMCHECK
 70
     0
  9
$PEXTMIN
 10
-0.805942
 20
0.005011
 30
0.0
  9
$PEXTMAX
 10
20.250094
 20
11.356329
 30
0.0
  9
$PLIMMIN
 10
0.0
 20
0.0
  9
$PLIMMAX
 10
12.0
 20
9.0
  9
$UNITMODE
 70
     0
  9
$VISRETAIN
 70
     0
  9
$PLINEGEN
 70
     0
  9
$PSLTSCALE
 70
     0
  0
ENDSEC
  0
SECTION
  2
TABLES
  0
TABLE
  2
VPORT
 70
     2
  0
VPORT
  2
*ACTIVE
 70
     0
 10
0.0
 20
0.0
 11
1.0
 21
1.0
 12
-0.015786
 22
-0.016337
 13
0.0
 23
0.0
 14
1.0
 24
1.0
 15
50.0
 25
50.0
 16
0.0
 26
0.0
 36
1.0
 17
0.0
 27
0.0
 37
0.0
 40
1021.82827
 41
1.865779
 42
50.0
 43
0.0
 44
0.0
 50
0.0
 51
0.0
 71
     0
 72
   100
 73
     1
 74
     1
 75
     0
 76
     0
 77
     0
 78
     0
  0
ENDTAB
  0
TABLE
  2
LTYPE
 70
     2
  0
LTYPE
  2
CONTINUOUS
 70
     0
  3
Solid Line
 72
    65
 73
     0
 40
0.0
  0
LTYPE
  2
31
 70
     0
  3

 72
    65
 73
     4
 40
2.1
 49
1.5
 49
-0.3
 49
0.0
 49
-0.3
  0
ENDTAB
  0
TABLE
  2
LAYER
 70
     9
  0
LAYER
  2
0
 70
     0
 62
     7
  6
CONTINUOUS
  0
LAYER
  2
TEAM-BODY
 70
     0
 62
     2
  6
CONTINUOUS
  0
LAYER
  2
TEAM-AXE
 70
     0
 62
    10
  6
31
  0
LAYER
  2
TEAM-MAS
 70
     0
 62
     9
  6
CONTINUOUS
  0
LAYER
  2
TEAM-TXT
 70
     0
 62
    11
  6
CONTINUOUS
  0
LAYER
  2
TEAM-DET1
 70
     0
 62
     4
  6
CONTINUOUS
  0
LAYER
  2
TEAM-DET3
 70
     0
 62
    14
  6
CONTINUOUS
  0
LAYER
  2
TEAM-NET
 70
     0
 62
    15
  6
CONTINUOUS
  0
LAYER
  2
TEAM-INSP
 70
     0
 62
     5
  6
CONTINUOUS
  0
ENDTAB
  0
TABLE
  2
STYLE
 70
     2
  0
STYLE
  2
STANDARD
 70
     0
 40
0.0
 41
1.0
 50
0.0
 71
     0
 42
200.0
  3
txt
  4

  0
STYLE
  2
TEAM
 70
     0
 40
0.0
 41
0.8
 50
15.0
 71
     0
 42
7.0
  3
ROMANS.shx
  4

  0
ENDTAB
  0
TABLE
  2
VIEW
 70
     0
  0
ENDTAB
  0
TABLE
  2
UCS
 70
     0
  0
ENDTAB
  0
TABLE
  2
APPID
 70
     1
  0
APPID
  2
ACAD
 70
     0
  0
ENDTAB
  0
TABLE
  2
DIMSTYLE
 70
     1
  0
DIMSTYLE
  2
TEAM
 70
     0
  3

  4

  5

  6

  7

 40
0.0
 41
20.0
 42
10.0
 43
1.0
 44
1.0
 45
0.0
 46
0.0
 47
0.0
 48
0.0
140
35.0
141
1.0
142
0.0
143
25.4
144
1.0
145
0.0
146
1.0
147
15.0
 71
     0
 72
     0
 73
     0
 74
     0
 75
     0
 76
     0
 77
     0
 78
     0
170
     0
171
     2
172
     0
173
     0
174
     0
175
     0
176
     9
177
     9
178
    11
  0
ENDTAB
  0
ENDSEC
  0
SECTION
  2
BLOCKS
  0
BLOCK
  8
0
  2
$MODEL_SPACE
 70
     0
 10
0.0
 20
0.0
 30
0.0
  3
$MODEL_SPACE
  1

  0
ENDBLK
  5
39A
  8
0
  0
BLOCK
 67
     1
  8
0
  2
$PAPER_SPACE
 70
     0
 10
0.0
 20
0.0
 30
0.0
  3
$PAPER_SPACE
  1

  0
ENDBLK
  5
398
 67
     1
  8
0
  0
ENDSEC
  0
SECTION
  2
ENTITIES
  0
POLYLINE
  5
20
  8
TEAM-NET
 66
     1
 10
0.0
 20
0.0
 30
0.0
 70
    16
 71
     2
 72
    37
  0
VERTEX
  5
21
  8
TEAM-NET
 10
-614.8932
 20
0.0
 30
120.0
 70
    64
  0
VERTEX
  5
22
  8
TEAM-NET
 10
-610.439647
 20
42.364658
 30
120.0
 70
    64
  0
VERTEX
  5
23
  8
TEAM-NET
 10
-599.812179
 20
83.615782
 30
120.0
 70
    64
  0
VERTEX
  5
24
  8
TEAM-NET
 10
-583.241296
 20
122.858669
 30
120.0
 70
    64
  0
VERTEX
  5
25
  8
TEAM-NET
 10
-561.086408
 20
159.242172
 30
120.0
 70
    64
  0
VERTEX
  5
26
  8
TEAM-NET
 10
-533.828037
 20
191.977161
 30
120.0
 70
    64
  0
VERTEX
  5
27
  8
TEAM-NET
 10
-502.057395
 20
220.353642
 30
120.0
 70
    64
  0
VERTEX
  5
28
  8
TEAM-NET
 10
-466.463562
 20
243.756149
 30
120.0
 70
    64
  0
VERTEX
  5
29
  8
TEAM-NET
 10
-427.81854
 20
261.677103
 30
120.0
 70
    64
  0
VERTEX
  5
2A
  8
TEAM-NET
 10
-386.960508
 20
273.727812
 30
120.0
 70
    64
  0
VERTEX
  5
2B
  8
TEAM-NET
 10
-344.775645
 20
279.646904
 30
120.0
 70
    64
  0
VERTEX
  5
2C
  8
TEAM-NET
 10
-302.14871
 20
280.0
 30
120.0
 70
    64
  0
VERTEX
  5
2D
  8
TEAM-NET
 10
-259.512017
 20
280.0
 30
120.0
 70
    64
  0
VERTEX
  5
2E
  8
TEAM-NET
 10
-216.875323
 20
280.0
 30
120.0
 70
    64
  0
VERTEX
  5
2F
  8
TEAM-NET
 10
-174.23863
 20
280.0
 30
120.0
 70
    64
  0
VERTEX
  5
30
  8
TEAM-NET
 10
-131.601937
 20
280.0
 30
120.0
 70
    64
  0
VERTEX
  5
31
  8
TEAM-NET
 10
-88.965243
 20
280.0
 30
120.0
 70
    64
  0
VERTEX
  5
32
  8
TEAM-NET
 10
-46.32855
 20
280.0
 30
120.0
 70
    64
  0
VERTEX
  5
33
  8
TEAM-NET
 10
-3.691857
 20
280.0
 30
120.0
 70
    64
  0
VERTEX
  5
34
  8
TEAM-NET
 10
38.944837
 20
280.0
 30
120.0
 70
    64
  0
VERTEX
  5
35
  8
TEAM-NET
 10
81.58153
 20
280.0
 30
120.0
 70
    64
  0
VERTEX
  5
36
  8
TEAM-NET
 10
124.218223
 20
280.0
 30
120.0
 70
    64
  0
VERTEX
  5
37
  8
TEAM-NET
 10
166.854917
 20
280.0
 30
120.0
 70
    64
  0
VERTEX
  5
38
  8
TEAM-NET
 10
209.49161
 20
280.0
 30
120.0
 70
    64
  0
VERTEX
  5
39
  8
TEAM-NET
 10
252.128303
 20
280.0
 30
120.0
 70
    64
  0
VERTEX
  5
3A
  8
TEAM-NET
 10
294.764997
 20
280.0
 30
120.0
 70
    64
  0
VERTEX
  5
3B
  8
TEAM-NET
 10
337.395036
 20
279.72206
 30
120.0
 70
    64
  0
VERTEX
  5
3C
  8
TEAM-NET
 10
379.619432
 20
274.101172
 30
120.0
 70
    64
  0
VERTEX
  5
3D
  8
TEAM-NET
 10
420.532969
 20
262.244672
 30
120.0
 70
    64
  0
VERTEX
  5
3E
  8
TEAM-NET
 10
459.220161
 20
244.417861
 30
120.0
 70
    64
  0
VERTEX
  5
3F
  8
TEAM-NET
 10
494.815343
 20
221.019633
 30
120.0
 70
    64
  0
VERTEX
  5
40
  8
TEAM-NET
 10
526.522034
 20
192.573547
 30
120.0
 70
    64
  0
VERTEX
  5
41
  8
TEAM-NET
 10
553.630764
 20
159.716116
 30
120.0
 70
    64
  0
VERTEX
  5
42
  8
TEAM-NET
 10
575.534947
 20
123.182558
 30
120.0
 70
    64
  0
VERTEX
  5
43
  8
TEAM-NET
 10
591.744453
 20
83.790351
 30
120.0
 70
    64
  0
VERTEX
  5
44
  8
TEAM-NET
 10
601.896577
 20
42.420937
 30
120.0
 70
    64
  0
VERTEX
  5
45
  8
TEAM-NET
 10
605.764156
 20
0.0
 30
120.0
 70
    64
  0
VERTEX
  5
46
  8
TEAM-NET
 10
-647.516919
 20
0.0
 30
540.0
 70
    64
  0
VERTEX
  5
47
  8
TEAM-NET
 10
-647.321182
 20
47.497927
 30
540.0
 70
    64
  0
VERTEX
  5
48
  8
TEAM-NET
 10
-640.273846
 20
94.470541
 30
540.0
 70
    64
  0
VERTEX
  5
49
  8
TEAM-NET
 10
-626.522412
 20
139.934697
 30
540.0
 70
    64
  0
VERTEX
  5
4A
  8
TEAM-NET
 10
-606.354701
 20
182.938823
 30
540.0
 70
    64
  0
VERTEX
  5
4B
  8
TEAM-NET
 10
-580.192824
 20
222.582834
 30
540.0
 70
    64
  0
VERTEX
  5
4C
  8
TEAM-NET
 10
-548.584356
 20
258.036975
 30
540.0
 70
    64
  0
VERTEX
  5
4D
  8
TEAM-NET
 10
-512.190867
 20
288.559186
 30
540.0
 70
    64
  0
VERTEX
  5
4E
  8
TEAM-NET
 10
-471.774078
 20
313.51063
 30
540.0
 70
    64
  0
VERTEX
  5
4F
  8
TEAM-NET
 10
-428.179919
 20
332.36907
 30
540.0
 70
    64
  0
VERTEX
  5
50
  8
TEAM-NET
 10
-382.320825
 20
344.739796
 30
540.0
 70
    64
  0
VERTEX
  5
51
  8
TEAM-NET
 10
-335.156633
 20
350.363886
 30
540.0
 70
    64
  0
VERTEX
  5
52
  8
TEAM-NET
 10
-287.637957
 20
350.0
 30
540.0
 70
    64
  0
VERTEX
  5
53
  8
TEAM-NET
 10
-240.098106
 20
350.0
 30
540.0
 70
    64
  0
VERTEX
  5
54
  8
TEAM-NET
 10
-192.558255
 20
350.0
 30
540.0
 70
    64
  0
VERTEX
  5
55
  8
TEAM-NET
 10
-145.018404
 20
350.0
 30
540.0
 70
    64
  0
VERTEX
  5
56
  8
TEAM-NET
 10
-97.478552
 20
350.0
 30
540.0
 70
    64
  0
VERTEX
  5
57
  8
TEAM-NET
 10
-49.938701
 20
350.0
 30
540.0
 70
    64
  0
VERTEX
  5
58
  8
TEAM-NET
 10
-2.39885
 20
350.0
 30
540.0
 70
    64
  0
VERTEX
  5
59
  8
TEAM-NET
 10
45.141001
 20
350.0
 30
540.0
 70
    64
  0
VERTEX
  5
5A
  8
TEAM-NET
 10
92.680853
 20
350.0
 30
540.0
 70
    64
  0
VERTEX
  5
5B
  8
TEAM-NET
 10
140.220704
 20
350.0
 30
540.0
 70
    64
  0
VERTEX
  5
5C
  8
TEAM-NET
 10
187.760555
 20
350.0
 30
540.0
 70
    64
  0
VERTEX
  5
5D
  8
TEAM-NET
 10
235.300406
 20
350.0
 30
540.0
 70
    64
  0
VERTEX
  5
5E
  8
TEAM-NET
 10
282.840257
 20
350.0
 30
540.0
 70
    64
  0
VERTEX
  5
5F
  8
TEAM-NET
 10
330.35789
 20
349.700991
 30
540.0
 70
    64
  0
VERTEX
  5
60
  8
TEAM-NET
 10
377.430563
 20
343.333836
 30
540.0
 70
    64
  0
VERTEX
  5
61
  8
TEAM-NET
 10
423.161216
 20
330.485312
 30
540.0
 70
    64
  0
VERTEX
  5
62
  8
TEAM-NET
 10
466.661957
 20
311.404883
 30
540.0
 70
    64
  0
VERTEX
  5
63
  8
TEAM-NET
 10
507.088187
 20
286.463007
 30
540.0
 70
    64
  0
VERTEX
  5
64
  8
TEAM-NET
 10
543.655003
 20
256.143951
 30
540.0
 70
    64
  0
VERTEX
  5
65
  8
TEAM-NET
 10
575.652433
 20
221.036378
 30
540.0
 70
    64
  0
VERTEX
  5
66
  8
TEAM-NET
 10
602.459226
 20
181.821929
 30
540.0
 70
    64
  0
VERTEX
  5
67
  8
TEAM-NET
 10
623.554909
 20
139.261978
 30
540.0
 70
    64
  0
VERTEX
  5
68
  8
TEAM-NET
 10
638.529893
 20
94.182858
 30
540.0
 70
    64
  0
VERTEX
  5
69
  8
TEAM-NET
 10
647.093429
 20
47.459812
 30
540.0
 70
    64
  0
VERTEX
  5
6A
  8
TEAM-NET
 10
649.07925
 20
0.0
 30
540.0
 70
    64
  0
SEQEND
  5
6C
  8
TEAM-NET
  0
POLYLINE
  5
6D
  8
TEAM-NET
 66
     1
 10
0.0
 20
0.0
 30
0.0
 70
    16
 71
     2
 72
    37
  0
VERTEX
  5
6E
  8
TEAM-NET
 10
-647.516919
 20
0.0
 30
540.0
 70
    64
  0
VERTEX
  5
6F
  8
TEAM-NET
 10
-647.321182
 20
-47.497927
 30
540.0
 70
    64
  0
VERTEX
  5
70
  8
TEAM-NET
 10
-640.273846
 20
-94.470541
 30
540.0
 70
    64
  0
VERTEX
  5
71
  8
TEAM-NET
 10
-626.522412
 20
-139.934697
 30
540.0
 70
    64
  0
VERTEX
  5
72
  8
TEAM-NET
 10
-606.354701
 20
-182.938823
 30
540.0
 70
    64
  0
VERTEX
  5
73
  8
TEAM-NET
 10
-580.192824
 20
-222.582834
 30
540.0
 70
    64
  0
VERTEX
  5
74
  8
TEAM-NET
 10
-548.584356
 20
-258.036975
 30
540.0
 70
    64
  0
VERTEX
  5
75
  8
TEAM-NET
 10
-512.190867
 20
-288.559186
 30
540.0
 70
    64
  0
VERTEX
  5
76
  8
TEAM-NET
 10
-471.774078
 20
-313.51063
 30
540.0
 70
    64
  0
VERTEX
  5
77
  8
TEAM-NET
 10
-428.179919
 20
-332.36907
 30
540.0
 70
    64
  0
VERTEX
  5
78
  8
TEAM-NET
 10
-382.320825
 20
-344.739796
 30
540.0
 70
    64
  0
VERTEX
  5
79
  8
TEAM-NET
 10
-335.156633
 20
-350.363886
 30
540.0
 70
    64
  0
VERTEX
  5
7A
  8
TEAM-NET
 10
-287.637957
 20
-350.0
 30
540.0
 70
    64
  0
VERTEX
  5
7B
  8
TEAM-NET
 10
-240.098106
 20
-350.0
 30
540.0
 70
    64
  0
VERTEX
  5
7C
  8
TEAM-NET
 10
-192.558255
 20
-350.0
 30
540.0
 70
    64
  0
VERTEX
  5
7D
  8
TEAM-NET
 10
-145.018404
 20
-350.0
 30
540.0
 70
    64
  0
VERTEX
  5
7E
  8
TEAM-NET
 10
-97.478552
 20
-350.0
 30
540.0
 70
    64
  0
VERTEX
  5
7F
  8
TEAM-NET
 10
-49.938701
 20
-350.0
 30
540.0
 70
    64
  0
VERTEX
  5
80
  8
TEAM-NET
 10
-2.39885
 20
-350.0
 30
540.0
 70
    64
  0
VERTEX
  5
81
  8
TEAM-NET
 10
45.141001
 20
-350.0
 30
540.0
 70
    64
  0
VERTEX
  5
82
  8
TEAM-NET
 10
92.680853
 20
-350.0
 30
540.0
 70
    64
  0
VERTEX
  5
83
  8
TEAM-NET
 10
140.220704
 20
-350.0
 30
540.0
 70
    64
  0
VERTEX
  5
84
  8
TEAM-NET
 10
187.760555
 20
-350.0
 30
540.0
 70
    64
  0
VERTEX
  5
85
  8
TEAM-NET
 10
235.300406
 20
-350.0
 30
540.0
 70
    64
  0
VERTEX
  5
86
  8
TEAM-NET
 10
282.840257
 20
-350.0
 30
540.0
 70
    64
  0
VERTEX
  5
87
  8
TEAM-NET
 10
330.35789
 20
-349.700991
 30
540.0
 70
    64
  0
VERTEX
  5
88
  8
TEAM-NET
 10
377.430563
 20
-343.333836
 30
540.0
 70
    64
  0
VERTEX
  5
89
  8
TEAM-NET
 10
423.161216
 20
-330.485312
 30
540.0
 70
    64
  0
VERTEX
  5
8A
  8
TEAM-NET
 10
466.661957
 20
-311.404883
 30
540.0
 70
    64
  0
VERTEX
  5
8B
  8
TEAM-NET
 10
507.088187
 20
-286.463007
 30
540.0
 70
    64
  0
VERTEX
  5
8C
  8
TEAM-NET
 10
543.655003
 20
-256.143951
 30
540.0
 70
    64
  0
VERTEX
  5
8D
  8
TEAM-NET
 10
575.652433
 20
-221.036378
 30
540.0
 70
    64
  0
VERTEX
  5
8E
  8
TEAM-NET
 10
602.459226
 20
-181.821929
 30
540.0
 70
    64
  0
VERTEX
  5
8F
  8
TEAM-NET
 10
623.554909
 20
-139.261978
 30
540.0
 70
    64
  0
VERTEX
  5
90
  8
TEAM-NET
 10
638.529893
 20
-94.182858
 30
540.0
 70
    64
  0
VERTEX
  5
91
  8
TEAM-NET
 10
647.093429
 20
-47.459812
 30
540.0
 70
    64
  0
VERTEX
  5
92
  8
TEAM-NET
 10
649.07925
 20
0.0
 30
540.0
 70
    64
  0
VERTEX
  5
93
  8
TEAM-NET
 10
-614.8932
 20
0.0
 30
120.0
 70
    64
  0
VERTEX
  5
94
  8
TEAM-NET
 10
-610.439647
 20
-42.364658
 30
120.0
 70
    64
  0
VERTEX
  5
95
  8
TEAM-NET
 10
-599.812179
 20
-83.615782
 30
120.0
 70
    64
  0
VERTEX
  5
96
  8
TEAM-NET
 10
-583.241296
 20
-122.858669
 30
120.0
 70
    64
  0
VERTEX
  5
97
  8
TEAM-NET
 10
-561.086408
 20
-159.242172
 30
120.0
 70
    64
  0
VERTEX
  5
98
  8
TEAM-NET
 10
-533.828037
 20
-191.977161
 30
120.0
 70
    64
  0
VERTEX
  5
99
  8
TEAM-NET
 10
-502.057395
 20
-220.353642
 30
120.0
 70
    64
  0
VERTEX
  5
9A
  8
TEAM-NET
 10
-466.463562
 20
-243.756149
 30
120.0
 70
    64
  0
VERTEX
  5
9B
  8
TEAM-NET
 10
-427.81854
 20
-261.677103
 30
120.0
 70
    64
  0
VERTEX
  5
9C
  8
TEAM-NET
 10
-386.960508
 20
-273.727812
 30
120.0
 70
    64
  0
VERTEX
  5
9D
  8
TEAM-NET
 10
-344.775645
 20
-279.646904
 30
120.0
 70
    64
  0
VERTEX
  5
9E
  8
TEAM-NET
 10
-302.14871
 20
-280.0
 30
120.0
 70
    64
  0
VERTEX
  5
9F
  8
TEAM-NET
 10
-259.512017
 20
-280.0
 30
120.0
 70
    64
  0
VERTEX
  5
A0
  8
TEAM-NET
 10
-216.875323
 20
-280.0
 30
120.0
 70
    64
  0
VERTEX
  5
A1
  8
TEAM-NET
 10
-174.23863
 20
-280.0
 30
120.0
 70
    64
  0
VERTEX
  5
A2
  8
TEAM-NET
 10
-131.601937
 20
-280.0
 30
120.0
 70
    64
  0
VERTEX
  5
A3
  8
TEAM-NET
 10
-88.965243
 20
-280.0
 30
120.0
 70
    64
  0
VERTEX
  5
A4
  8
TEAM-NET
 10
-46.32855
 20
-280.0
 30
120.0
 70
    64
  0
VERTEX
  5
A5
  8
TEAM-NET
 10
-3.691857
 20
-280.0
 30
120.0
 70
    64
  0
VERTEX
  5
A6
  8
TEAM-NET
 10
38.944837
 20
-280.0
 30
120.0
 70
    64
  0
VERTEX
  5
A7
  8
TEAM-NET
 10
81.58153
 20
-280.0
 30
120.0
 70
    64
  0
VERTEX
  5
A8
  8
TEAM-NET
 10
124.218223
 20
-280.0
 30
120.0
 70
    64
  0
VERTEX
  5
A9
  8
TEAM-NET
 10
166.854917
 20
-280.0
 30
120.0
 70
    64
  0
VERTEX
  5
AA
  8
TEAM-NET
 10
209.49161
 20
-280.0
 30
120.0
 70
    64
  0
VERTEX
  5
AB
  8
TEAM-NET
 10
252.128303
 20
-280.0
 30
120.0
 70
    64
  0
VERTEX
  5
AC
  8
TEAM-NET
 10
294.764997
 20
-280.0
 30
120.0
 70
    64
  0
VERTEX
  5
AD
  8
TEAM-NET
 10
337.395036
 20
-279.72206
 30
120.0
 70
    64
  0
VERTEX
  5
AE
  8
TEAM-NET
 10
379.619432
 20
-274.101172
 30
120.0
 70
    64
  0
VERTEX
  5
AF
  8
TEAM-NET
 10
420.532969
 20
-262.244672
 30
120.0
 70
    64
  0
VERTEX
  5
B0
  8
TEAM-NET
 10
459.220161
 20
-244.417861
 30
120.0
 70
    64
  0
VERTEX
  5
B1
  8
TEAM-NET
 10
494.815343
 20
-221.019633
 30
120.0
 70
    64
  0
VERTEX
  5
B2
  8
TEAM-NET
 10
526.522034
 20
-192.573547
 30
120.0
 70
    64
  0
VERTEX
  5
B3
  8
TEAM-NET
 10
553.630764
 20
-159.716116
 30
120.0
 70
    64
  0
VERTEX
  5
B4
  8
TEAM-NET
 10
575.534947
 20
-123.182558
 30
120.0
 70
    64
  0
VERTEX
  5
B5
  8
TEAM-NET
 10
591.744453
 20
-83.790351
 30
120.0
 70
    64
  0
VERTEX
  5
B6
  8
TEAM-NET
 10
601.896577
 20
-42.420937
 30
120.0
 70
    64
  0
VERTEX
  5
B7
  8
TEAM-NET
 10
605.764156
 20
0.0
 30
120.0
 70
    64
  0
SEQEND
  5
B8
  8
TEAM-NET
  0
CIRCLE
  5
B9
  8
TEAM-INSP
 10
0.0
 20
0.0
 30
0.0
 40
10.0
  0
POLYLINE
  5
BB
  8
TEAM-NET
 66
     1
 10
0.0
 20
0.0
 30
0.0
 70
    16
 71
     2
 72
    37
  0
VERTEX
  5
BC
  8
TEAM-NET
 10
-614.8932
 20
0.0
 30
120.0
 70
    64
  0
VERTEX
  5
BD
  8
TEAM-NET
 10
-610.439647
 20
42.364658
 30
120.0
 70
    64
  0
VERTEX
  5
BE
  8
TEAM-NET
 10
-599.812179
 20
83.615782
 30
120.0
 70
    64
  0
VERTEX
  5
BF
  8
TEAM-NET
 10
-583.241296
 20
122.858669
 30
120.0
 70
    64
  0
VERTEX
  5
C0
  8
TEAM-NET
 10
-561.086408
 20
159.242172
 30
120.0
 70
    64
  0
VERTEX
  5
C1
  8
TEAM-NET
 10
-533.828037
 20
191.977161
 30
120.0
 70
    64
  0
VERTEX
  5
C2
  8
TEAM-NET
 10
-502.057395
 20
220.353642
 30
120.0
 70
    64
  0
VERTEX
  5
C3
  8
TEAM-NET
 10
-466.463562
 20
243.756149
 30
120.0
 70
    64
  0
VERTEX
  5
C4
  8
TEAM-NET
 10
-427.81854
 20
261.677103
 30
120.0
 70
    64
  0
VERTEX
  5
C5
  8
TEAM-NET
 10
-386.960508
 20
273.727812
 30
120.0
 70
    64
  0
VERTEX
  5
C6
  8
TEAM-NET
 10
-344.775645
 20
279.646904
 30
120.0
 70
    64
  0
VERTEX
  5
C7
  8
TEAM-NET
 10
-302.14871
 20
280.0
 30
120.0
 70
    64
  0
VERTEX
  5
C8
  8
TEAM-NET
 10
-259.512017
 20
280.0
 30
120.0
 70
    64
  0
VERTEX
  5
C9
  8
TEAM-NET
 10
-216.875323
 20
280.0
 30
120.0
 70
    64
  0
VERTEX
  5
CA
  8
TEAM-NET
 10
-174.23863
 20
280.0
 30
120.0
 70
    64
  0
VERTEX
  5
CB
  8
TEAM-NET
 10
-131.601937
 20
280.0
 30
120.0
 70
    64
  0
VERTEX
  5
CC
  8
TEAM-NET
 10
-88.965243
 20
280.0
 30
120.0
 70
    64
  0
VERTEX
  5
CD
  8
TEAM-NET
 10
-46.32855
 20
280.0
 30
120.0
 70
    64
  0
VERTEX
  5
CE
  8
TEAM-NET
 10
-3.691857
 20
280.0
 30
120.0
 70
    64
  0
VERTEX
  5
CF
  8
TEAM-NET
 10
38.944837
 20
280.0
 30
120.0
 70
    64
  0
VERTEX
  5
D0
  8
TEAM-NET
 10
81.58153
 20
280.0
 30
120.0
 70
    64
  0
VERTEX
  5
D1
  8
TEAM-NET
 10
124.218223
 20
280.0
 30
120.0
 70
    64
  0
VERTEX
  5
D2
  8
TEAM-NET
 10
166.854917
 20
280.0
 30
120.0
 70
    64
  0
VERTEX
  5
D3
  8
TEAM-NET
 10
209.49161
 20
280.0
 30
120.0
 70
    64
  0
VERTEX
  5
D4
  8
TEAM-NET
 10
252.128303
 20
280.0
 30
120.0
 70
    64
  0
VERTEX
  5
D5
  8
TEAM-NET
 10
294.764997
 20
280.0
 30
120.0
 70
    64
  0
VERTEX
  5
D6
  8
TEAM-NET
 10
337.395036
 20
279.72206
 30
120.0
 70
    64
  0
VERTEX
  5
D7
  8
TEAM-NET
 10
379.619432
 20
274.101172
 30
120.0
 70
    64
  0
VERTEX
  5
D8
  8
TEAM-NET
 10
420.532969
 20
262.244672
 30
120.0
 70
    64
  0
VERTEX
  5
D9
  8
TEAM-NET
 10
459.220161
 20
244.417861
 30
120.0
 70
    64
  0
VERTEX
  5
DA
  8
TEAM-NET
 10
494.815343
 20
221.019633
 30
120.0
 70
    64
  0
VERTEX
  5
DB
  8
TEAM-NET
 10
526.522034
 20
192.573547
 30
120.0
 70
    64
  0
VERTEX
  5
DC
  8
TEAM-NET
 10
553.630764
 20
159.716116
 30
120.0
 70
    64
  0
VERTEX
  5
DD
  8
TEAM-NET
 10
575.534947
 20
123.182558
 30
120.0
 70
    64
  0
VERTEX
  5
DE
  8
TEAM-NET
 10
591.744453
 20
83.790351
 30
120.0
 70
    64
  0
VERTEX
  5
DF
  8
TEAM-NET
 10
601.896577
 20
42.420937
 30
120.0
 70
    64
  0
VERTEX
  5
E0
  8
TEAM-NET
 10
605.764156
 20
0.0
 30
120.0
 70
    64
  0
VERTEX
  5
E1
  8
TEAM-NET
 10
-614.8932
 20
0.0
 30
120.0
 70
    64
  0
VERTEX
  5
E2
  8
TEAM-NET
 10
-610.439647
 20
-42.364658
 30
120.0
 70
    64
  0
VERTEX
  5
E3
  8
TEAM-NET
 10
-599.812179
 20
-83.615782
 30
120.0
 70
    64
  0
VERTEX
  5
E4
  8
TEAM-NET
 10
-583.241296
 20
-122.858669
 30
120.0
 70
    64
  0
VERTEX
  5
E5
  8
TEAM-NET
 10
-561.086408
 20
-159.242172
 30
120.0
 70
    64
  0
VERTEX
  5
E6
  8
TEAM-NET
 10
-533.828037
 20
-191.977161
 30
120.0
 70
    64
  0
VERTEX
  5
E7
  8
TEAM-NET
 10
-502.057395
 20
-220.353642
 30
120.0
 70
    64
  0
VERTEX
  5
E8
  8
TEAM-NET
 10
-466.463562
 20
-243.756149
 30
120.0
 70
    64
  0
VERTEX
  5
E9
  8
TEAM-NET
 10
-427.81854
 20
-261.677103
 30
120.0
 70
    64
  0
VERTEX
  5
EA
  8
TEAM-NET
 10
-386.960508
 20
-273.727812
 30
120.0
 70
    64
  0
VERTEX
  5
EB
  8
TEAM-NET
 10
-344.775645
 20
-279.646904
 30
120.0
 70
    64
  0
VERTEX
  5
EC
  8
TEAM-NET
 10
-302.14871
 20
-280.0
 30
120.0
 70
    64
  0
VERTEX
  5
ED
  8
TEAM-NET
 10
-259.512017
 20
-280.0
 30
120.0
 70
    64
  0
VERTEX
  5
EE
  8
TEAM-NET
 10
-216.875323
 20
-280.0
 30
120.0
 70
    64
  0
VERTEX
  5
EF
  8
TEAM-NET
 10
-174.23863
 20
-280.0
 30
120.0
 70
    64
  0
VERTEX
  5
F0
  8
TEAM-NET
 10
-131.601937
 20
-280.0
 30
120.0
 70
    64
  0
VERTEX
  5
F1
  8
TEAM-NET
 10
-88.965243
 20
-280.0
 30
120.0
 70
    64
  0
VERTEX
  5
F2
  8
TEAM-NET
 10
-46.32855
 20
-280.0
 30
120.0
 70
    64
  0
VERTEX
  5
F3
  8
TEAM-NET
 10
-3.691857
 20
-280.0
 30
120.0
 70
    64
  0
VERTEX
  5
F4
  8
TEAM-NET
 10
38.944837
 20
-280.0
 30
120.0
 70
    64
  0
VERTEX
  5
F5
  8
TEAM-NET
 10
81.58153
 20
-280.0
 30
120.0
 70
    64
  0
VERTEX
  5
F6
  8
TEAM-NET
 10
124.218223
 20
-280.0
 30
120.0
 70
    64
  0
VERTEX
  5
F7
  8
TEAM-NET
 10
166.854917
 20
-280.0
 30
120.0
 70
    64
  0
VERTEX
  5
F8
  8
TEAM-NET
 10
209.49161
 20
-280.0
 30
120.0
 70
    64
  0
VERTEX
  5
F9
  8
TEAM-NET
 10
252.128303
 20
-280.0
 30
120.0
 70
    64
  0
VERTEX
  5
FA
  8
TEAM-NET
 10
294.764997
 20
-280.0
 30
120.0
 70
    64
  0
VERTEX
  5
FB
  8
TEAM-NET
 10
337.395036
 20
-279.72206
 30
120.0
 70
    64
  0
VERTEX
  5
FC
  8
TEAM-NET
 10
379.619432
 20
-274.101172
 30
120.0
 70
    64
  0
VERTEX
  5
FD
  8
TEAM-NET
 10
420.532969
 20
-262.244672
 30
120.0
 70
    64
  0
VERTEX
  5
FE
  8
TEAM-NET
 10
459.220161
 20
-244.417861
 30
120.0
 70
    64
  0
VERTEX
  5
FF
  8
TEAM-NET
 10
494.815343
 20
-221.019633
 30
120.0
 70
    64
  0
VERTEX
  5
100
  8
TEAM-NET
 10
526.522034
 20
-192.573547
 30
120.0
 70
    64
  0
VERTEX
  5
101
  8
TEAM-NET
 10
553.630764
 20
-159.716116
 30
120.0
 70
    64
  0
VERTEX
  5
102
  8
TEAM-NET
 10
575.534947
 20
-123.182558
 30
120.0
 70
    64
  0
VERTEX
  5
103
  8
TEAM-NET
 10
591.744453
 20
-83.790351
 30
120.0
 70
    64
  0
VERTEX
  5
104
  8
TEAM-NET
 10
601.896577
 20
-42.420937
 30
120.0
 70
    64
  0
VERTEX
  5
105
  8
TEAM-NET
 10
605.764156
 20
0.0
 30
120.0
 70
    64
  0
SEQEND
  5
106
  8
TEAM-NET
  0
CIRCLE
  5
107
  8
TEAM-DET3
 10
0.0
 20
-152.0
 30
120.0
 40
26.0
  0
CIRCLE
  5
109
  8
TEAM-DET1
 10
0.0
 20
-152.0
 30
120.0
 40
52.0
  0
POLYLINE
  5
10B
  8
TEAM-BODY
 66
     1
 10
0.0
 20
0.0
 30
120.0
  0
VERTEX
  5
3A0
  8
TEAM-BODY
 10
-614.8932
 20
0.0
 30
120.0
 42
-0.392608
  0
VERTEX
  5
3A1
  8
TEAM-BODY
 10
-338.302475
 20
280.0
 30
120.0
  0
VERTEX
  5
3A2
  8
TEAM-BODY
 10
331.500421
 20
280.0
 30
120.0
 42
-0.398829
  0
VERTEX
  5
3A3
  8
TEAM-BODY
 10
605.764156
 20
0.0
 30
120.0
  0
SEQEND
  5
3A4
  8
TEAM-BODY
  0
POLYLINE
  5
10D
  8
TEAM-BODY
 66
     1
 10
0.0
 20
0.0
 30
120.0
  0
VERTEX
  5
3A5
  8
TEAM-BODY
 10
-614.8932
 20
0.0
 30
120.0
 42
0.392608
  0
VERTEX
  5
3A6
  8
TEAM-BODY
 10
-338.302475
 20
-280.0
 30
120.0
  0
VERTEX
  5
3A7
  8
TEAM-BODY
 10
331.500421
 20
-280.0
 30
120.0
 42
0.398829
  0
VERTEX
  5
3A8
  8
TEAM-BODY
 10
605.764156
 20
0.0
 30
120.0
  0
SEQEND
  5
3A9
  8
TEAM-BODY
  0
POLYLINE
  5
10E
  8
TEAM-NET
 66
     1
 10
0.0
 20
0.0
 30
0.0
 70
    16
 71
     2
 72
    37
  0
VERTEX
  5
10F
  8
TEAM-NET
 10
-647.516919
 20
0.0
 30
540.0
 70
    64
  0
VERTEX
  5
110
  8
TEAM-NET
 10
-647.321182
 20
-47.497927
 30
540.0
 70
    64
  0
VERTEX
  5
111
  8
TEAM-NET
 10
-640.273846
 20
-94.470541
 30
540.0
 70
    64
  0
VERTEX
  5
112
  8
TEAM-NET
 10
-626.522412
 20
-139.934697
 30
540.0
 70
    64
  0
VERTEX
  5
113
  8
TEAM-NET
 10
-606.354701
 20
-182.938823
 30
540.0
 70
    64
  0
VERTEX
  5
114
  8
TEAM-NET
 10
-580.192824
 20
-222.582834
 30
540.0
 70
    64
  0
VERTEX
  5
115
  8
TEAM-NET
 10
-548.584356
 20
-258.036975
 30
540.0
 70
    64
  0
VERTEX
  5
116
  8
TEAM-NET
 10
-512.190867
 20
-288.559186
 30
540.0
 70
    64
  0
VERTEX
  5
117
  8
TEAM-NET
 10
-471.774078
 20
-313.51063
 30
540.0
 70
    64
  0
VERTEX
  5
118
  8
TEAM-NET
 10
-428.179919
 20
-332.36907
 30
540.0
 70
    64
  0
VERTEX
  5
119
  8
TEAM-NET
 10
-382.320825
 20
-344.739796
 30
540.0
 70
    64
  0
VERTEX
  5
11A
  8
TEAM-NET
 10
-335.156633
 20
-350.363886
 30
540.0
 70
    64
  0
VERTEX
  5
11B
  8
TEAM-NET
 10
-287.637957
 20
-350.0
 30
540.0
 70
    64
  0
VERTEX
  5
11C
  8
TEAM-NET
 10
-240.098106
 20
-350.0
 30
540.0
 70
    64
  0
VERTEX
  5
11D
  8
TEAM-NET
 10
-192.558255
 20
-350.0
 30
540.0
 70
    64
  0
VERTEX
  5
11E
  8
TEAM-NET
 10
-145.018404
 20
-350.0
 30
540.0
 70
    64
  0
VERTEX
  5
11F
  8
TEAM-NET
 10
-97.478552
 20
-350.0
 30
540.0
 70
    64
  0
VERTEX
  5
120
  8
TEAM-NET
 10
-49.938701
 20
-350.0
 30
540.0
 70
    64
  0
VERTEX
  5
121
  8
TEAM-NET
 10
-2.39885
 20
-350.0
 30
540.0
 70
    64
  0
VERTEX
  5
122
  8
TEAM-NET
 10
45.141001
 20
-350.0
 30
540.0
 70
    64
  0
VERTEX
  5
123
  8
TEAM-NET
 10
92.680853
 20
-350.0
 30
540.0
 70
    64
  0
VERTEX
  5
124
  8
TEAM-NET
 10
140.220704
 20
-350.0
 30
540.0
 70
    64
  0
VERTEX
  5
125
  8
TEAM-NET
 10
187.760555
 20
-350.0
 30
540.0
 70
    64
  0
VERTEX
  5
126
  8
TEAM-NET
 10
235.300406
 20
-350.0
 30
540.0
 70
    64
  0
VERTEX
  5
127
  8
TEAM-NET
 10
282.840257
 20
-350.0
 30
540.0
 70
    64
  0
VERTEX
  5
128
  8
TEAM-NET
 10
330.35789
 20
-349.700991
 30
540.0
 70
    64
  0
VERTEX
  5
129
  8
TEAM-NET
 10
377.430563
 20
-343.333836
 30
540.0
 70
    64
  0
VERTEX
  5
12A
  8
TEAM-NET
 10
423.161216
 20
-330.485312
 30
540.0
 70
    64
  0
VERTEX
  5
12B
  8
TEAM-NET
 10
466.661957
 20
-311.404883
 30
540.0
 70
    64
  0
VERTEX
  5
12C
  8
TEAM-NET
 10
507.088187
 20
-286.463007
 30
540.0
 70
    64
  0
VERTEX
  5
12D
  8
TEAM-NET
 10
543.655003
 20
-256.143951
 30
540.0
 70
    64
  0
VERTEX
  5
12E
  8
TEAM-NET
 10
575.652433
 20
-221.036378
 30
540.0
 70
    64
  0
VERTEX
  5
12F
  8
TEAM-NET
 10
602.459226
 20
-181.821929
 30
540.0
 70
    64
  0
VERTEX
  5
130
  8
TEAM-NET
 10
623.554909
 20
-139.261978
 30
540.0
 70
    64
  0
VERTEX
  5
131
  8
TEAM-NET
 10
638.529893
 20
-94.182858
 30
540.0
 70
    64
  0
VERTEX
  5
132
  8
TEAM-NET
 10
647.093429
 20
-47.459812
 30
540.0
 70
    64
  0
VERTEX
  5
133
  8
TEAM-NET
 10
649.07925
 20
0.0
 30
540.0
 70
    64
  0
VERTEX
  5
134
  8
TEAM-NET
 10
-950.0
 20
0.0
 30
600.0
 70
    64
  0
VERTEX
  5
135
  8
TEAM-NET
 10
-905.43031
 20
-44.757352
 30
600.0
 70
    64
  0
VERTEX
  5
136
  8
TEAM-NET
 10
-860.86062
 20
-89.514704
 30
600.0
 70
    64
  0
VERTEX
  5
137
  8
TEAM-NET
 10
-816.29093
 20
-134.272055
 30
600.0
 70
    64
  0
VERTEX
  5
138
  8
TEAM-NET
 10
-771.72124
 20
-179.029407
 30
600.0
 70
    64
  0
VERTEX
  5
139
  8
TEAM-NET
 10
-727.15155
 20
-223.786759
 30
600.0
 70
    64
  0
VERTEX
  5
13A
  8
TEAM-NET
 10
-682.581861
 20
-268.544111
 30
600.0
 70
    64
  0
VERTEX
  5
13B
  8
TEAM-NET
 10
-638.012171
 20
-313.301462
 30
600.0
 70
    64
  0
VERTEX
  5
13C
  8
TEAM-NET
 10
-593.442481
 20
-358.058814
 30
600.0
 70
    64
  0
VERTEX
  5
13D
  8
TEAM-NET
 10
-548.872791
 20
-402.816166
 30
600.0
 70
    64
  0
VERTEX
  5
13E
  8
TEAM-NET
 10
-504.303101
 20
-447.573518
 30
600.0
 70
    64
  0
VERTEX
  5
13F
  8
TEAM-NET
 10
-442.147274
 20
-450.0
 30
600.0
 70
    64
  0
VERTEX
  5
140
  8
TEAM-NET
 10
-378.983378
 20
-450.0
 30
600.0
 70
    64
  0
VERTEX
  5
141
  8
TEAM-NET
 10
-315.819481
 20
-450.0
 30
600.0
 70
    64
  0
VERTEX
  5
142
  8
TEAM-NET
 10
-252.655585
 20
-450.0
 30
600.0
 70
    64
  0
VERTEX
  5
143
  8
TEAM-NET
 10
-189.491689
 20
-450.0
 30
600.0
 70
    64
  0
VERTEX
  5
144
  8
TEAM-NET
 10
-126.327793
 20
-450.0
 30
600.0
 70
    64
  0
VERTEX
  5
145
  8
TEAM-NET
 10
-63.163896
 20
-450.0
 30
600.0
 70
    64
  0
VERTEX
  5
146
  8
TEAM-NET
 10
0.0
 20
-450.0
 30
600.0
 70
    64
  0
VERTEX
  5
147
  8
TEAM-NET
 10
63.163896
 20
-450.0
 30
600.0
 70
    64
  0
VERTEX
  5
148
  8
TEAM-NET
 10
126.327793
 20
-450.0
 30
600.0
 70
    64
  0
VERTEX
  5
149
  8
TEAM-NET
 10
189.491689
 20
-450.0
 30
600.0
 70
    64
  0
VERTEX
  5
14A
  8
TEAM-NET
 10
252.655585
 20
-450.0
 30
600.0
 70
    64
  0
VERTEX
  5
14B
  8
TEAM-NET
 10
315.819481
 20
-450.0
 30
600.0
 70
    64
  0
VERTEX
  5
14C
  8
TEAM-NET
 10
378.983378
 20
-450.0
 30
600.0
 70
    64
  0
VERTEX
  5
14D
  8
TEAM-NET
 10
442.147274
 20
-450.0
 30
600.0
 70
    64
  0
VERTEX
  5
14E
  8
TEAM-NET
 10
504.303101
 20
-447.573518
 30
600.0
 70
    64
  0
VERTEX
  5
14F
  8
TEAM-NET
 10
548.872791
 20
-402.816166
 30
600.0
 70
    64
  0
VERTEX
  5
150
  8
TEAM-NET
 10
593.442481
 20
-358.058814
 30
600.0
 70
    64
  0
VERTEX
  5
151
  8
TEAM-NET
 10
638.012171
 20
-313.301462
 30
600.0
 70
    64
  0
VERTEX
  5
152
  8
TEAM-NET
 10
682.581861
 20
-268.544111
 30
600.0
 70
    64
  0
VERTEX
  5
153
  8
TEAM-NET
 10
727.15155
 20
-223.786759
 30
600.0
 70
    64
  0
VERTEX
  5
154
  8
TEAM-NET
 10
771.72124
 20
-179.029407
 30
600.0
 70
    64
  0
VERTEX
  5
155
  8
TEAM-NET
 10
816.29093
 20
-134.272055
 30
600.0
 70
    64
  0
VERTEX
  5
156
  8
TEAM-NET
 10
860.86062
 20
-89.514704
 30
600.0
 70
    64
  0
VERTEX
  5
157
  8
TEAM-NET
 10
905.43031
 20
-44.757352
 30
600.0
 70
    64
  0
VERTEX
  5
158
  8
TEAM-NET
 10
950.0
 20
0.0
 30
600.0
 70
    64
  0
SEQEND
  5
159
  8
TEAM-NET
  0
POLYLINE
  5
15A
  8
TEAM-NET
 66
     1
 10
0.0
 20
0.0
 30
0.0
 70
    16
 71
     2
 72
    37
  0
VERTEX
  5
15B
  8
TEAM-NET
 10
-647.516919
 20
0.0
 30
540.0
 70
    64
  0
VERTEX
  5
15C
  8
TEAM-NET
 10
-647.321182
 20
47.497927
 30
540.0
 70
    64
  0
VERTEX
  5
15D
  8
TEAM-NET
 10
-640.273846
 20
94.470541
 30
540.0
 70
    64
  0
VERTEX
  5
15E
  8
TEAM-NET
 10
-626.522412
 20
139.934697
 30
540.0
 70
    64
  0
VERTEX
  5
15F
  8
TEAM-NET
 10
-606.354701
 20
182.938823
 30
540.0
 70
    64
  0
VERTEX
  5
160
  8
TEAM-NET
 10
-580.192824
 20
222.582834
 30
540.0
 70
    64
  0
VERTEX
  5
161
  8
TEAM-NET
 10
-548.584356
 20
258.036975
 30
540.0
 70
    64
  0
VERTEX
  5
162
  8
TEAM-NET
 10
-512.190867
 20
288.559186
 30
540.0
 70
    64
  0
VERTEX
  5
163
  8
TEAM-NET
 10
-471.774078
 20
313.51063
 30
540.0
 70
    64
  0
VERTEX
  5
164
  8
TEAM-NET
 10
-428.179919
 20
332.36907
 30
540.0
 70
    64
  0
VERTEX
  5
165
  8
TEAM-NET
 10
-382.320825
 20
344.739796
 30
540.0
 70
    64
  0
VERTEX
  5
166
  8
TEAM-NET
 10
-335.156633
 20
350.363886
 30
540.0
 70
    64
  0
VERTEX
  5
167
  8
TEAM-NET
 10
-287.637957
 20
350.0
 30
540.0
 70
    64
  0
VERTEX
  5
168
  8
TEAM-NET
 10
-240.098106
 20
350.0
 30
540.0
 70
    64
  0
VERTEX
  5
169
  8
TEAM-NET
 10
-192.558255
 20
350.0
 30
540.0
 70
    64
  0
VERTEX
  5
16A
  8
TEAM-NET
 10
-145.018404
 20
350.0
 30
540.0
 70
    64
  0
VERTEX
  5
16B
  8
TEAM-NET
 10
-97.478552
 20
350.0
 30
540.0
 70
    64
  0
VERTEX
  5
16C
  8
TEAM-NET
 10
-49.938701
 20
350.0
 30
540.0
 70
    64
  0
VERTEX
  5
16D
  8
TEAM-NET
 10
-2.39885
 20
350.0
 30
540.0
 70
    64
  0
VERTEX
  5
16E
  8
TEAM-NET
 10
45.141001
 20
350.0
 30
540.0
 70
    64
  0
VERTEX
  5
16F
  8
TEAM-NET
 10
92.680853
 20
350.0
 30
540.0
 70
    64
  0
VERTEX
  5
170
  8
TEAM-NET
 10
140.220704
 20
350.0
 30
540.0
 70
    64
  0
VERTEX
  5
171
  8
TEAM-NET
 10
187.760555
 20
350.0
 30
540.0
 70
    64
  0
VERTEX
  5
172
  8
TEAM-NET
 10
235.300406
 20
350.0
 30
540.0
 70
    64
  0
VERTEX
  5
173
  8
TEAM-NET
 10
282.840257
 20
350.0
 30
540.0
 70
    64
  0
VERTEX
  5
174
  8
TEAM-NET
 10
330.35789
 20
349.700991
 30
540.0
 70
    64
  0
VERTEX
  5
175
  8
TEAM-NET
 10
377.430563
 20
343.333836
 30
540.0
 70
    64
  0
VERTEX
  5
176
  8
TEAM-NET
 10
423.161216
 20
330.485312
 30
540.0
 70
    64
  0
VERTEX
  5
177
  8
TEAM-NET
 10
466.661957
 20
311.404883
 30
540.0
 70
    64
  0
VERTEX
  5
178
  8
TEAM-NET
 10
507.088187
 20
286.463007
 30
540.0
 70
    64
  0
VERTEX
  5
179
  8
TEAM-NET
 10
543.655003
 20
256.143951
 30
540.0
 70
    64
  0
VERTEX
  5
17A
  8
TEAM-NET
 10
575.652433
 20
221.036378
 30
540.0
 70
    64
  0
VERTEX
  5
17B
  8
TEAM-NET
 10
602.459226
 20
181.821929
 30
540.0
 70
    64
  0
VERTEX
  5
17C
  8
TEAM-NET
 10
623.554909
 20
139.261978
 30
540.0
 70
    64
  0
VERTEX
  5
17D
  8
TEAM-NET
 10
638.529893
 20
94.182858
 30
540.0
 70
    64
  0
VERTEX
  5
17E
  8
TEAM-NET
 10
647.093429
 20
47.459812
 30
540.0
 70
    64
  0
VERTEX
  5
17F
  8
TEAM-NET
 10
649.07925
 20
0.0
 30
540.0
 70
    64
  0
VERTEX
  5
180
  8
TEAM-NET
 10
-950.0
 20
0.0
 30
600.0
 70
    64
  0
VERTEX
  5
181
  8
TEAM-NET
 10
-905.43031
 20
44.757352
 30
600.0
 70
    64
  0
VERTEX
  5
182
  8
TEAM-NET
 10
-860.86062
 20
89.514704
 30
600.0
 70
    64
  0
VERTEX
  5
183
  8
TEAM-NET
 10
-816.29093
 20
134.272055
 30
600.0
 70
    64
  0
VERTEX
  5
184
  8
TEAM-NET
 10
-771.72124
 20
179.029407
 30
600.0
 70
    64
  0
VERTEX
  5
185
  8
TEAM-NET
 10
-727.15155
 20
223.786759
 30
600.0
 70
    64
  0
VERTEX
  5
186
  8
TEAM-NET
 10
-682.581861
 20
268.544111
 30
600.0
 70
    64
  0
VERTEX
  5
187
  8
TEAM-NET
 10
-638.012171
 20
313.301462
 30
600.0
 70
    64
  0
VERTEX
  5
188
  8
TEAM-NET
 10
-593.442481
 20
358.058814
 30
600.0
 70
    64
  0
VERTEX
  5
189
  8
TEAM-NET
 10
-548.872791
 20
402.816166
 30
600.0
 70
    64
  0
VERTEX
  5
18A
  8
TEAM-NET
 10
-504.303101
 20
447.573518
 30
600.0
 70
    64
  0
VERTEX
  5
18B
  8
TEAM-NET
 10
-442.147274
 20
450.0
 30
600.0
 70
    64
  0
VERTEX
  5
18C
  8
TEAM-NET
 10
-378.983378
 20
450.0
 30
600.0
 70
    64
  0
VERTEX
  5
18D
  8
TEAM-NET
 10
-315.819481
 20
450.0
 30
600.0
 70
    64
  0
VERTEX
  5
18E
  8
TEAM-NET
 10
-252.655585
 20
450.0
 30
600.0
 70
    64
  0
VERTEX
  5
18F
  8
TEAM-NET
 10
-189.491689
 20
450.0
 30
600.0
 70
    64
  0
VERTEX
  5
190
  8
TEAM-NET
 10
-126.327793
 20
450.0
 30
600.0
 70
    64
  0
VERTEX
  5
191
  8
TEAM-NET
 10
-63.163896
 20
450.0
 30
600.0
 70
    64
  0
VERTEX
  5
192
  8
TEAM-NET
 10
0.0
 20
450.0
 30
600.0
 70
    64
  0
VERTEX
  5
193
  8
TEAM-NET
 10
63.163896
 20
450.0
 30
600.0
 70
    64
  0
VERTEX
  5
194
  8
TEAM-NET
 10
126.327793
 20
450.0
 30
600.0
 70
    64
  0
VERTEX
  5
195
  8
TEAM-NET
 10
189.491689
 20
450.0
 30
600.0
 70
    64
  0
VERTEX
  5
196
  8
TEAM-NET
 10
252.655585
 20
450.0
 30
600.0
 70
    64
  0
VERTEX
  5
197
  8
TEAM-NET
 10
315.819481
 20
450.0
 30
600.0
 70
    64
  0
VERTEX
  5
198
  8
TEAM-NET
 10
378.983378
 20
450.0
 30
600.0
 70
    64
  0
VERTEX
  5
199
  8
TEAM-NET
 10
442.147274
 20
450.0
 30
600.0
 70
    64
  0
VERTEX
  5
19A
  8
TEAM-NET
 10
504.303101
 20
447.573518
 30
600.0
 70
    64
  0
VERTEX
  5
19B
  8
TEAM-NET
 10
548.872791
 20
402.816166
 30
600.0
 70
    64
  0
VERTEX
  5
19C
  8
TEAM-NET
 10
593.442481
 20
358.058814
 30
600.0
 70
    64
  0
VERTEX
  5
19D
  8
TEAM-NET
 10
638.012171
 20
313.301462
 30
600.0
 70
    64
  0
VERTEX
  5
19E
  8
TEAM-NET
 10
682.581861
 20
268.544111
 30
600.0
 70
    64
  0
VERTEX
  5
19F
  8
TEAM-NET
 10
727.15155
 20
223.786759
 30
600.0
 70
    64
  0
VERTEX
  5
1A0
  8
TEAM-NET
 10
771.72124
 20
179.029407
 30
600.0
 70
    64
  0
VERTEX
  5
1A1
  8
TEAM-NET
 10
816.29093
 20
134.272055
 30
600.0
 70
    64
  0
VERTEX
  5
1A2
  8
TEAM-NET
 10
860.86062
 20
89.514704
 30
600.0
 70
    64
  0
VERTEX
  5
1A3
  8
TEAM-NET
 10
905.43031
 20
44.757352
 30
600.0
 70
    64
  0
VERTEX
  5
1A4
  8
TEAM-NET
 10
950.0
 20
0.0
 30
600.0
 70
    64
  0
SEQEND
  5
1A5
  8
TEAM-NET
  0
LINE
  5
1A6
  8
TEAM-AXE
 10
-950.0
 20
0.0
 30
600.0
 11
950.0
 21
0.0
 31
600.0
  0
POLYLINE
  5
1A9
  8
TEAM-BODY
 66
     1
 10
0.0
 20
0.0
 30
600.0
 39
-45.0
  0
VERTEX
  5
3AA
  8
TEAM-BODY
 10
950.0
 20
0.0
 30
600.0
  0
VERTEX
  5
3AB
  8
TEAM-BODY
 10
501.886792
 20
450.0
 30
600.0
  0
VERTEX
  5
3AC
  8
TEAM-BODY
 10
-501.886792
 20
450.0
 30
600.0
  0
VERTEX
  5
3AD
  8
TEAM-BODY
 10
-950.0
 20
0.0
 30
600.0
  0
SEQEND
  5
3AE
  8
TEAM-BODY
  0
POLYLINE
  5
1AA
  8
TEAM-BODY
 66
     1
 10
0.0
 20
0.0
 30
600.0
 39
-45.0
  0
VERTEX
  5
3AF
  8
TEAM-BODY
 10
950.0
 20
0.0
 30
600.0
  0
VERTEX
  5
3B0
  8
TEAM-BODY
 10
501.886792
 20
-450.0
 30
600.0
  0
VERTEX
  5
3B1
  8
TEAM-BODY
 10
-501.886792
 20
-450.0
 30
600.0
  0
VERTEX
  5
3B2
  8
TEAM-BODY
 10
-950.0
 20
0.0
 30
600.0
  0
SEQEND
  5
3B3
  8
TEAM-BODY
  0
POLYLINE
  5
1AB
  8
TEAM-DET1
 66
     1
 10
0.0
 20
0.0
 30
540.0
 70
     1
  0
VERTEX
  5
3B4
  8
TEAM-DET1
 10
26.0
 20
-334.849658
 30
540.0
  0
VERTEX
  5
3B5
  8
TEAM-DET1
 10
25.679896
 20
-333.95016
 30
540.0
  0
VERTEX
  5
3B6
  8
TEAM-DET1
 10
24.727469
 20
-333.07281
 30
540.0
  0
VERTEX
  5
3B7
  8
TEAM-DET1
 10
23.166169
 20
-332.239212
 30
540.0
  0
VERTEX
  5
3B8
  8
TEAM-DET1
 10
21.034441
 20
-331.469892
 30
540.0
  0
VERTEX
  5
3B9
  8
TEAM-DET1
 10
18.384776
 20
-330.783794
 30
540.0
  0
VERTEX
  5
3BA
  8
TEAM-DET1
 10
15.282416
 20
-330.19781
 30
540.0
  0
VERTEX
  5
3BB
  8
TEAM-DET1
 10
11.803753
 20
-329.72637
 30
540.0
  0
VERTEX
  5
3BC
  8
TEAM-DET1
 10
8.034441
 20
-329.381083
 30
540.0
  0
VERTEX
  5
3BD
  8
TEAM-DET1
 10
4.067296
 20
-329.17045
 30
540.0
  0
VERTEX
  5
3BE
  8
TEAM-DET1
 10
0.0
 20
-329.099658
 30
540.0
  0
VERTEX
  5
3BF
  8
TEAM-DET1
 10
-4.067296
 20
-329.17045
 30
540.0
  0
VERTEX
  5
3C0
  8
TEAM-DET1
 10
-8.034442
 20
-329.381083
 30
540.0
  0
VERTEX
  5
3C1
  8
TEAM-DET1
 10
-11.803753
 20
-329.72637
 30
540.0
  0
VERTEX
  5
3C2
  8
TEAM-DET1
 10
-15.282417
 20
-330.19781
 30
540.0
  0
VERTEX
  5
3C3
  8
TEAM-DET1
 10
-18.384777
 20
-330.783794
 30
540.0
  0
VERTEX
  5
3C4
  8
TEAM-DET1
 10
-21.034442
 20
-331.469892
 30
540.0
  0
VERTEX
  5
3C5
  8
TEAM-DET1
 10
-23.16617
 20
-332.239212
 30
540.0
  0
VERTEX
  5
3C6
  8
TEAM-DET1
 10
-24.72747
 20
-333.07281
 30
540.0
  0
VERTEX
  5
3C7
  8
TEAM-DET1
 10
-25.679897
 20
-333.95016
 30
540.0
  0
VERTEX
  5
3C8
  8
TEAM-DET1
 10
-26.0
 20
-334.849658
 30
540.0
  0
VERTEX
  5
3C9
  8
TEAM-DET1
 10
-25.679897
 20
-335.749156
 30
540.0
  0
VERTEX
  5
3CA
  8
TEAM-DET1
 10
-24.72747
 20
-336.626505
 30
540.0
  0
VERTEX
  5
3CB
  8
TEAM-DET1
 10
-23.16617
 20
-337.460103
 30
540.0
  0
VERTEX
  5
3CC
  8
TEAM-DET1
 10
-21.034442
 20
-338.229423
 30
540.0
  0
VERTEX
  5
3CD
  8
TEAM-DET1
 10
-18.384777
 20
-338.915522
 30
540.0
  0
VERTEX
  5
3CE
  8
TEAM-DET1
 10
-15.282417
 20
-339.501505
 30
540.0
  0
VERTEX
  5
3CF
  8
TEAM-DET1
 10
-11.803753
 20
-339.972945
 30
540.0
  0
VERTEX
  5
3D0
  8
TEAM-DET1
 10
-8.034442
 20
-340.318233
 30
540.0
  0
VERTEX
  5
3D1
  8
TEAM-DET1
 10
-4.067296
 20
-340.528866
 30
540.0
  0
VERTEX
  5
3D2
  8
TEAM-DET1
 10
0.0
 20
-340.599658
 30
540.0
  0
VERTEX
  5
3D3
  8
TEAM-DET1
 10
4.067296
 20
-340.528866
 30
540.0
  0
VERTEX
  5
3D4
  8
TEAM-DET1
 10
8.034441
 20
-340.318233
 30
540.0
  0
VERTEX
  5
3D5
  8
TEAM-DET1
 10
11.803753
 20
-339.972945
 30
540.0
  0
VERTEX
  5
3D6
  8
TEAM-DET1
 10
15.282416
 20
-339.501505
 30
540.0
  0
VERTEX
  5
3D7
  8
TEAM-DET1
 10
18.384776
 20
-338.915522
 30
540.0
  0
VERTEX
  5
3D8
  8
TEAM-DET1
 10
21.034441
 20
-338.229423
 30
540.0
  0
VERTEX
  5
3D9
  8
TEAM-DET1
 10
23.166169
 20
-337.460103
 30
540.0
  0
VERTEX
  5
3DA
  8
TEAM-DET1
 10
24.727469
 20
-336.626505
 30
540.0
  0
VERTEX
  5
3DB
  8
TEAM-DET1
 10
25.679896
 20
-335.749156
 30
540.0
  0
SEQEND
  5
3DC
  8
TEAM-DET1
  0
POLYLINE
  5
1AC
  8
TEAM-DET1
 66
     1
 10
0.0
 20
0.0
 30
540.0
  0
VERTEX
  5
3DD
  8
TEAM-DET1
 10
-647.516919
 20
0.0
 30
540.0
 42
-0.454122
  0
VERTEX
  5
3DE
  8
TEAM-DET1
 10
-298.302475
 20
350.0
 30
540.0
  0
VERTEX
  5
3DF
  8
TEAM-DET1
 10
291.500421
 20
350.0
 30
540.0
 42
-0.437022
  0
VERTEX
  5
3E0
  8
TEAM-DET1
 10
649.07925
 20
0.0
 30
540.0
  0
SEQEND
  5
3E1
  8
TEAM-DET1
  0
POLYLINE
  5
1AD
  8
TEAM-DET1
 66
     1
 10
0.0
 20
0.0
 30
540.0
  0
VERTEX
  5
3E2
  8
TEAM-DET1
 10
-647.516919
 20
0.0
 30
540.0
 42
0.454122
  0
VERTEX
  5
3E3
  8
TEAM-DET1
 10
-298.302475
 20
-350.0
 30
540.0
  0
VERTEX
  5
3E4
  8
TEAM-DET1
 10
291.500421
 20
-350.0
 30
540.0
 42
0.437022
  0
VERTEX
  5
3E5
  8
TEAM-DET1
 10
649.07925
 20
0.0
 30
540.0
  0
SEQEND
  5
3E6
  8
TEAM-DET1
  0
POLYLINE
  5
1AE
  8
TEAM-NET
 66
     1
 10
0.0
 20
0.0
 30
0.0
 70
    16
 71
     2
 72
    25
  0
VERTEX
  5
1AF
  8
TEAM-NET
 10
235.512041
 20
-360.0
 30
600.0
 70
    64
  0
VERTEX
  5
1B0
  8
TEAM-NET
 10
261.920098
 20
-360.0
 30
600.0
 70
    64
  0
VERTEX
  5
1B1
  8
TEAM-NET
 10
288.328156
 20
-360.0
 30
600.0
 70
    64
  0
VERTEX
  5
1B2
  8
TEAM-NET
 10
314.729134
 20
-360.355984
 30
600.0
 70
    64
  0
VERTEX
  5
1B3
  8
TEAM-NET
 10
341.089688
 20
-358.8803
 30
600.0
 70
    64
  0
VERTEX
  5
1B4
  8
TEAM-NET
 10
367.264675
 20
-355.42683
 30
600.0
 70
    64
  0
VERTEX
  5
1B5
  8
TEAM-NET
 10
393.105919
 20
-350.015125
 30
600.0
 70
    64
  0
VERTEX
  5
1B6
  8
TEAM-NET
 10
418.46713
 20
-342.675821
 30
600.0
 70
    64
  0
VERTEX
  5
1B7
  8
TEAM-NET
 10
443.204738
 20
-333.450465
 30
600.0
 70
    64
  0
VERTEX
  5
1B8
  8
TEAM-NET
 10
467.178702
 20
-322.391284
 30
600.0
 70
    64
  0
VERTEX
  5
1B9
  8
TEAM-NET
 10
490.253304
 20
-309.560884
 30
600.0
 70
    64
  0
VERTEX
  5
1BA
  8
TEAM-NET
 10
512.297917
 20
-295.031897
 30
600.0
 70
    64
  0
VERTEX
  5
1BB
  8
TEAM-NET
 10
533.187746
 20
-278.886574
 30
600.0
 70
    64
  0
VERTEX
  5
1BC
  8
TEAM-NET
 10
552.804533
 20
-261.216314
 30
600.0
 70
    64
  0
VERTEX
  5
1BD
  8
TEAM-NET
 10
571.037226
 20
-242.121149
 30
600.0
 70
    64
  0
VERTEX
  5
1BE
  8
TEAM-NET
 10
587.782609
 20
-221.709178
 30
600.0
 70
    64
  0
VERTEX
  5
1BF
  8
TEAM-NET
 10
602.945886
 20
-200.095953
 30
600.0
 70
    64
  0
VERTEX
  5
1C0
  8
TEAM-NET
 10
616.441216
 20
-177.403829
 30
600.0
 70
    64
  0
VERTEX
  5
1C1
  8
TEAM-NET
 10
628.192202
 20
-153.761267
 30
600.0
 70
    64
  0
VERTEX
  5
1C2
  8
TEAM-NET
 10
638.13232
 20
-129.302108
 30
600.0
 70
    64
  0
VERTEX
  5
1C3
  8
TEAM-NET
 10
646.2053
 20
-104.164816
 30
600.0
 70
    64
  0
VERTEX
  5
1C4
  8
TEAM-NET
 10
652.36544
 20
-78.491696
 30
600.0
 70
    64
  0
VERTEX
  5
1C5
  8
TEAM-NET
 10
656.577867
 20
-52.428084
 30
600.0
 70
    64
  0
VERTEX
  5
1C6
  8
TEAM-NET
 10
658.818734
 20
-26.121527
 30
600.0
 70
    64
  0
VERTEX
  5
1C7
  8
TEAM-NET
 10
659.075356
 20
0.279052
 30
600.0
 70
    64
  0
VERTEX
  5
1C8
  8
TEAM-NET
 10
226.229257
 20
-450.0
 30
600.0
 70
    64
  0
VERTEX
  5
1C9
  8
TEAM-NET
 10
259.808558
 20
-446.598212
 30
600.0
 70
    64
  0
VERTEX
  5
1CA
  8
TEAM-NET
 10
293.387858
 20
-443.196424
 30
600.0
 70
    64
  0
VERTEX
  5
1CB
  8
TEAM-NET
 10
326.967158
 20
-439.794636
 30
600.0
 70
    64
  0
VERTEX
  5
1CC
  8
TEAM-NET
 10
360.546459
 20
-436.392849
 30
600.0
 70
    64
  0
VERTEX
  5
1CD
  8
TEAM-NET
 10
394.125759
 20
-432.991061
 30
600.0
 70
    64
  0
VERTEX
  5
1CE
  8
TEAM-NET
 10
427.70506
 20
-429.589273
 30
600.0
 70
    64
  0
VERTEX
  5
1CF
  8
TEAM-NET
 10
461.283341
 20
-426.177872
 30
600.0
 70
    64
  0
VERTEX
  5
1D0
  8
TEAM-NET
 10
493.53251
 20
-416.777873
 30
600.0
 70
    64
  0
VERTEX
  5
1D1
  8
TEAM-NET
 10
520.849715
 20
-397.229412
 30
600.0
 70
    64
  0
VERTEX
  5
1D2
  8
TEAM-NET
 10
544.665207
 20
-373.313644
 30
600.0
 70
    64
  0
VERTEX
  5
1D3
  8
TEAM-NET
 10
568.480699
 20
-349.397877
 30
600.0
 70
    64
  0
VERTEX
  5
1D4
  8
TEAM-NET
 10
592.29619
 20
-325.48211
 30
600.0
 70
    64
  0
VERTEX
  5
1D5
  8
TEAM-NET
 10
616.111682
 20
-301.566342
 30
600.0
 70
    64
  0
VERTEX
  5
1D6
  8
TEAM-NET
 10
639.927174
 20
-277.650575
 30
600.0
 70
    64
  0
VERTEX
  5
1D7
  8
TEAM-NET
 10
663.742665
 20
-253.734807
 30
600.0
 70
    64
  0
VERTEX
  5
1D8
  8
TEAM-NET
 10
687.558157
 20
-229.81904
 30
600.0
 70
    64
  0
VERTEX
  5
1D9
  8
TEAM-NET
 10
711.373648
 20
-205.903273
 30
600.0
 70
    64
  0
VERTEX
  5
1DA
  8
TEAM-NET
 10
735.18914
 20
-181.987505
 30
600.0
 70
    64
  0
VERTEX
  5
1DB
  8
TEAM-NET
 10
757.930053
 20
-157.100426
 30
600.0
 70
    64
  0
VERTEX
  5
1DC
  8
TEAM-NET
 10
776.73283
 20
-129.102844
 30
600.0
 70
    64
  0
VERTEX
  5
1DD
  8
TEAM-NET
 10
791.592139
 20
-98.827277
 30
600.0
 70
    64
  0
VERTEX
  5
1DE
  8
TEAM-NET
 10
802.237027
 20
-66.825787
 30
600.0
 70
    64
  0
VERTEX
  5
1DF
  8
TEAM-NET
 10
808.473389
 20
-33.681906
 30
600.0
 70
    64
  0
VERTEX
  5
1E0
  8
TEAM-NET
 10
810.187508
 20
0.0
 30
600.0
 70
    64
  0
SEQEND
  5
1E1
  8
TEAM-NET
  0
POLYLINE
  5
1E2
  8
TEAM-NET
 66
     1
 10
0.0
 20
0.0
 30
0.0
 70
    16
 71
     2
 72
    25
  0
VERTEX
  5
1E3
  8
TEAM-NET
 10
235.512041
 20
360.0
 30
600.0
 70
    64
  0
VERTEX
  5
1E4
  8
TEAM-NET
 10
261.920098
 20
360.0
 30
600.0
 70
    64
  0
VERTEX
  5
1E5
  8
TEAM-NET
 10
288.328156
 20
360.0
 30
600.0
 70
    64
  0
VERTEX
  5
1E6
  8
TEAM-NET
 10
314.729134
 20
360.355984
 30
600.0
 70
    64
  0
VERTEX
  5
1E7
  8
TEAM-NET
 10
341.089688
 20
358.8803
 30
600.0
 70
    64
  0
VERTEX
  5
1E8
  8
TEAM-NET
 10
367.264675
 20
355.42683
 30
600.0
 70
    64
  0
VERTEX
  5
1E9
  8
TEAM-NET
 10
393.105919
 20
350.015125
 30
600.0
 70
    64
  0
VERTEX
  5
1EA
  8
TEAM-NET
 10
418.46713
 20
342.675821
 30
600.0
 70
    64
  0
VERTEX
  5
1EB
  8
TEAM-NET
 10
443.204738
 20
333.450465
 30
600.0
 70
    64
  0
VERTEX
  5
1EC
  8
TEAM-NET
 10
467.178702
 20
322.391284
 30
600.0
 70
    64
  0
VERTEX
  5
1ED
  8
TEAM-NET
 10
490.253304
 20
309.560884
 30
600.0
 70
    64
  0
VERTEX
  5
1EE
  8
TEAM-NET
 10
512.297917
 20
295.031897
 30
600.0
 70
    64
  0
VERTEX
  5
1EF
  8
TEAM-NET
 10
533.187746
 20
278.886574
 30
600.0
 70
    64
  0
VERTEX
  5
1F0
  8
TEAM-NET
 10
552.804533
 20
261.216314
 30
600.0
 70
    64
  0
VERTEX
  5
1F1
  8
TEAM-NET
 10
571.037226
 20
242.121149
 30
600.0
 70
    64
  0
VERTEX
  5
1F2
  8
TEAM-NET
 10
587.782609
 20
221.709178
 30
600.0
 70
    64
  0
VERTEX
  5
1F3
  8
TEAM-NET
 10
602.945886
 20
200.095953
 30
600.0
 70
    64
  0
VERTEX
  5
1F4
  8
TEAM-NET
 10
616.441216
 20
177.403829
 30
600.0
 70
    64
  0
VERTEX
  5
1F5
  8
TEAM-NET
 10
628.192202
 20
153.761267
 30
600.0
 70
    64
  0
VERTEX
  5
1F6
  8
TEAM-NET
 10
638.13232
 20
129.302108
 30
600.0
 70
    64
  0
VERTEX
  5
1F7
  8
TEAM-NET
 10
646.2053
 20
104.164816
 30
600.0
 70
    64
  0
VERTEX
  5
1F8
  8
TEAM-NET
 10
652.36544
 20
78.491696
 30
600.0
 70
    64
  0
VERTEX
  5
1F9
  8
TEAM-NET
 10
656.577867
 20
52.428084
 30
600.0
 70
    64
  0
VERTEX
  5
1FA
  8
TEAM-NET
 10
658.818734
 20
26.121527
 30
600.0
 70
    64
  0
VERTEX
  5
1FB
  8
TEAM-NET
 10
659.075356
 20
-0.279052
 30
600.0
 70
    64
  0
VERTEX
  5
1FC
  8
TEAM-NET
 10
226.229257
 20
450.0
 30
600.0
 70
    64
  0
VERTEX
  5
1FD
  8
TEAM-NET
 10
259.808558
 20
446.598212
 30
600.0
 70
    64
  0
VERTEX
  5
1FE
  8
TEAM-NET
 10
293.387858
 20
443.196424
 30
600.0
 70
    64
  0
VERTEX
  5
1FF
  8
TEAM-NET
 10
326.967158
 20
439.794636
 30
600.0
 70
    64
  0
VERTEX
  5
200
  8
TEAM-NET
 10
360.546459
 20
436.392849
 30
600.0
 70
    64
  0
VERTEX
  5
201
  8
TEAM-NET
 10
394.125759
 20
432.991061
 30
600.0
 70
    64
  0
VERTEX
  5
202
  8
TEAM-NET
 10
427.70506
 20
429.589273
 30
600.0
 70
    64
  0
VERTEX
  5
203
  8
TEAM-NET
 10
461.283341
 20
426.177872
 30
600.0
 70
    64
  0
VERTEX
  5
204
  8
TEAM-NET
 10
493.53251
 20
416.777873
 30
600.0
 70
    64
  0
VERTEX
  5
205
  8
TEAM-NET
 10
520.849715
 20
397.229412
 30
600.0
 70
    64
  0
VERTEX
  5
206
  8
TEAM-NET
 10
544.665207
 20
373.313644
 30
600.0
 70
    64
  0
VERTEX
  5
207
  8
TEAM-NET
 10
568.480699
 20
349.397877
 30
600.0
 70
    64
  0
VERTEX
  5
208
  8
TEAM-NET
 10
592.29619
 20
325.48211
 30
600.0
 70
    64
  0
VERTEX
  5
209
  8
TEAM-NET
 10
616.111682
 20
301.566342
 30
600.0
 70
    64
  0
VERTEX
  5
20A
  8
TEAM-NET
 10
639.927174
 20
277.650575
 30
600.0
 70
    64
  0
VERTEX
  5
20B
  8
TEAM-NET
 10
663.742665
 20
253.734807
 30
600.0
 70
    64
  0
VERTEX
  5
20C
  8
TEAM-NET
 10
687.558157
 20
229.81904
 30
600.0
 70
    64
  0
VERTEX
  5
20D
  8
TEAM-NET
 10
711.373648
 20
205.903273
 30
600.0
 70
    64
  0
VERTEX
  5
20E
  8
TEAM-NET
 10
735.18914
 20
181.987505
 30
600.0
 70
    64
  0
VERTEX
  5
20F
  8
TEAM-NET
 10
757.930053
 20
157.100426
 30
600.0
 70
    64
  0
VERTEX
  5
210
  8
TEAM-NET
 10
776.73283
 20
129.102844
 30
600.0
 70
    64
  0
VERTEX
  5
211
  8
TEAM-NET
 10
791.592139
 20
98.827277
 30
600.0
 70
    64
  0
VERTEX
  5
212
  8
TEAM-NET
 10
802.237027
 20
66.825787
 30
600.0
 70
    64
  0
VERTEX
  5
213
  8
TEAM-NET
 10
808.473389
 20
33.681906
 30
600.0
 70
    64
  0
VERTEX
  5
214
  8
TEAM-NET
 10
810.187508
 20
0.0
 30
600.0
 70
    64
  0
SEQEND
  5
215
  8
TEAM-NET
  0
POLYLINE
  5
216
  8
TEAM-NET
 66
     1
 10
0.0
 20
0.0
 30
0.0
 70
    16
 71
     2
 72
    25
  0
VERTEX
  5
217
  8
TEAM-NET
 10
-657.493618
 20
0.682256
 30
600.0
 70
    64
  0
VERTEX
  5
218
  8
TEAM-NET
 10
-658.263557
 20
-25.924513
 30
600.0
 70
    64
  0
VERTEX
  5
219
  8
TEAM-NET
 10
-656.939375
 20
-52.509462
 30
600.0
 70
    64
  0
VERTEX
  5
21A
  8
TEAM-NET
 10
-653.529269
 20
-78.908025
 30
600.0
 70
    64
  0
VERTEX
  5
21B
  8
TEAM-NET
 10
-648.054349
 20
-104.956791
 30
600.0
 70
    64
  0
VERTEX
  5
21C
  8
TEAM-NET
 10
-640.548504
 20
-130.494513
 30
600.0
 70
    64
  0
VERTEX
  5
21D
  8
TEAM-NET
 10
-631.058198
 20
-155.363109
 30
600.0
 70
    64
  0
VERTEX
  5
21E
  8
TEAM-NET
 10
-619.642177
 20
-179.408637
 30
600.0
 70
    64
  0
VERTEX
  5
21F
  8
TEAM-NET
 10
-606.371107
 20
-202.482251
 30
600.0
 70
    64
  0
VERTEX
  5
220
  8
TEAM-NET
 10
-591.327141
 20
-224.441122
 30
600.0
 70
    64
  0
VERTEX
  5
221
  8
TEAM-NET
 10
-574.603401
 20
-245.149321
 30
600.0
 70
    64
  0
VERTEX
  5
222
  8
TEAM-NET
 10
-556.303411
 20
-264.47866
 30
600.0
 70
    64
  0
VERTEX
  5
223
  8
TEAM-NET
 10
-536.540452
 20
-282.309487
 30
600.0
 70
    64
  0
VERTEX
  5
224
  8
TEAM-NET
 10
-515.436859
 20
-298.531426
 30
600.0
 70
    64
  0
VERTEX
  5
225
  8
TEAM-NET
 10
-493.123267
 20
-313.044061
 30
600.0
 70
    64
  0
VERTEX
  5
226
  8
TEAM-NET
 10
-469.737801
 20
-325.757556
 30
600.0
 70
    64
  0
VERTEX
  5
227
  8
TEAM-NET
 10
-445.425222
 20
-336.593212
 30
600.0
 70
    64
  0
VERTEX
  5
228
  8
TEAM-NET
 10
-420.336028
 20
-345.483955
 30
600.0
 70
    64
  0
VERTEX
  5
229
  8
TEAM-NET
 10
-394.625525
 20
-352.374749
 30
600.0
 70
    64
  0
VERTEX
  5
22A
  8
TEAM-NET
 10
-368.452868
 20
-357.222939
 30
600.0
 70
    64
  0
VERTEX
  5
22B
  8
TEAM-NET
 10
-341.980068
 20
-359.998514
 30
600.0
 70
    64
  0
VERTEX
  5
22C
  8
TEAM-NET
 10
-315.370996
 20
-360.684293
 30
600.0
 70
    64
  0
VERTEX
  5
22D
  8
TEAM-NET
 10
-288.761594
 20
-360.0
 30
600.0
 70
    64
  0
VERTEX
  5
22E
  8
TEAM-NET
 10
-262.136817
 20
-360.0
 30
600.0
 70
    64
  0
VERTEX
  5
22F
  8
TEAM-NET
 10
-235.512041
 20
-360.0
 30
600.0
 70
    64
  0
VERTEX
  5
230
  8
TEAM-NET
 10
-810.187508
 20
0.0
 30
600.0
 70
    64
  0
VERTEX
  5
231
  8
TEAM-NET
 10
-808.473389
 20
-33.681906
 30
600.0
 70
    64
  0
VERTEX
  5
232
  8
TEAM-NET
 10
-802.237027
 20
-66.825787
 30
600.0
 70
    64
  0
VERTEX
  5
233
  8
TEAM-NET
 10
-791.592139
 20
-98.827277
 30
600.0
 70
    64
  0
VERTEX
  5
234
  8
TEAM-NET
 10
-776.73283
 20
-129.102844
 30
600.0
 70
    64
  0
VERTEX
  5
235
  8
TEAM-NET
 10
-757.930053
 20
-157.100426
 30
600.0
 70
    64
  0
VERTEX
  5
236
  8
TEAM-NET
 10
-735.18914
 20
-181.987505
 30
600.0
 70
    64
  0
VERTEX
  5
237
  8
TEAM-NET
 10
-711.373648
 20
-205.903273
 30
600.0
 70
    64
  0
VERTEX
  5
238
  8
TEAM-NET
 10
-687.558157
 20
-229.81904
 30
600.0
 70
    64
  0
VERTEX
  5
239
  8
TEAM-NET
 10
-663.742665
 20
-253.734807
 30
600.0
 70
    64
  0
VERTEX
  5
23A
  8
TEAM-NET
 10
-639.927174
 20
-277.650575
 30
600.0
 70
    64
  0
VERTEX
  5
23B
  8
TEAM-NET
 10
-616.111682
 20
-301.566342
 30
600.0
 70
    64
  0
VERTEX
  5
23C
  8
TEAM-NET
 10
-592.29619
 20
-325.48211
 30
600.0
 70
    64
  0
VERTEX
  5
23D
  8
TEAM-NET
 10
-568.480699
 20
-349.397877
 30
600.0
 70
    64
  0
VERTEX
  5
23E
  8
TEAM-NET
 10
-544.665207
 20
-373.313644
 30
600.0
 70
    64
  0
VERTEX
  5
23F
  8
TEAM-NET
 10
-520.849715
 20
-397.229412
 30
600.0
 70
    64
  0
VERTEX
  5
240
  8
TEAM-NET
 10
-493.53251
 20
-416.777873
 30
600.0
 70
    64
  0
VERTEX
  5
241
  8
TEAM-NET
 10
-461.283341
 20
-426.177872
 30
600.0
 70
    64
  0
VERTEX
  5
242
  8
TEAM-NET
 10
-427.70506
 20
-429.589273
 30
600.0
 70
    64
  0
VERTEX
  5
243
  8
TEAM-NET
 10
-394.125759
 20
-432.991061
 30
600.0
 70
    64
  0
VERTEX
  5
244
  8
TEAM-NET
 10
-360.546459
 20
-436.392849
 30
600.0
 70
    64
  0
VERTEX
  5
245
  8
TEAM-NET
 10
-326.967158
 20
-439.794636
 30
600.0
 70
    64
  0
VERTEX
  5
246
  8
TEAM-NET
 10
-293.387858
 20
-443.196424
 30
600.0
 70
    64
  0
VERTEX
  5
247
  8
TEAM-NET
 10
-259.808558
 20
-446.598212
 30
600.0
 70
    64
  0
VERTEX
  5
248
  8
TEAM-NET
 10
-226.229257
 20
-450.0
 30
600.0
 70
    64
  0
SEQEND
  5
249
  8
TEAM-NET
  0
POLYLINE
  5
24A
  8
TEAM-NET
 66
     1
 10
0.0
 20
0.0
 30
0.0
 70
    16
 71
     2
 72
    25
  0
VERTEX
  5
24B
  8
TEAM-NET
 10
-235.512041
 20
360.0
 30
600.0
 70
    64
  0
VERTEX
  5
24C
  8
TEAM-NET
 10
-262.136817
 20
360.0
 30
600.0
 70
    64
  0
VERTEX
  5
24D
  8
TEAM-NET
 10
-288.761594
 20
360.0
 30
600.0
 70
    64
  0
VERTEX
  5
24E
  8
TEAM-NET
 10
-315.370996
 20
360.684293
 30
600.0
 70
    64
  0
VERTEX
  5
24F
  8
TEAM-NET
 10
-341.980068
 20
359.998514
 30
600.0
 70
    64
  0
VERTEX
  5
250
  8
TEAM-NET
 10
-368.452868
 20
357.222939
 30
600.0
 70
    64
  0
VERTEX
  5
251
  8
TEAM-NET
 10
-394.625525
 20
352.374749
 30
600.0
 70
    64
  0
VERTEX
  5
252
  8
TEAM-NET
 10
-420.336028
 20
345.483955
 30
600.0
 70
    64
  0
VERTEX
  5
253
  8
TEAM-NET
 10
-445.425222
 20
336.593212
 30
600.0
 70
    64
  0
VERTEX
  5
254
  8
TEAM-NET
 10
-469.737801
 20
325.757556
 30
600.0
 70
    64
  0
VERTEX
  5
255
  8
TEAM-NET
 10
-493.123267
 20
313.044061
 30
600.0
 70
    64
  0
VERTEX
  5
256
  8
TEAM-NET
 10
-515.436859
 20
298.531426
 30
600.0
 70
    64
  0
VERTEX
  5
257
  8
TEAM-NET
 10
-536.540452
 20
282.309487
 30
600.0
 70
    64
  0
VERTEX
  5
258
  8
TEAM-NET
 10
-556.303411
 20
264.47866
 30
600.0
 70
    64
  0
VERTEX
  5
259
  8
TEAM-NET
 10
-574.603401
 20
245.149321
 30
600.0
 70
    64
  0
VERTEX
  5
25A
  8
TEAM-NET
 10
-591.327141
 20
224.441122
 30
600.0
 70
    64
  0
VERTEX
  5
25B
  8
TEAM-NET
 10
-606.371107
 20
202.482251
 30
600.0
 70
    64
  0
VERTEX
  5
25C
  8
TEAM-NET
 10
-619.642177
 20
179.408637
 30
600.0
 70
    64
  0
VERTEX
  5
25D
  8
TEAM-NET
 10
-631.058198
 20
155.363109
 30
600.0
 70
    64
  0
VERTEX
  5
25E
  8
TEAM-NET
 10
-640.548504
 20
130.494513
 30
600.0
 70
    64
  0
VERTEX
  5
25F
  8
TEAM-NET
 10
-648.054349
 20
104.956791
 30
600.0
 70
    64
  0
VERTEX
  5
260
  8
TEAM-NET
 10
-653.529269
 20
78.908025
 30
600.0
 70
    64
  0
VERTEX
  5
261
  8
TEAM-NET
 10
-656.939375
 20
52.509462
 30
600.0
 70
    64
  0
VERTEX
  5
262
  8
TEAM-NET
 10
-658.263557
 20
25.924513
 30
600.0
 70
    64
  0
VERTEX
  5
263
  8
TEAM-NET
 10
-657.493618
 20
-0.682256
 30
600.0
 70
    64
  0
VERTEX
  5
264
  8
TEAM-NET
 10
-226.229257
 20
450.0
 30
600.0
 70
    64
  0
VERTEX
  5
265
  8
TEAM-NET
 10
-259.808558
 20
446.598212
 30
600.0
 70
    64
  0
VERTEX
  5
266
  8
TEAM-NET
 10
-293.387858
 20
443.196424
 30
600.0
 70
    64
  0
VERTEX
  5
267
  8
TEAM-NET
 10
-326.967158
 20
439.794636
 30
600.0
 70
    64
  0
VERTEX
  5
268
  8
TEAM-NET
 10
-360.546459
 20
436.392849
 30
600.0
 70
    64
  0
VERTEX
  5
269
  8
TEAM-NET
 10
-394.125759
 20
432.991061
 30
600.0
 70
    64
  0
VERTEX
  5
26A
  8
TEAM-NET
 10
-427.70506
 20
429.589273
 30
600.0
 70
    64
  0
VERTEX
  5
26B
  8
TEAM-NET
 10
-461.283341
 20
426.177872
 30
600.0
 70
    64
  0
VERTEX
  5
26C
  8
TEAM-NET
 10
-493.53251
 20
416.777873
 30
600.0
 70
    64
  0
VERTEX
  5
26D
  8
TEAM-NET
 10
-520.849715
 20
397.229412
 30
600.0
 70
    64
  0
VERTEX
  5
26E
  8
TEAM-NET
 10
-544.665207
 20
373.313644
 30
600.0
 70
    64
  0
VERTEX
  5
26F
  8
TEAM-NET
 10
-568.480699
 20
349.397877
 30
600.0
 70
    64
  0
VERTEX
  5
270
  8
TEAM-NET
 10
-592.29619
 20
325.48211
 30
600.0
 70
    64
  0
VERTEX
  5
271
  8
TEAM-NET
 10
-616.111682
 20
301.566342
 30
600.0
 70
    64
  0
VERTEX
  5
272
  8
TEAM-NET
 10
-639.927174
 20
277.650575
 30
600.0
 70
    64
  0
VERTEX
  5
273
  8
TEAM-NET
 10
-663.742665
 20
253.734807
 30
600.0
 70
    64
  0
VERTEX
  5
274
  8
TEAM-NET
 10
-687.558157
 20
229.81904
 30
600.0
 70
    64
  0
VERTEX
  5
275
  8
TEAM-NET
 10
-711.373648
 20
205.903273
 30
600.0
 70
    64
  0
VERTEX
  5
276
  8
TEAM-NET
 10
-735.18914
 20
181.987505
 30
600.0
 70
    64
  0
VERTEX
  5
277
  8
TEAM-NET
 10
-757.930053
 20
157.100426
 30
600.0
 70
    64
  0
VERTEX
  5
278
  8
TEAM-NET
 10
-776.73283
 20
129.102844
 30
600.0
 70
    64
  0
VERTEX
  5
279
  8
TEAM-NET
 10
-791.592139
 20
98.827277
 30
600.0
 70
    64
  0
VERTEX
  5
27A
  8
TEAM-NET
 10
-802.237027
 20
66.825787
 30
600.0
 70
    64
  0
VERTEX
  5
27B
  8
TEAM-NET
 10
-808.473389
 20
33.681906
 30
600.0
 70
    64
  0
VERTEX
  5
27C
  8
TEAM-NET
 10
-810.187508
 20
0.0
 30
600.0
 70
    64
  0
SEQEND
  5
27D
  8
TEAM-NET
  0
POLYLINE
  5
27E
  8
TEAM-DET1
 66
     1
 10
0.0
 20
0.0
 30
600.0
  0
VERTEX
  5
3E7
  8
TEAM-DET1
 10
235.512041
 20
360.0
 30
600.0
  0
VERTEX
  5
3E8
  8
TEAM-DET1
 10
291.255505
 20
360.0
 30
600.0
 42
-0.436811
  0
VERTEX
  5
3E9
  8
TEAM-DET1
 10
659.075356
 20
-0.279052
 30
600.0
  0
SEQEND
  5
3EA
  8
TEAM-DET1
  0
POLYLINE
  5
27F
  8
TEAM-DET1
 66
     1
 10
0.0
 20
0.0
 30
600.0
  0
VERTEX
  5
3EB
  8
TEAM-DET1
 10
235.512041
 20
-360.0
 30
600.0
  0
VERTEX
  5
3EC
  8
TEAM-DET1
 10
291.255505
 20
-360.0
 30
600.0
 42
0.436811
  0
VERTEX
  5
3ED
  8
TEAM-DET1
 10
659.075356
 20
0.279052
 30
600.0
  0
SEQEND
  5
3EE
  8
TEAM-DET1
  0
POLYLINE
  5
280
  8
TEAM-DET1
 66
     1
 10
0.0
 20
0.0
 30
600.0
  0
VERTEX
  5
3EF
  8
TEAM-DET1
 10
-657.493618
 20
0.682256
 30
600.0
 42
0.453826
  0
VERTEX
  5
3F0
  8
TEAM-DET1
 10
-297.974676
 20
-360.0
 30
600.0
  0
VERTEX
  5
3F1
  8
TEAM-DET1
 10
-235.512041
 20
-360.0
 30
600.0
  0
SEQEND
  5
3F2
  8
TEAM-DET1
  0
POLYLINE
  5
281
  8
TEAM-DET1
 66
     1
 10
0.0
 20
0.0
 30
600.0
  0
VERTEX
  5
3F3
  8
TEAM-DET1
 10
-657.493618
 20
-0.682256
 30
600.0
 42
-0.453826
  0
VERTEX
  5
3F4
  8
TEAM-DET1
 10
-297.974676
 20
360.0
 30
600.0
  0
VERTEX
  5
3F5
  8
TEAM-DET1
 10
-235.512041
 20
360.0
 30
600.0
  0
SEQEND
  5
3F6
  8
TEAM-DET1
  0
LINE
  5
282
  8
TEAM-DET1
 10
-226.229257
 20
350.0
 30
600.0
 11
-311.077901
 21
441.404315
 31
600.0
  0
LINE
  5
283
  8
TEAM-DET1
 10
-226.229257
 20
-350.0
 30
600.0
 11
-311.077901
 21
-441.404315
 31
600.0
  0
POLYLINE
  5
284
  8
TEAM-DET1
 66
     1
 10
0.0
 20
0.0
 30
600.0
  0
VERTEX
  5
3F7
  8
TEAM-DET1
 10
226.229257
 20
450.0
 30
600.0
  0
VERTEX
  5
3F8
  8
TEAM-DET1
 10
459.900952
 20
426.327633
 30
600.0
 42
-0.17334
  0
VERTEX
  5
3F9
  8
TEAM-DET1
 10
520.681004
 20
397.398833
 30
600.0
  0
VERTEX
  5
3FA
  8
TEAM-DET1
 10
748.033046
 20
169.08952
 30
600.0
 42
-0.186609
  0
VERTEX
  5
3FB
  8
TEAM-DET1
 10
810.187508
 20
0.0
 30
600.0
  0
SEQEND
  5
3FC
  8
TEAM-DET1
  0
POLYLINE
  5
285
  8
TEAM-DET1
 66
     1
 10
0.0
 20
0.0
 30
600.0
  0
VERTEX
  5
3FD
  8
TEAM-DET1
 10
226.229257
 20
-450.0
 30
600.0
  0
VERTEX
  5
3FE
  8
TEAM-DET1
 10
459.900952
 20
-426.327633
 30
600.0
 42
0.17334
  0
VERTEX
  5
3FF
  8
TEAM-DET1
 10
520.681004
 20
-397.398833
 30
600.0
  0
VERTEX
  5
400
  8
TEAM-DET1
 10
748.033046
 20
-169.08952
 30
600.0
 42
0.186609
  0
VERTEX
  5
401
  8
TEAM-DET1
 10
810.187508
 20
0.0
 30
600.0
  0
SEQEND
  5
402
  8
TEAM-DET1
  0
LINE
  5
286
  8
TEAM-DET1
 10
226.229257
 20
350.0
 30
600.0
 11
311.077901
 21
441.404315
 31
600.0
  0
LINE
  5
287
  8
TEAM-DET1
 10
226.229257
 20
-350.0
 30
600.0
 11
311.077901
 21
-441.404315
 31
600.0
  0
TEXT
  5
288
  8
TEAM-TXT
 10
-355.273411
 20
189.925161
 30
600.0
 40
30.0
  1
team 121068
 41
0.8
 51
15.0
  7
TEAM
  0
POLYLINE
  5
28B
  8
TEAM-DET1
 66
     1
 10
0.0
 20
0.0
 30
600.0
  0
VERTEX
  5
403
  8
TEAM-DET1
 10
-226.229257
 20
450.0
 30
600.0
  0
VERTEX
  5
404
  8
TEAM-DET1
 10
-459.900952
 20
426.327633
 30
600.0
 42
0.17334
  0
VERTEX
  5
405
  8
TEAM-DET1
 10
-520.681004
 20
397.398833
 30
600.0
  0
VERTEX
  5
406
  8
TEAM-DET1
 10
-748.033046
 20
169.08952
 30
600.0
 42
0.186609
  0
VERTEX
  5
407
  8
TEAM-DET1
 10
-810.187508
 20
0.0
 30
600.0
  0
SEQEND
  5
408
  8
TEAM-DET1
  0
POLYLINE
  5
28C
  8
TEAM-DET1
 66
     1
 10
0.0
 20
0.0
 30
600.0
  0
VERTEX
  5
409
  8
TEAM-DET1
 10
-226.229257
 20
-450.0
 30
600.0
  0
VERTEX
  5
40A
  8
TEAM-DET1
 10
-459.900952
 20
-426.327633
 30
600.0
 42
-0.17334
  0
VERTEX
  5
40B
  8
TEAM-DET1
 10
-520.681004
 20
-397.398833
 30
600.0
  0
VERTEX
  5
40C
  8
TEAM-DET1
 10
-748.033046
 20
-169.08952
 30
600.0
 42
-0.186609
  0
VERTEX
  5
40D
  8
TEAM-DET1
 10
-810.187508
 20
0.0
 30
600.0
  0
SEQEND
  5
40E
  8
TEAM-DET1
  0
ENDSEC
  0
EOF
