  0
SECTION
  2
HEADER
  9
$ACADVER
  1
AC1009
  9
$INSBASE
 10
0.0
 20
0.0
 30
0.0
  9
$EXTMIN
 10
-875.078936
 20
-650.052574
 30
-0.01989
  9
$EXTMAX
 10
875.042576
 20
450.082377
 30
602.019255
  9
$LIMMIN
 10
-875.078936
 20
-650.052574
  9
$LIMMAX
 10
875.042576
 20
450.082377
  9
$ORTHOMODE
 70
     1
  9
$REGENMODE
 70
     1
  9
$FILLMODE
 70
     1
  9
$QTEXTMODE
 70
     0
  9
$MIRRTEXT
 70
     0
  9
$DRAGMODE
 70
     2
  9
$LTSCALE
 40
50.0
  9
$OSMODE
 70
     0
  9
$ATTMODE
 70
     1
  9
$TEXTSIZE
 40
200.0
  9
$TRACEWID
 40
1.0
  9
$TEXTSTYLE
  7
STANDARD
  9
$CLAYER
  8
0
  9
$CELTYPE
  6
BYLAYER
  9
$CECOLOR
 62
   256
  9
$DIMSCALE
 40
0.0
  9
$DIMASZ
 40
20.0
  9
$DIMEXO
 40
10.0
  9
$DIMDLI
 40
1.0
  9
$DIMRND
 40
0.0
  9
$DIMDLE
 40
0.0
  9
$DIMEXE
 40
1.0
  9
$DIMTP
 40
0.0
  9
$DIMTM
 40
0.0
  9
$DIMTXT
 40
35.0
  9
$DIMCEN
 40
1.0
  9
$DIMTSZ
 40
0.0
  9
$DIMTOL
 70
     0
  9
$DIMLIM
 70
     0
  9
$DIMTIH
 70
     0
  9
$DIMTOH
 70
     0
  9
$DIMSE1
 70
     0
  9
$DIMSE2
 70
     0
  9
$DIMTAD
 70
     0
  9
$DIMZIN
 70
     0
  9
$DIMBLK
  1

  9
$DIMASO
 70
     1
  9
$DIMSHO
 70
     0
  9
$DIMPOST
  1

  9
$DIMAPOST
  1

  9
$DIMALT
 70
     0
  9
$DIMALTD
 70
     2
  9
$DIMALTF
 40
25.4
  9
$DIMLFAC
 40
1.0
  9
$DIMTOFL
 70
     0
  9
$DIMTVP
 40
0.0
  9
$DIMTIX
 70
     0
  9
$DIMSOXD
 70
     0
  9
$DIMSAH
 70
     0
  9
$DIMBLK1
  1

  9
$DIMBLK2
  1

  9
$DIMSTYLE
  2
TEAM
  9
$DIMCLRD
 70
     9
  9
$DIMCLRE
 70
     9
  9
$DIMCLRT
 70
    11
  9
$DIMTFAC
 40
1.0
  9
$DIMGAP
 40
7.0
  9
$LUNITS
 70
     2
  9
$LUPREC
 70
     1
  9
$SKETCHINC
 40
1.0
  9
$FILLETRAD
 40
30.0
  9
$AUNITS
 70
     0
  9
$AUPREC
 70
     0
  9
$MENU
  1
ROPLANS
  9
$ELEVATION
 40
0.0
  9
$PELEVATION
 40
0.0
  9
$THICKNESS
 40
0.0
  9
$LIMCHECK
 70
     0
  9
$BLIPMODE
 70
     1
  9
$CHAMFERA
 40
0.0
  9
$CHAMFERB
 40
0.0
  9
$SKPOLY
 70
     0
  9
$TDCREATE
 40
2450392.957851
  9
$TDUPDATE
 40
2457455.962239
  9
$TDINDWG
 40
2.150969
  9
$TDUSRTIMER
 40
2.150969
  9
$USRTIMER
 70
     1
  9
$ANGBASE
 50
0.0
  9
$ANGDIR
 70
     0
  9
$PDMODE
 70
     0
  9
$PDSIZE
 40
0.0
  9
$PLINEWID
 40
0.0
  9
$COORDS
 70
     2
  9
$SPLFRAME
 70
     0
  9
$SPLINETYPE
 70
     6
  9
$SPLINESEGS
 70
     8
  9
$ATTDIA
 70
     0
  9
$ATTREQ
 70
     0
  9
$HANDLING
 70
     1
  9
$HANDSEED
  5
338
  9
$SURFTAB1
 70
    36
  9
$SURFTAB2
 70
    36
  9
$SURFTYPE
 70
     6
  9
$SURFU
 70
     6
  9
$SURFV
 70
     6
  9
$UCSNAME
  2

  9
$UCSORG
 10
0.0
 20
0.0
 30
0.0
  9
$UCSXDIR
 10
1.0
 20
0.0
 30
0.0
  9
$UCSYDIR
 10
0.0
 20
1.0
 30
0.0
  9
$PUCSNAME
  2

  9
$PUCSORG
 10
0.0
 20
0.0
 30
0.0
  9
$PUCSXDIR
 10
1.0
 20
0.0
 30
0.0
  9
$PUCSYDIR
 10
0.0
 20
1.0
 30
0.0
  9
$USERI1
 70
     0
  9
$USERI2
 70
     0
  9
$USERI3
 70
     0
  9
$USERI4
 70
     0
  9
$USERI5
 70
     0
  9
$USERR1
 40
0.0
  9
$USERR2
 40
0.0
  9
$USERR3
 40
0.0
  9
$USERR4
 40
0.0
  9
$USERR5
 40
0.0
  9
$WORLDVIEW
 70
     1
  9
$SHADEDGE
 70
     0
  9
$SHADEDIF
 70
    70
  9
$TILEMODE
 70
     1
  9
$MAXACTVP
 70
    16
  9
$PLIMCHECK
 70
     0
  9
$PEXTMIN
 10
-0.805942
 20
0.005011
 30
0.0
  9
$PEXTMAX
 10
20.250094
 20
11.356329
 30
0.0
  9
$PLIMMIN
 10
0.0
 20
0.0
  9
$PLIMMAX
 10
12.0
 20
9.0
  9
$UNITMODE
 70
     0
  9
$VISRETAIN
 70
     0
  9
$PLINEGEN
 70
     0
  9
$PSLTSCALE
 70
     0
  0
ENDSEC
  0
SECTION
  2
TABLES
  0
TABLE
  2
VPORT
 70
     2
  0
VPORT
  2
*ACTIVE
 70
     0
 10
0.0
 20
0.0
 11
1.0
 21
1.0
 12
-0.01818
 22
-99.985099
 13
0.0
 23
0.0
 14
1.0
 24
1.0
 15
50.0
 25
50.0
 16
0.0
 26
0.0
 36
1.0
 17
0.0
 27
0.0
 37
0.0
 40
1106.968087
 41
1.926425
 42
50.0
 43
0.0
 44
0.0
 50
0.0
 51
0.0
 71
     0
 72
   100
 73
     1
 74
     1
 75
     0
 76
     0
 77
     0
 78
     0
  0
ENDTAB
  0
TABLE
  2
LTYPE
 70
     1
  0
LTYPE
  2
CONTINUOUS
 70
     0
  3
Solid Line
 72
    65
 73
     0
 40
0.0
  0
ENDTAB
  0
TABLE
  2
LAYER
 70
     6
  0
LAYER
  2
0
 70
     0
 62
     7
  6
CONTINUOUS
  0
LAYER
  2
TEAM-BODY
 70
     0
 62
     2
  6
CONTINUOUS
  0
LAYER
  2
TEAM-TXT
 70
     0
 62
    11
  6
CONTINUOUS
  0
LAYER
  2
TEAM-DET1
 70
     0
 62
     4
  6
CONTINUOUS
  0
LAYER
  2
TEAM-NET
 70
     0
 62
    15
  6
CONTINUOUS
  0
LAYER
  2
TEAM-INSP
 70
     0
 62
     5
  6
CONTINUOUS
  0
ENDTAB
  0
TABLE
  2
STYLE
 70
     2
  0
STYLE
  2
STANDARD
 70
     0
 40
0.0
 41
1.0
 50
0.0
 71
     0
 42
200.0
  3
txt
  4

  0
STYLE
  2
TEAM
 70
     0
 40
0.0
 41
0.8
 50
15.0
 71
     0
 42
7.0
  3
ROMANS.shx
  4

  0
ENDTAB
  0
TABLE
  2
VIEW
 70
     0
  0
ENDTAB
  0
TABLE
  2
UCS
 70
     0
  0
ENDTAB
  0
TABLE
  2
APPID
 70
     1
  0
APPID
  2
ACAD
 70
     0
  0
ENDTAB
  0
TABLE
  2
DIMSTYLE
 70
     1
  0
DIMSTYLE
  2
TEAM
 70
     0
  3

  4

  5

  6

  7

 40
0.0
 41
20.0
 42
10.0
 43
1.0
 44
1.0
 45
0.0
 46
0.0
 47
0.0
 48
0.0
140
35.0
141
1.0
142
0.0
143
25.4
144
1.0
145
0.0
146
1.0
147
7.0
 71
     0
 72
     0
 73
     0
 74
     0
 75
     0
 76
     0
 77
     0
 78
     0
170
     0
171
     2
172
     0
173
     0
174
     0
175
     0
176
     9
177
     9
178
    11
  0
ENDTAB
  0
ENDSEC
  0
SECTION
  2
BLOCKS
  0
BLOCK
  8
0
  2
$MODEL_SPACE
 70
     0
 10
0.0
 20
0.0
 30
0.0
  3
$MODEL_SPACE
  1

  0
ENDBLK
  5
2D0
  8
0
  0
BLOCK
 67
     1
  8
0
  2
$PAPER_SPACE
 70
     0
 10
0.0
 20
0.0
 30
0.0
  3
$PAPER_SPACE
  1

  0
ENDBLK
  5
2CE
 67
     1
  8
0
  0
ENDSEC
  0
SECTION
  2
ENTITIES
  0
POLYLINE
  5
1F
  8
TEAM-NET
 66
     1
 10
0.0
 20
0.0
 30
0.0
 70
    16
 71
     2
 72
    37
  0
VERTEX
  5
20
  8
TEAM-NET
 10
657.325569
 20
0.0
 30
110.0
 70
    64
  0
VERTEX
  5
21
  8
TEAM-NET
 10
658.979388
 20
-44.82764
 30
110.0
 70
    64
  0
VERTEX
  5
22
  8
TEAM-NET
 10
660.633206
 20
-89.655281
 30
110.0
 70
    64
  0
VERTEX
  5
23
  8
TEAM-NET
 10
662.691636
 20
-134.450624
 30
110.0
 70
    64
  0
VERTEX
  5
24
  8
TEAM-NET
 10
645.691407
 20
-174.348524
 30
110.0
 70
    64
  0
VERTEX
  5
25
  8
TEAM-NET
 10
603.96161
 20
-188.363356
 30
110.0
 70
    64
  0
VERTEX
  5
26
  8
TEAM-NET
 10
559.618771
 20
-195.143109
 30
110.0
 70
    64
  0
VERTEX
  5
27
  8
TEAM-NET
 10
515.275932
 20
-201.922862
 30
110.0
 70
    64
  0
VERTEX
  5
28
  8
TEAM-NET
 10
470.933092
 20
-208.702615
 30
110.0
 70
    64
  0
VERTEX
  5
29
  8
TEAM-NET
 10
426.590253
 20
-215.482368
 30
110.0
 70
    64
  0
VERTEX
  5
2A
  8
TEAM-NET
 10
382.247413
 20
-222.262121
 30
110.0
 70
    64
  0
VERTEX
  5
2B
  8
TEAM-NET
 10
337.904574
 20
-229.041874
 30
110.0
 70
    64
  0
VERTEX
  5
2C
  8
TEAM-NET
 10
293.561734
 20
-235.821627
 30
110.0
 70
    64
  0
VERTEX
  5
2D
  8
TEAM-NET
 10
249.218895
 20
-242.60138
 30
110.0
 70
    64
  0
VERTEX
  5
2E
  8
TEAM-NET
 10
204.876055
 20
-249.381133
 30
110.0
 70
    64
  0
VERTEX
  5
2F
  8
TEAM-NET
 10
160.533216
 20
-256.160886
 30
110.0
 70
    64
  0
VERTEX
  5
30
  8
TEAM-NET
 10
116.190376
 20
-262.940639
 30
110.0
 70
    64
  0
VERTEX
  5
31
  8
TEAM-NET
 10
71.847537
 20
-269.720393
 30
110.0
 70
    64
  0
VERTEX
  5
32
  8
TEAM-NET
 10
27.504697
 20
-276.500146
 30
110.0
 70
    64
  0
VERTEX
  5
33
  8
TEAM-NET
 10
-16.838142
 20
-283.279899
 30
110.0
 70
    64
  0
VERTEX
  5
34
  8
TEAM-NET
 10
-61.180982
 20
-290.059652
 30
110.0
 70
    64
  0
VERTEX
  5
35
  8
TEAM-NET
 10
-105.523821
 20
-296.839405
 30
110.0
 70
    64
  0
VERTEX
  5
36
  8
TEAM-NET
 10
-149.86666
 20
-303.619158
 30
110.0
 70
    64
  0
VERTEX
  5
37
  8
TEAM-NET
 10
-194.2095
 20
-310.398911
 30
110.0
 70
    64
  0
VERTEX
  5
38
  8
TEAM-NET
 10
-238.552339
 20
-317.178664
 30
110.0
 70
    64
  0
VERTEX
  5
39
  8
TEAM-NET
 10
-282.895179
 20
-323.958417
 30
110.0
 70
    64
  0
VERTEX
  5
3A
  8
TEAM-NET
 10
-327.238018
 20
-330.73817
 30
110.0
 70
    64
  0
VERTEX
  5
3B
  8
TEAM-NET
 10
-371.580858
 20
-337.517923
 30
110.0
 70
    64
  0
VERTEX
  5
3C
  8
TEAM-NET
 10
-415.49259
 20
-339.512671
 30
110.0
 70
    64
  0
VERTEX
  5
3D
  8
TEAM-NET
 10
-439.459504
 20
-302.009082
 30
110.0
 70
    64
  0
VERTEX
  5
3E
  8
TEAM-NET
 10
-459.033908
 20
-261.657575
 30
110.0
 70
    64
  0
VERTEX
  5
3F
  8
TEAM-NET
 10
-475.686181
 20
-220.01501
 30
110.0
 70
    64
  0
VERTEX
  5
40
  8
TEAM-NET
 10
-489.331829
 20
-177.292678
 30
110.0
 70
    64
  0
VERTEX
  5
41
  8
TEAM-NET
 10
-499.901617
 20
-133.707348
 30
110.0
 70
    64
  0
VERTEX
  5
42
  8
TEAM-NET
 10
-507.341914
 20
-89.480168
 30
110.0
 70
    64
  0
VERTEX
  5
43
  8
TEAM-NET
 10
-511.614969
 20
-44.835545
 30
110.0
 70
    64
  0
VERTEX
  5
44
  8
TEAM-NET
 10
-512.6991
 20
0.0
 30
110.0
 70
    64
  0
VERTEX
  5
45
  8
TEAM-NET
 10
784.815829
 20
0.0
 30
600.0
 70
    64
  0
VERTEX
  5
46
  8
TEAM-NET
 10
787.948415
 20
-60.155885
 30
600.0
 70
    64
  0
VERTEX
  5
47
  8
TEAM-NET
 10
791.081002
 20
-120.311771
 30
600.0
 70
    64
  0
VERTEX
  5
48
  8
TEAM-NET
 10
792.065158
 20
-180.336937
 30
600.0
 70
    64
  0
VERTEX
  5
49
  8
TEAM-NET
 10
764.395846
 20
-232.820762
 30
600.0
 70
    64
  0
VERTEX
  5
4A
  8
TEAM-NET
 10
711.777766
 20
-259.98836
 30
600.0
 70
    64
  0
VERTEX
  5
4B
  8
TEAM-NET
 10
652.400456
 20
-270.131275
 30
600.0
 70
    64
  0
VERTEX
  5
4C
  8
TEAM-NET
 10
593.023147
 20
-280.27419
 30
600.0
 70
    64
  0
VERTEX
  5
4D
  8
TEAM-NET
 10
533.645837
 20
-290.417105
 30
600.0
 70
    64
  0
VERTEX
  5
4E
  8
TEAM-NET
 10
474.268527
 20
-300.560019
 30
600.0
 70
    64
  0
VERTEX
  5
4F
  8
TEAM-NET
 10
414.891217
 20
-310.702934
 30
600.0
 70
    64
  0
VERTEX
  5
50
  8
TEAM-NET
 10
355.513907
 20
-320.845849
 30
600.0
 70
    64
  0
VERTEX
  5
51
  8
TEAM-NET
 10
296.136598
 20
-330.988763
 30
600.0
 70
    64
  0
VERTEX
  5
52
  8
TEAM-NET
 10
236.759288
 20
-341.131678
 30
600.0
 70
    64
  0
VERTEX
  5
53
  8
TEAM-NET
 10
177.381978
 20
-351.274593
 30
600.0
 70
    64
  0
VERTEX
  5
54
  8
TEAM-NET
 10
118.004668
 20
-361.417508
 30
600.0
 70
    64
  0
VERTEX
  5
55
  8
TEAM-NET
 10
58.627358
 20
-371.560422
 30
600.0
 70
    64
  0
VERTEX
  5
56
  8
TEAM-NET
 10
-0.749952
 20
-381.703337
 30
600.0
 70
    64
  0
VERTEX
  5
57
  8
TEAM-NET
 10
-60.127261
 20
-391.846252
 30
600.0
 70
    64
  0
VERTEX
  5
58
  8
TEAM-NET
 10
-119.504571
 20
-401.989167
 30
600.0
 70
    64
  0
VERTEX
  5
59
  8
TEAM-NET
 10
-178.881881
 20
-412.132081
 30
600.0
 70
    64
  0
VERTEX
  5
5A
  8
TEAM-NET
 10
-238.259191
 20
-422.274996
 30
600.0
 70
    64
  0
VERTEX
  5
5B
  8
TEAM-NET
 10
-297.636501
 20
-432.417911
 30
600.0
 70
    64
  0
VERTEX
  5
5C
  8
TEAM-NET
 10
-357.01381
 20
-442.560825
 30
600.0
 70
    64
  0
VERTEX
  5
5D
  8
TEAM-NET
 10
-416.39112
 20
-452.70374
 30
600.0
 70
    64
  0
VERTEX
  5
5E
  8
TEAM-NET
 10
-475.76843
 20
-462.846655
 30
600.0
 70
    64
  0
VERTEX
  5
5F
  8
TEAM-NET
 10
-535.111708
 20
-472.848985
 30
600.0
 70
    64
  0
VERTEX
  5
60
  8
TEAM-NET
 10
-594.930575
 20
-468.063615
 30
600.0
 70
    64
  0
VERTEX
  5
61
  8
TEAM-NET
 10
-650.637099
 20
-445.748156
 30
600.0
 70
    64
  0
VERTEX
  5
62
  8
TEAM-NET
 10
-697.216027
 20
-407.911665
 30
600.0
 70
    64
  0
VERTEX
  5
63
  8
TEAM-NET
 10
-730.473863
 20
-357.960559
 30
600.0
 70
    64
  0
VERTEX
  5
64
  8
TEAM-NET
 10
-747.348946
 20
-300.382458
 30
600.0
 70
    64
  0
VERTEX
  5
65
  8
TEAM-NET
 10
-754.314751
 20
-240.551025
 30
600.0
 70
    64
  0
VERTEX
  5
66
  8
TEAM-NET
 10
-759.661049
 20
-180.553193
 30
600.0
 70
    64
  0
VERTEX
  5
67
  8
TEAM-NET
 10
-763.383935
 20
-120.43279
 30
600.0
 70
    64
  0
VERTEX
  5
68
  8
TEAM-NET
 10
-765.480691
 20
-60.233734
 30
600.0
 70
    64
  0
VERTEX
  5
69
  8
TEAM-NET
 10
-765.949784
 20
0.0
 30
600.0
 70
    64
  0
SEQEND
  5
6B
  8
TEAM-NET
  0
POLYLINE
  5
6C
  8
TEAM-NET
 66
     1
 10
0.0
 20
0.0
 30
0.0
 70
    16
 71
     2
 72
    37
  0
VERTEX
  5
6D
  8
TEAM-NET
 10
-765.949784
 20
0.0
 30
600.0
 70
    64
  0
VERTEX
  5
6E
  8
TEAM-NET
 10
-765.052442
 20
58.897142
 30
600.0
 70
    64
  0
VERTEX
  5
6F
  8
TEAM-NET
 10
-762.950206
 20
117.763593
 30
600.0
 70
    64
  0
VERTEX
  5
70
  8
TEAM-NET
 10
-759.643956
 20
176.574708
 30
600.0
 70
    64
  0
VERTEX
  5
71
  8
TEAM-NET
 10
-749.076922
 20
234.316035
 30
600.0
 70
    64
  0
VERTEX
  5
72
  8
TEAM-NET
 10
-722.252393
 20
286.519812
 30
600.0
 70
    64
  0
VERTEX
  5
73
  8
TEAM-NET
 10
-681.428932
 20
328.688932
 30
600.0
 70
    64
  0
VERTEX
  5
74
  8
TEAM-NET
 10
-630.122246
 20
357.191803
 30
600.0
 70
    64
  0
VERTEX
  5
75
  8
TEAM-NET
 10
-572.750853
 20
369.573763
 30
600.0
 70
    64
  0
VERTEX
  5
76
  8
TEAM-NET
 10
-513.855127
 20
370.0
 30
600.0
 70
    64
  0
VERTEX
  5
77
  8
TEAM-NET
 10
-454.950122
 20
370.0
 30
600.0
 70
    64
  0
VERTEX
  5
78
  8
TEAM-NET
 10
-396.045118
 20
370.0
 30
600.0
 70
    64
  0
VERTEX
  5
79
  8
TEAM-NET
 10
-337.140113
 20
370.0
 30
600.0
 70
    64
  0
VERTEX
  5
7A
  8
TEAM-NET
 10
-278.235108
 20
370.0
 30
600.0
 70
    64
  0
VERTEX
  5
7B
  8
TEAM-NET
 10
-219.330104
 20
370.0
 30
600.0
 70
    64
  0
VERTEX
  5
7C
  8
TEAM-NET
 10
-160.425099
 20
370.0
 30
600.0
 70
    64
  0
VERTEX
  5
7D
  8
TEAM-NET
 10
-101.520094
 20
370.0
 30
600.0
 70
    64
  0
VERTEX
  5
7E
  8
TEAM-NET
 10
-42.61509
 20
370.0
 30
600.0
 70
    64
  0
VERTEX
  5
7F
  8
TEAM-NET
 10
16.289915
 20
370.0
 30
600.0
 70
    64
  0
VERTEX
  5
80
  8
TEAM-NET
 10
75.194919
 20
370.0
 30
600.0
 70
    64
  0
VERTEX
  5
81
  8
TEAM-NET
 10
134.099924
 20
370.0
 30
600.0
 70
    64
  0
VERTEX
  5
82
  8
TEAM-NET
 10
193.004929
 20
370.0
 30
600.0
 70
    64
  0
VERTEX
  5
83
  8
TEAM-NET
 10
251.909933
 20
370.0
 30
600.0
 70
    64
  0
VERTEX
  5
84
  8
TEAM-NET
 10
310.814938
 20
370.0
 30
600.0
 70
    64
  0
VERTEX
  5
85
  8
TEAM-NET
 10
369.719943
 20
370.0
 30
600.0
 70
    64
  0
VERTEX
  5
86
  8
TEAM-NET
 10
428.624947
 20
370.0
 30
600.0
 70
    64
  0
VERTEX
  5
87
  8
TEAM-NET
 10
487.529952
 20
370.0
 30
600.0
 70
    64
  0
VERTEX
  5
88
  8
TEAM-NET
 10
546.434957
 20
370.0
 30
600.0
 70
    64
  0
VERTEX
  5
89
  8
TEAM-NET
 10
605.339961
 20
370.0
 30
600.0
 70
    64
  0
VERTEX
  5
8A
  8
TEAM-NET
 10
664.158041
 20
368.498544
 30
600.0
 70
    64
  0
VERTEX
  5
8B
  8
TEAM-NET
 10
715.971539
 20
342.307228
 30
600.0
 70
    64
  0
VERTEX
  5
8C
  8
TEAM-NET
 10
744.501699
 20
291.743866
 30
600.0
 70
    64
  0
VERTEX
  5
8D
  8
TEAM-NET
 10
752.803909
 20
233.43528
 30
600.0
 70
    64
  0
VERTEX
  5
8E
  8
TEAM-NET
 10
760.806889
 20
175.07646
 30
600.0
 70
    64
  0
VERTEX
  5
8F
  8
TEAM-NET
 10
768.809869
 20
116.71764
 30
600.0
 70
    64
  0
VERTEX
  5
90
  8
TEAM-NET
 10
776.812849
 20
58.35882
 30
600.0
 70
    64
  0
VERTEX
  5
91
  8
TEAM-NET
 10
784.815829
 20
0.0
 30
600.0
 70
    64
  0
VERTEX
  5
92
  8
TEAM-NET
 10
-512.6991
 20
0.0
 30
110.0
 70
    64
  0
VERTEX
  5
93
  8
TEAM-NET
 10
-510.981918
 20
44.208425
 30
110.0
 70
    64
  0
VERTEX
  5
94
  8
TEAM-NET
 10
-506.565029
 20
88.229155
 30
110.0
 70
    64
  0
VERTEX
  5
95
  8
TEAM-NET
 10
-499.46496
 20
131.897479
 30
110.0
 70
    64
  0
VERTEX
  5
96
  8
TEAM-NET
 10
-489.708276
 20
175.050007
 30
110.0
 70
    64
  0
VERTEX
  5
97
  8
TEAM-NET
 10
-477.331483
 20
217.525277
 30
110.0
 70
    64
  0
VERTEX
  5
98
  8
TEAM-NET
 10
-458.128895
 20
256.181957
 30
110.0
 70
    64
  0
VERTEX
  5
99
  8
TEAM-NET
 10
-414.23201
 20
258.390095
 30
110.0
 70
    64
  0
VERTEX
  5
9A
  8
TEAM-NET
 10
-369.983347
 20
258.390095
 30
110.0
 70
    64
  0
VERTEX
  5
9B
  8
TEAM-NET
 10
-325.734685
 20
258.390095
 30
110.0
 70
    64
  0
VERTEX
  5
9C
  8
TEAM-NET
 10
-281.486022
 20
258.390095
 30
110.0
 70
    64
  0
VERTEX
  5
9D
  8
TEAM-NET
 10
-237.237359
 20
258.390095
 30
110.0
 70
    64
  0
VERTEX
  5
9E
  8
TEAM-NET
 10
-192.988696
 20
258.390095
 30
110.0
 70
    64
  0
VERTEX
  5
9F
  8
TEAM-NET
 10
-148.740034
 20
258.390095
 30
110.0
 70
    64
  0
VERTEX
  5
A0
  8
TEAM-NET
 10
-104.491371
 20
258.390095
 30
110.0
 70
    64
  0
VERTEX
  5
A1
  8
TEAM-NET
 10
-60.242708
 20
258.390095
 30
110.0
 70
    64
  0
VERTEX
  5
A2
  8
TEAM-NET
 10
-15.994045
 20
258.390095
 30
110.0
 70
    64
  0
VERTEX
  5
A3
  8
TEAM-NET
 10
28.254617
 20
258.390095
 30
110.0
 70
    64
  0
VERTEX
  5
A4
  8
TEAM-NET
 10
72.50328
 20
258.390095
 30
110.0
 70
    64
  0
VERTEX
  5
A5
  8
TEAM-NET
 10
116.751943
 20
258.390095
 30
110.0
 70
    64
  0
VERTEX
  5
A6
  8
TEAM-NET
 10
161.000606
 20
258.390095
 30
110.0
 70
    64
  0
VERTEX
  5
A7
  8
TEAM-NET
 10
205.249268
 20
258.390095
 30
110.0
 70
    64
  0
VERTEX
  5
A8
  8
TEAM-NET
 10
249.497931
 20
258.390095
 30
110.0
 70
    64
  0
VERTEX
  5
A9
  8
TEAM-NET
 10
293.746594
 20
258.390095
 30
110.0
 70
    64
  0
VERTEX
  5
AA
  8
TEAM-NET
 10
337.995257
 20
258.390095
 30
110.0
 70
    64
  0
VERTEX
  5
AB
  8
TEAM-NET
 10
382.243919
 20
258.390095
 30
110.0
 70
    64
  0
VERTEX
  5
AC
  8
TEAM-NET
 10
426.492582
 20
258.390095
 30
110.0
 70
    64
  0
VERTEX
  5
AD
  8
TEAM-NET
 10
470.741245
 20
258.390095
 30
110.0
 70
    64
  0
VERTEX
  5
AE
  8
TEAM-NET
 10
514.989908
 20
258.390095
 30
110.0
 70
    64
  0
VERTEX
  5
AF
  8
TEAM-NET
 10
559.23857
 20
258.390095
 30
110.0
 70
    64
  0
VERTEX
  5
B0
  8
TEAM-NET
 10
602.667687
 20
253.120584
 30
110.0
 70
    64
  0
VERTEX
  5
B1
  8
TEAM-NET
 10
629.09179
 20
219.427621
 30
110.0
 70
    64
  0
VERTEX
  5
B2
  8
TEAM-NET
 10
634.89065
 20
175.567027
 30
110.0
 70
    64
  0
VERTEX
  5
B3
  8
TEAM-NET
 10
640.499379
 20
131.67527
 30
110.0
 70
    64
  0
VERTEX
  5
B4
  8
TEAM-NET
 10
646.108109
 20
87.783513
 30
110.0
 70
    64
  0
VERTEX
  5
B5
  8
TEAM-NET
 10
651.716839
 20
43.891757
 30
110.0
 70
    64
  0
VERTEX
  5
B6
  8
TEAM-NET
 10
657.325569
 20
0.0
 30
110.0
 70
    64
  0
SEQEND
  5
B7
  8
TEAM-NET
  0
CIRCLE
  5
B8
  8
TEAM-INSP
 10
0.0
 20
0.0
 30
0.0
 40
10.0
  0
POLYLINE
  5
BA
  8
TEAM-NET
 66
     1
 10
0.0
 20
0.0
 30
0.0
 70
    16
 71
     2
 72
    37
  0
VERTEX
  5
BB
  8
TEAM-NET
 10
657.325569
 20
0.0
 30
110.0
 70
    64
  0
VERTEX
  5
BC
  8
TEAM-NET
 10
651.716839
 20
43.891757
 30
110.0
 70
    64
  0
VERTEX
  5
BD
  8
TEAM-NET
 10
646.108109
 20
87.783513
 30
110.0
 70
    64
  0
VERTEX
  5
BE
  8
TEAM-NET
 10
640.499379
 20
131.67527
 30
110.0
 70
    64
  0
VERTEX
  5
BF
  8
TEAM-NET
 10
634.89065
 20
175.567027
 30
110.0
 70
    64
  0
VERTEX
  5
C0
  8
TEAM-NET
 10
629.09179
 20
219.427621
 30
110.0
 70
    64
  0
VERTEX
  5
C1
  8
TEAM-NET
 10
602.667687
 20
253.120584
 30
110.0
 70
    64
  0
VERTEX
  5
C2
  8
TEAM-NET
 10
559.23857
 20
258.390095
 30
110.0
 70
    64
  0
VERTEX
  5
C3
  8
TEAM-NET
 10
514.989908
 20
258.390095
 30
110.0
 70
    64
  0
VERTEX
  5
C4
  8
TEAM-NET
 10
470.741245
 20
258.390095
 30
110.0
 70
    64
  0
VERTEX
  5
C5
  8
TEAM-NET
 10
426.492582
 20
258.390095
 30
110.0
 70
    64
  0
VERTEX
  5
C6
  8
TEAM-NET
 10
382.243919
 20
258.390095
 30
110.0
 70
    64
  0
VERTEX
  5
C7
  8
TEAM-NET
 10
337.995257
 20
258.390095
 30
110.0
 70
    64
  0
VERTEX
  5
C8
  8
TEAM-NET
 10
293.746594
 20
258.390095
 30
110.0
 70
    64
  0
VERTEX
  5
C9
  8
TEAM-NET
 10
249.497931
 20
258.390095
 30
110.0
 70
    64
  0
VERTEX
  5
CA
  8
TEAM-NET
 10
205.249268
 20
258.390095
 30
110.0
 70
    64
  0
VERTEX
  5
CB
  8
TEAM-NET
 10
161.000606
 20
258.390095
 30
110.0
 70
    64
  0
VERTEX
  5
CC
  8
TEAM-NET
 10
116.751943
 20
258.390095
 30
110.0
 70
    64
  0
VERTEX
  5
CD
  8
TEAM-NET
 10
72.50328
 20
258.390095
 30
110.0
 70
    64
  0
VERTEX
  5
CE
  8
TEAM-NET
 10
28.254617
 20
258.390095
 30
110.0
 70
    64
  0
VERTEX
  5
CF
  8
TEAM-NET
 10
-15.994045
 20
258.390095
 30
110.0
 70
    64
  0
VERTEX
  5
D0
  8
TEAM-NET
 10
-60.242708
 20
258.390095
 30
110.0
 70
    64
  0
VERTEX
  5
D1
  8
TEAM-NET
 10
-104.491371
 20
258.390095
 30
110.0
 70
    64
  0
VERTEX
  5
D2
  8
TEAM-NET
 10
-148.740034
 20
258.390095
 30
110.0
 70
    64
  0
VERTEX
  5
D3
  8
TEAM-NET
 10
-192.988696
 20
258.390095
 30
110.0
 70
    64
  0
VERTEX
  5
D4
  8
TEAM-NET
 10
-237.237359
 20
258.390095
 30
110.0
 70
    64
  0
VERTEX
  5
D5
  8
TEAM-NET
 10
-281.486022
 20
258.390095
 30
110.0
 70
    64
  0
VERTEX
  5
D6
  8
TEAM-NET
 10
-325.734685
 20
258.390095
 30
110.0
 70
    64
  0
VERTEX
  5
D7
  8
TEAM-NET
 10
-369.983347
 20
258.390095
 30
110.0
 70
    64
  0
VERTEX
  5
D8
  8
TEAM-NET
 10
-414.23201
 20
258.390095
 30
110.0
 70
    64
  0
VERTEX
  5
D9
  8
TEAM-NET
 10
-458.128895
 20
256.181957
 30
110.0
 70
    64
  0
VERTEX
  5
DA
  8
TEAM-NET
 10
-477.331483
 20
217.525277
 30
110.0
 70
    64
  0
VERTEX
  5
DB
  8
TEAM-NET
 10
-489.708276
 20
175.050007
 30
110.0
 70
    64
  0
VERTEX
  5
DC
  8
TEAM-NET
 10
-499.46496
 20
131.897479
 30
110.0
 70
    64
  0
VERTEX
  5
DD
  8
TEAM-NET
 10
-506.565029
 20
88.229155
 30
110.0
 70
    64
  0
VERTEX
  5
DE
  8
TEAM-NET
 10
-510.981918
 20
44.208425
 30
110.0
 70
    64
  0
VERTEX
  5
DF
  8
TEAM-NET
 10
-512.6991
 20
0.0
 30
110.0
 70
    64
  0
VERTEX
  5
E0
  8
TEAM-NET
 10
657.325569
 20
0.0
 30
110.0
 70
    64
  0
VERTEX
  5
E1
  8
TEAM-NET
 10
658.979388
 20
-44.82764
 30
110.0
 70
    64
  0
VERTEX
  5
E2
  8
TEAM-NET
 10
660.633206
 20
-89.655281
 30
110.0
 70
    64
  0
VERTEX
  5
E3
  8
TEAM-NET
 10
662.691636
 20
-134.450624
 30
110.0
 70
    64
  0
VERTEX
  5
E4
  8
TEAM-NET
 10
645.691407
 20
-174.348524
 30
110.0
 70
    64
  0
VERTEX
  5
E5
  8
TEAM-NET
 10
603.96161
 20
-188.363356
 30
110.0
 70
    64
  0
VERTEX
  5
E6
  8
TEAM-NET
 10
559.618771
 20
-195.143109
 30
110.0
 70
    64
  0
VERTEX
  5
E7
  8
TEAM-NET
 10
515.275932
 20
-201.922862
 30
110.0
 70
    64
  0
VERTEX
  5
E8
  8
TEAM-NET
 10
470.933092
 20
-208.702615
 30
110.0
 70
    64
  0
VERTEX
  5
E9
  8
TEAM-NET
 10
426.590253
 20
-215.482368
 30
110.0
 70
    64
  0
VERTEX
  5
EA
  8
TEAM-NET
 10
382.247413
 20
-222.262121
 30
110.0
 70
    64
  0
VERTEX
  5
EB
  8
TEAM-NET
 10
337.904574
 20
-229.041874
 30
110.0
 70
    64
  0
VERTEX
  5
EC
  8
TEAM-NET
 10
293.561734
 20
-235.821627
 30
110.0
 70
    64
  0
VERTEX
  5
ED
  8
TEAM-NET
 10
249.218895
 20
-242.60138
 30
110.0
 70
    64
  0
VERTEX
  5
EE
  8
TEAM-NET
 10
204.876055
 20
-249.381133
 30
110.0
 70
    64
  0
VERTEX
  5
EF
  8
TEAM-NET
 10
160.533216
 20
-256.160886
 30
110.0
 70
    64
  0
VERTEX
  5
F0
  8
TEAM-NET
 10
116.190376
 20
-262.940639
 30
110.0
 70
    64
  0
VERTEX
  5
F1
  8
TEAM-NET
 10
71.847537
 20
-269.720393
 30
110.0
 70
    64
  0
VERTEX
  5
F2
  8
TEAM-NET
 10
27.504697
 20
-276.500146
 30
110.0
 70
    64
  0
VERTEX
  5
F3
  8
TEAM-NET
 10
-16.838142
 20
-283.279899
 30
110.0
 70
    64
  0
VERTEX
  5
F4
  8
TEAM-NET
 10
-61.180982
 20
-290.059652
 30
110.0
 70
    64
  0
VERTEX
  5
F5
  8
TEAM-NET
 10
-105.523821
 20
-296.839405
 30
110.0
 70
    64
  0
VERTEX
  5
F6
  8
TEAM-NET
 10
-149.86666
 20
-303.619158
 30
110.0
 70
    64
  0
VERTEX
  5
F7
  8
TEAM-NET
 10
-194.2095
 20
-310.398911
 30
110.0
 70
    64
  0
VERTEX
  5
F8
  8
TEAM-NET
 10
-238.552339
 20
-317.178664
 30
110.0
 70
    64
  0
VERTEX
  5
F9
  8
TEAM-NET
 10
-282.895179
 20
-323.958417
 30
110.0
 70
    64
  0
VERTEX
  5
FA
  8
TEAM-NET
 10
-327.238018
 20
-330.73817
 30
110.0
 70
    64
  0
VERTEX
  5
FB
  8
TEAM-NET
 10
-371.580858
 20
-337.517923
 30
110.0
 70
    64
  0
VERTEX
  5
FC
  8
TEAM-NET
 10
-415.49259
 20
-339.512671
 30
110.0
 70
    64
  0
VERTEX
  5
FD
  8
TEAM-NET
 10
-439.459504
 20
-302.009082
 30
110.0
 70
    64
  0
VERTEX
  5
FE
  8
TEAM-NET
 10
-459.033908
 20
-261.657575
 30
110.0
 70
    64
  0
VERTEX
  5
FF
  8
TEAM-NET
 10
-475.686181
 20
-220.01501
 30
110.0
 70
    64
  0
VERTEX
  5
100
  8
TEAM-NET
 10
-489.331829
 20
-177.292678
 30
110.0
 70
    64
  0
VERTEX
  5
101
  8
TEAM-NET
 10
-499.901617
 20
-133.707348
 30
110.0
 70
    64
  0
VERTEX
  5
102
  8
TEAM-NET
 10
-507.341914
 20
-89.480168
 30
110.0
 70
    64
  0
VERTEX
  5
103
  8
TEAM-NET
 10
-511.614969
 20
-44.835545
 30
110.0
 70
    64
  0
VERTEX
  5
104
  8
TEAM-NET
 10
-512.6991
 20
0.0
 30
110.0
 70
    64
  0
SEQEND
  5
105
  8
TEAM-NET
  0
POLYLINE
  5
106
  8
TEAM-BODY
 66
     1
 10
0.0
 20
0.0
 30
110.0
  0
VERTEX
  5
2D6
  8
TEAM-BODY
 10
657.325569
 20
0.0
 30
110.0
  0
VERTEX
  5
2D7
  8
TEAM-BODY
 10
662.067936
 20
-128.544403
 30
110.0
 42
-0.386377
  0
VERTEX
  5
2D8
  8
TEAM-BODY
 10
625.627166
 20
-185.050823
 30
110.0
  0
VERTEX
  5
2D9
  8
TEAM-BODY
 10
-399.809311
 20
-341.833883
 30
110.0
 42
-0.30844
  0
VERTEX
  5
2DA
  8
TEAM-BODY
 10
-421.067884
 20
-334.367459
 30
110.0
 42
-0.140374
  0
VERTEX
  5
2DB
  8
TEAM-BODY
 10
-512.6991
 20
0.0
 30
110.0
  0
SEQEND
  5
2DC
  8
TEAM-BODY
  0
POLYLINE
  5
108
  8
TEAM-BODY
 66
     1
 10
0.0
 20
0.0
 30
110.0
  0
VERTEX
  5
2DD
  8
TEAM-BODY
 10
-512.6991
 20
0.0
 30
110.0
 42
-0.087481
  0
VERTEX
  5
2DE
  8
TEAM-BODY
 10
-467.053052
 20
246.984514
 30
110.0
 42
-0.289345
  0
VERTEX
  5
2DF
  8
TEAM-BODY
 10
-448.993817
 20
258.390095
 30
110.0
  0
VERTEX
  5
2E0
  8
TEAM-BODY
 10
580.325275
 20
258.390095
 30
110.0
 42
-0.366775
  0
VERTEX
  5
2E1
  8
TEAM-BODY
 10
629.649177
 20
216.584767
 30
110.0
  0
VERTEX
  5
2E2
  8
TEAM-BODY
 10
657.325569
 20
0.0
 30
110.0
  0
SEQEND
  5
2E3
  8
TEAM-BODY
  0
POLYLINE
  5
109
  8
TEAM-NET
 66
     1
 10
0.0
 20
0.0
 30
0.0
 70
    16
 71
     2
 72
    25
  0
VERTEX
  5
10A
  8
TEAM-NET
 10
20.0
 20
115.0
 30
110.0
 70
    64
  0
VERTEX
  5
10B
  8
TEAM-NET
 10
20.0
 20
127.5
 30
110.0
 70
    64
  0
VERTEX
  5
10C
  8
TEAM-NET
 10
20.0
 20
140.0
 30
110.0
 70
    64
  0
VERTEX
  5
10D
  8
TEAM-NET
 10
20.0
 20
152.5
 30
110.0
 70
    64
  0
VERTEX
  5
10E
  8
TEAM-NET
 10
20.0
 20
165.0
 30
110.0
 70
    64
  0
VERTEX
  5
10F
  8
TEAM-NET
 10
20.0
 20
177.5
 30
110.0
 70
    64
  0
VERTEX
  5
110
  8
TEAM-NET
 10
20.0
 20
190.0
 30
110.0
 70
    64
  0
VERTEX
  5
111
  8
TEAM-NET
 10
32.5
 20
190.0
 30
110.0
 70
    64
  0
VERTEX
  5
112
  8
TEAM-NET
 10
45.0
 20
190.0
 30
110.0
 70
    64
  0
VERTEX
  5
113
  8
TEAM-NET
 10
57.5
 20
190.0
 30
110.0
 70
    64
  0
VERTEX
  5
114
  8
TEAM-NET
 10
70.0
 20
190.0
 30
110.0
 70
    64
  0
VERTEX
  5
115
  8
TEAM-NET
 10
82.5
 20
190.0
 30
110.0
 70
    64
  0
VERTEX
  5
116
  8
TEAM-NET
 10
95.0
 20
190.0
 30
110.0
 70
    64
  0
VERTEX
  5
117
  8
TEAM-NET
 10
107.5
 20
190.0
 30
110.0
 70
    64
  0
VERTEX
  5
118
  8
TEAM-NET
 10
120.0
 20
190.0
 30
110.0
 70
    64
  0
VERTEX
  5
119
  8
TEAM-NET
 10
132.5
 20
190.0
 30
110.0
 70
    64
  0
VERTEX
  5
11A
  8
TEAM-NET
 10
145.0
 20
190.0
 30
110.0
 70
    64
  0
VERTEX
  5
11B
  8
TEAM-NET
 10
157.5
 20
190.0
 30
110.0
 70
    64
  0
VERTEX
  5
11C
  8
TEAM-NET
 10
170.0
 20
190.0
 30
110.0
 70
    64
  0
VERTEX
  5
11D
  8
TEAM-NET
 10
170.0
 20
177.5
 30
110.0
 70
    64
  0
VERTEX
  5
11E
  8
TEAM-NET
 10
170.0
 20
165.0
 30
110.0
 70
    64
  0
VERTEX
  5
11F
  8
TEAM-NET
 10
170.0
 20
152.5
 30
110.0
 70
    64
  0
VERTEX
  5
120
  8
TEAM-NET
 10
170.0
 20
140.0
 30
110.0
 70
    64
  0
VERTEX
  5
121
  8
TEAM-NET
 10
170.0
 20
127.5
 30
110.0
 70
    64
  0
VERTEX
  5
122
  8
TEAM-NET
 10
170.0
 20
115.0
 30
110.0
 70
    64
  0
VERTEX
  5
123
  8
TEAM-NET
 10
20.0
 20
115.0
 30
110.0
 70
    64
  0
VERTEX
  5
124
  8
TEAM-NET
 10
20.0
 20
102.5
 30
110.0
 70
    64
  0
VERTEX
  5
125
  8
TEAM-NET
 10
20.0
 20
90.0
 30
110.0
 70
    64
  0
VERTEX
  5
126
  8
TEAM-NET
 10
20.0
 20
77.5
 30
110.0
 70
    64
  0
VERTEX
  5
127
  8
TEAM-NET
 10
20.0
 20
65.0
 30
110.0
 70
    64
  0
VERTEX
  5
128
  8
TEAM-NET
 10
20.0
 20
52.5
 30
110.0
 70
    64
  0
VERTEX
  5
129
  8
TEAM-NET
 10
20.0
 20
40.0
 30
110.0
 70
    64
  0
VERTEX
  5
12A
  8
TEAM-NET
 10
32.5
 20
40.0
 30
110.0
 70
    64
  0
VERTEX
  5
12B
  8
TEAM-NET
 10
45.0
 20
40.0
 30
110.0
 70
    64
  0
VERTEX
  5
12C
  8
TEAM-NET
 10
57.5
 20
40.0
 30
110.0
 70
    64
  0
VERTEX
  5
12D
  8
TEAM-NET
 10
70.0
 20
40.0
 30
110.0
 70
    64
  0
VERTEX
  5
12E
  8
TEAM-NET
 10
82.5
 20
40.0
 30
110.0
 70
    64
  0
VERTEX
  5
12F
  8
TEAM-NET
 10
95.0
 20
40.0
 30
110.0
 70
    64
  0
VERTEX
  5
130
  8
TEAM-NET
 10
107.5
 20
40.0
 30
110.0
 70
    64
  0
VERTEX
  5
131
  8
TEAM-NET
 10
120.0
 20
40.0
 30
110.0
 70
    64
  0
VERTEX
  5
132
  8
TEAM-NET
 10
132.5
 20
40.0
 30
110.0
 70
    64
  0
VERTEX
  5
133
  8
TEAM-NET
 10
145.0
 20
40.0
 30
110.0
 70
    64
  0
VERTEX
  5
134
  8
TEAM-NET
 10
157.5
 20
40.0
 30
110.0
 70
    64
  0
VERTEX
  5
135
  8
TEAM-NET
 10
170.0
 20
40.0
 30
110.0
 70
    64
  0
VERTEX
  5
136
  8
TEAM-NET
 10
170.0
 20
52.5
 30
110.0
 70
    64
  0
VERTEX
  5
137
  8
TEAM-NET
 10
170.0
 20
65.0
 30
110.0
 70
    64
  0
VERTEX
  5
138
  8
TEAM-NET
 10
170.0
 20
77.5
 30
110.0
 70
    64
  0
VERTEX
  5
139
  8
TEAM-NET
 10
170.0
 20
90.0
 30
110.0
 70
    64
  0
VERTEX
  5
13A
  8
TEAM-NET
 10
170.0
 20
102.5
 30
110.0
 70
    64
  0
VERTEX
  5
13B
  8
TEAM-NET
 10
170.0
 20
115.0
 30
110.0
 70
    64
  0
SEQEND
  5
13C
  8
TEAM-NET
  0
POLYLINE
  5
13D
  8
TEAM-BODY
 66
     1
 10
0.0
 20
0.0
 30
110.0
  0
VERTEX
  5
2E4
  8
TEAM-BODY
 10
170.0
 20
115.0
 30
110.0
  0
VERTEX
  5
2E5
  8
TEAM-BODY
 10
170.0
 20
40.0
 30
110.0
  0
VERTEX
  5
2E6
  8
TEAM-BODY
 10
20.0
 20
40.0
 30
110.0
  0
VERTEX
  5
2E7
  8
TEAM-BODY
 10
20.0
 20
115.0
 30
110.0
  0
SEQEND
  5
2E8
  8
TEAM-BODY
  0
POLYLINE
  5
13E
  8
TEAM-BODY
 66
     1
 10
0.0
 20
0.0
 30
110.0
  0
VERTEX
  5
2E9
  8
TEAM-BODY
 10
170.0
 20
115.0
 30
110.0
  0
VERTEX
  5
2EA
  8
TEAM-BODY
 10
170.0
 20
190.0
 30
110.0
  0
VERTEX
  5
2EB
  8
TEAM-BODY
 10
20.0
 20
190.0
 30
110.0
  0
VERTEX
  5
2EC
  8
TEAM-BODY
 10
20.0
 20
115.0
 30
110.0
  0
SEQEND
  5
2ED
  8
TEAM-BODY
  0
POLYLINE
  5
13F
  8
TEAM-BODY
 66
     1
 10
0.0
 20
0.0
 30
400.0
  0
VERTEX
  5
2EE
  8
TEAM-BODY
 10
-418.504854
 20
360.581489
 30
400.0
 42
0.386321
  0
VERTEX
  5
2EF
  8
TEAM-BODY
 10
-617.58086
 20
179.784186
 30
400.0
 42
0.022636
  0
VERTEX
  5
2F0
  8
TEAM-BODY
 10
-625.729868
 20
-9.418511
 30
400.0
  0
SEQEND
  5
2F1
  8
TEAM-BODY
  0
POLYLINE
  5
140
  8
TEAM-BODY
 66
     1
 10
0.0
 20
0.0
 30
400.0
  0
VERTEX
  5
2F2
  8
TEAM-BODY
 10
-625.729868
 20
-9.418511
 30
400.0
 42
0.037557
  0
VERTEX
  5
2F3
  8
TEAM-BODY
 10
-605.597669
 20
-268.878771
 30
400.0
 42
0.444894
  0
VERTEX
  5
2F4
  8
TEAM-BODY
 10
-356.524935
 20
-430.854884
 30
400.0
  0
SEQEND
  5
2F5
  8
TEAM-BODY
  0
POLYLINE
  5
141
  8
TEAM-BODY
 66
     1
 10
0.0
 20
0.0
 30
600.0
 39
-30.0
  0
VERTEX
  5
2F6
  8
TEAM-BODY
 10
875.0
 20
0.0
 30
600.0
  0
VERTEX
  5
2F7
  8
TEAM-BODY
 10
875.0
 20
-300.0
 30
600.0
  0
VERTEX
  5
2F8
  8
TEAM-BODY
 10
-875.0
 20
-650.0
 30
600.0
  0
VERTEX
  5
2F9
  8
TEAM-BODY
 10
-875.0
 20
0.0
 30
600.0
  0
SEQEND
  5
2FA
  8
TEAM-BODY
  0
POLYLINE
  5
142
  8
TEAM-BODY
 66
     1
 10
0.0
 20
0.0
 30
600.0
 39
-30.0
  0
VERTEX
  5
2FB
  8
TEAM-BODY
 10
875.0
 20
0.0
 30
600.0
  0
VERTEX
  5
2FC
  8
TEAM-BODY
 10
875.0
 20
450.0
 30
600.0
  0
VERTEX
  5
2FD
  8
TEAM-BODY
 10
-875.0
 20
450.0
 30
600.0
  0
VERTEX
  5
2FE
  8
TEAM-BODY
 10
-875.0
 20
0.0
 30
600.0
  0
SEQEND
  5
2FF
  8
TEAM-BODY
  0
POLYLINE
  5
143
  8
TEAM-DET1
 66
     1
 10
0.0
 20
0.0
 30
560.0
 70
     1
  0
VERTEX
  5
300
  8
TEAM-DET1
 10
116.85465
 20
349.519204
 30
560.0
  0
VERTEX
  5
301
  8
TEAM-DET1
 10
116.534546
 20
350.418702
 30
560.0
  0
VERTEX
  5
302
  8
TEAM-DET1
 10
115.582119
 20
351.296052
 30
560.0
  0
VERTEX
  5
303
  8
TEAM-DET1
 10
114.020819
 20
352.12965
 30
560.0
  0
VERTEX
  5
304
  8
TEAM-DET1
 10
111.889091
 20
352.89897
 30
560.0
  0
VERTEX
  5
305
  8
TEAM-DET1
 10
109.239426
 20
353.585068
 30
560.0
  0
VERTEX
  5
306
  8
TEAM-DET1
 10
106.137066
 20
354.171052
 30
560.0
  0
VERTEX
  5
307
  8
TEAM-DET1
 10
102.658403
 20
354.642492
 30
560.0
  0
VERTEX
  5
308
  8
TEAM-DET1
 10
98.889091
 20
354.987779
 30
560.0
  0
VERTEX
  5
309
  8
TEAM-DET1
 10
94.921946
 20
355.198412
 30
560.0
  0
VERTEX
  5
30A
  8
TEAM-DET1
 10
90.85465
 20
355.269204
 30
560.0
  0
VERTEX
  5
30B
  8
TEAM-DET1
 10
86.787354
 20
355.198412
 30
560.0
  0
VERTEX
  5
30C
  8
TEAM-DET1
 10
82.820208
 20
354.987779
 30
560.0
  0
VERTEX
  5
30D
  8
TEAM-DET1
 10
79.050897
 20
354.642492
 30
560.0
  0
VERTEX
  5
30E
  8
TEAM-DET1
 10
75.572233
 20
354.171052
 30
560.0
  0
VERTEX
  5
30F
  8
TEAM-DET1
 10
72.469873
 20
353.585068
 30
560.0
  0
VERTEX
  5
310
  8
TEAM-DET1
 10
69.820208
 20
352.89897
 30
560.0
  0
VERTEX
  5
311
  8
TEAM-DET1
 10
67.68848
 20
352.12965
 30
560.0
  0
VERTEX
  5
312
  8
TEAM-DET1
 10
66.12718
 20
351.296052
 30
560.0
  0
VERTEX
  5
313
  8
TEAM-DET1
 10
65.174753
 20
350.418702
 30
560.0
  0
VERTEX
  5
314
  8
TEAM-DET1
 10
64.85465
 20
349.519204
 30
560.0
  0
VERTEX
  5
315
  8
TEAM-DET1
 10
65.174753
 20
348.619706
 30
560.0
  0
VERTEX
  5
316
  8
TEAM-DET1
 10
66.12718
 20
347.742357
 30
560.0
  0
VERTEX
  5
317
  8
TEAM-DET1
 10
67.68848
 20
346.908759
 30
560.0
  0
VERTEX
  5
318
  8
TEAM-DET1
 10
69.820208
 20
346.139439
 30
560.0
  0
VERTEX
  5
319
  8
TEAM-DET1
 10
72.469873
 20
345.45334
 30
560.0
  0
VERTEX
  5
31A
  8
TEAM-DET1
 10
75.572233
 20
344.867357
 30
560.0
  0
VERTEX
  5
31B
  8
TEAM-DET1
 10
79.050897
 20
344.395917
 30
560.0
  0
VERTEX
  5
31C
  8
TEAM-DET1
 10
82.820208
 20
344.050629
 30
560.0
  0
VERTEX
  5
31D
  8
TEAM-DET1
 10
86.787354
 20
343.839996
 30
560.0
  0
VERTEX
  5
31E
  8
TEAM-DET1
 10
90.85465
 20
343.769204
 30
560.0
  0
VERTEX
  5
31F
  8
TEAM-DET1
 10
94.921946
 20
343.839996
 30
560.0
  0
VERTEX
  5
320
  8
TEAM-DET1
 10
98.889091
 20
344.050629
 30
560.0
  0
VERTEX
  5
321
  8
TEAM-DET1
 10
102.658403
 20
344.395917
 30
560.0
  0
VERTEX
  5
322
  8
TEAM-DET1
 10
106.137066
 20
344.867357
 30
560.0
  0
VERTEX
  5
323
  8
TEAM-DET1
 10
109.239426
 20
345.45334
 30
560.0
  0
VERTEX
  5
324
  8
TEAM-DET1
 10
111.889091
 20
346.139439
 30
560.0
  0
VERTEX
  5
325
  8
TEAM-DET1
 10
114.020819
 20
346.908759
 30
560.0
  0
VERTEX
  5
326
  8
TEAM-DET1
 10
115.582119
 20
347.742357
 30
560.0
  0
VERTEX
  5
327
  8
TEAM-DET1
 10
116.534546
 20
348.619706
 30
560.0
  0
SEQEND
  5
328
  8
TEAM-DET1
  0
POLYLINE
  5
145
  8
TEAM-NET
 66
     1
 10
0.0
 20
0.0
 30
0.0
 70
    16
 71
     2
 72
    37
  0
VERTEX
  5
146
  8
TEAM-NET
 10
784.815829
 20
0.0
 30
600.0
 70
    64
  0
VERTEX
  5
147
  8
TEAM-NET
 10
787.948415
 20
-60.155885
 30
600.0
 70
    64
  0
VERTEX
  5
148
  8
TEAM-NET
 10
791.081002
 20
-120.311771
 30
600.0
 70
    64
  0
VERTEX
  5
149
  8
TEAM-NET
 10
792.065158
 20
-180.336937
 30
600.0
 70
    64
  0
VERTEX
  5
14A
  8
TEAM-NET
 10
764.395846
 20
-232.820762
 30
600.0
 70
    64
  0
VERTEX
  5
14B
  8
TEAM-NET
 10
711.777766
 20
-259.98836
 30
600.0
 70
    64
  0
VERTEX
  5
14C
  8
TEAM-NET
 10
652.400456
 20
-270.131275
 30
600.0
 70
    64
  0
VERTEX
  5
14D
  8
TEAM-NET
 10
593.023147
 20
-280.27419
 30
600.0
 70
    64
  0
VERTEX
  5
14E
  8
TEAM-NET
 10
533.645837
 20
-290.417105
 30
600.0
 70
    64
  0
VERTEX
  5
14F
  8
TEAM-NET
 10
474.268527
 20
-300.560019
 30
600.0
 70
    64
  0
VERTEX
  5
150
  8
TEAM-NET
 10
414.891217
 20
-310.702934
 30
600.0
 70
    64
  0
VERTEX
  5
151
  8
TEAM-NET
 10
355.513907
 20
-320.845849
 30
600.0
 70
    64
  0
VERTEX
  5
152
  8
TEAM-NET
 10
296.136598
 20
-330.988763
 30
600.0
 70
    64
  0
VERTEX
  5
153
  8
TEAM-NET
 10
236.759288
 20
-341.131678
 30
600.0
 70
    64
  0
VERTEX
  5
154
  8
TEAM-NET
 10
177.381978
 20
-351.274593
 30
600.0
 70
    64
  0
VERTEX
  5
155
  8
TEAM-NET
 10
118.004668
 20
-361.417508
 30
600.0
 70
    64
  0
VERTEX
  5
156
  8
TEAM-NET
 10
58.627358
 20
-371.560422
 30
600.0
 70
    64
  0
VERTEX
  5
157
  8
TEAM-NET
 10
-0.749952
 20
-381.703337
 30
600.0
 70
    64
  0
VERTEX
  5
158
  8
TEAM-NET
 10
-60.127261
 20
-391.846252
 30
600.0
 70
    64
  0
VERTEX
  5
159
  8
TEAM-NET
 10
-119.504571
 20
-401.989167
 30
600.0
 70
    64
  0
VERTEX
  5
15A
  8
TEAM-NET
 10
-178.881881
 20
-412.132081
 30
600.0
 70
    64
  0
VERTEX
  5
15B
  8
TEAM-NET
 10
-238.259191
 20
-422.274996
 30
600.0
 70
    64
  0
VERTEX
  5
15C
  8
TEAM-NET
 10
-297.636501
 20
-432.417911
 30
600.0
 70
    64
  0
VERTEX
  5
15D
  8
TEAM-NET
 10
-357.01381
 20
-442.560825
 30
600.0
 70
    64
  0
VERTEX
  5
15E
  8
TEAM-NET
 10
-416.39112
 20
-452.70374
 30
600.0
 70
    64
  0
VERTEX
  5
15F
  8
TEAM-NET
 10
-475.76843
 20
-462.846655
 30
600.0
 70
    64
  0
VERTEX
  5
160
  8
TEAM-NET
 10
-535.111708
 20
-472.848985
 30
600.0
 70
    64
  0
VERTEX
  5
161
  8
TEAM-NET
 10
-594.930575
 20
-468.063615
 30
600.0
 70
    64
  0
VERTEX
  5
162
  8
TEAM-NET
 10
-650.637099
 20
-445.748156
 30
600.0
 70
    64
  0
VERTEX
  5
163
  8
TEAM-NET
 10
-697.216027
 20
-407.911665
 30
600.0
 70
    64
  0
VERTEX
  5
164
  8
TEAM-NET
 10
-730.473863
 20
-357.960559
 30
600.0
 70
    64
  0
VERTEX
  5
165
  8
TEAM-NET
 10
-747.348946
 20
-300.382458
 30
600.0
 70
    64
  0
VERTEX
  5
166
  8
TEAM-NET
 10
-754.314751
 20
-240.551025
 30
600.0
 70
    64
  0
VERTEX
  5
167
  8
TEAM-NET
 10
-759.661049
 20
-180.553193
 30
600.0
 70
    64
  0
VERTEX
  5
168
  8
TEAM-NET
 10
-763.383935
 20
-120.43279
 30
600.0
 70
    64
  0
VERTEX
  5
169
  8
TEAM-NET
 10
-765.480691
 20
-60.233734
 30
600.0
 70
    64
  0
VERTEX
  5
16A
  8
TEAM-NET
 10
-765.949784
 20
0.0
 30
600.0
 70
    64
  0
VERTEX
  5
16B
  8
TEAM-NET
 10
875.0
 20
0.0
 30
600.0
 70
    64
  0
VERTEX
  5
16C
  8
TEAM-NET
 10
875.0
 20
-75.96269
 30
600.0
 70
    64
  0
VERTEX
  5
16D
  8
TEAM-NET
 10
875.0
 20
-151.925379
 30
600.0
 70
    64
  0
VERTEX
  5
16E
  8
TEAM-NET
 10
875.0
 20
-227.888069
 30
600.0
 70
    64
  0
VERTEX
  5
16F
  8
TEAM-NET
 10
871.22402
 20
-300.755196
 30
600.0
 70
    64
  0
VERTEX
  5
170
  8
TEAM-NET
 10
796.736475
 20
-315.652705
 30
600.0
 70
    64
  0
VERTEX
  5
171
  8
TEAM-NET
 10
722.248929
 20
-330.550214
 30
600.0
 70
    64
  0
VERTEX
  5
172
  8
TEAM-NET
 10
647.761383
 20
-345.447723
 30
600.0
 70
    64
  0
VERTEX
  5
173
  8
TEAM-NET
 10
573.273838
 20
-360.345232
 30
600.0
 70
    64
  0
VERTEX
  5
174
  8
TEAM-NET
 10
498.786292
 20
-375.242742
 30
600.0
 70
    64
  0
VERTEX
  5
175
  8
TEAM-NET
 10
424.298747
 20
-390.140251
 30
600.0
 70
    64
  0
VERTEX
  5
176
  8
TEAM-NET
 10
349.811201
 20
-405.03776
 30
600.0
 70
    64
  0
VERTEX
  5
177
  8
TEAM-NET
 10
275.323655
 20
-419.935269
 30
600.0
 70
    64
  0
VERTEX
  5
178
  8
TEAM-NET
 10
200.83611
 20
-434.832778
 30
600.0
 70
    64
  0
VERTEX
  5
179
  8
TEAM-NET
 10
126.348564
 20
-449.730287
 30
600.0
 70
    64
  0
VERTEX
  5
17A
  8
TEAM-NET
 10
51.861019
 20
-464.627796
 30
600.0
 70
    64
  0
VERTEX
  5
17B
  8
TEAM-NET
 10
-22.626527
 20
-479.525305
 30
600.0
 70
    64
  0
VERTEX
  5
17C
  8
TEAM-NET
 10
-97.114073
 20
-494.422815
 30
600.0
 70
    64
  0
VERTEX
  5
17D
  8
TEAM-NET
 10
-171.601618
 20
-509.320324
 30
600.0
 70
    64
  0
VERTEX
  5
17E
  8
TEAM-NET
 10
-246.089164
 20
-524.217833
 30
600.0
 70
    64
  0
VERTEX
  5
17F
  8
TEAM-NET
 10
-320.576709
 20
-539.115342
 30
600.0
 70
    64
  0
VERTEX
  5
180
  8
TEAM-NET
 10
-395.064255
 20
-554.012851
 30
600.0
 70
    64
  0
VERTEX
  5
181
  8
TEAM-NET
 10
-469.551801
 20
-568.91036
 30
600.0
 70
    64
  0
VERTEX
  5
182
  8
TEAM-NET
 10
-544.039346
 20
-583.807869
 30
600.0
 70
    64
  0
VERTEX
  5
183
  8
TEAM-NET
 10
-618.526892
 20
-598.705378
 30
600.0
 70
    64
  0
VERTEX
  5
184
  8
TEAM-NET
 10
-693.014438
 20
-613.602888
 30
600.0
 70
    64
  0
VERTEX
  5
185
  8
TEAM-NET
 10
-767.501983
 20
-628.500397
 30
600.0
 70
    64
  0
VERTEX
  5
186
  8
TEAM-NET
 10
-841.989529
 20
-643.397906
 30
600.0
 70
    64
  0
VERTEX
  5
187
  8
TEAM-NET
 10
-875.0
 20
-607.701518
 30
600.0
 70
    64
  0
VERTEX
  5
188
  8
TEAM-NET
 10
-875.0
 20
-531.738828
 30
600.0
 70
    64
  0
VERTEX
  5
189
  8
TEAM-NET
 10
-875.0
 20
-455.776138
 30
600.0
 70
    64
  0
VERTEX
  5
18A
  8
TEAM-NET
 10
-875.0
 20
-379.813449
 30
600.0
 70
    64
  0
VERTEX
  5
18B
  8
TEAM-NET
 10
-875.0
 20
-303.850759
 30
600.0
 70
    64
  0
VERTEX
  5
18C
  8
TEAM-NET
 10
-875.0
 20
-227.888069
 30
600.0
 70
    64
  0
VERTEX
  5
18D
  8
TEAM-NET
 10
-875.0
 20
-151.925379
 30
600.0
 70
    64
  0
VERTEX
  5
18E
  8
TEAM-NET
 10
-875.0
 20
-75.96269
 30
600.0
 70
    64
  0
VERTEX
  5
18F
  8
TEAM-NET
 10
-875.0
 20
0.0
 30
600.0
 70
    64
  0
SEQEND
  5
190
  8
TEAM-NET
  0
POLYLINE
  5
191
  8
TEAM-BODY
 66
     1
 10
0.0
 20
0.0
 30
600.0
  0
VERTEX
  5
329
  8
TEAM-BODY
 10
784.815829
 20
0.0
 30
600.0
  0
VERTEX
  5
32A
  8
TEAM-BODY
 10
792.40064
 20
-145.653136
 30
600.0
 42
-0.386377
  0
VERTEX
  5
32B
  8
TEAM-BODY
 10
719.519101
 20
-258.665975
 30
600.0
  0
VERTEX
  5
32C
  8
TEAM-BODY
 10
-497.720533
 20
-466.596544
 30
600.0
 42
-0.444894
  0
VERTEX
  5
32D
  8
TEAM-BODY
 10
-746.793268
 20
-304.620431
 30
600.0
 42
-0.034279
  0
VERTEX
  5
32E
  8
TEAM-BODY
 10
-765.949784
 20
0.0
 30
600.0
  0
SEQEND
  5
32F
  8
TEAM-BODY
  0
POLYLINE
  5
192
  8
TEAM-BODY
 66
     1
 10
0.0
 20
0.0
 30
600.0
  0
VERTEX
  5
330
  8
TEAM-BODY
 10
-765.949784
 20
0.0
 30
600.0
 42
-0.016447
  0
VERTEX
  5
331
  8
TEAM-BODY
 10
-758.776459
 20
189.202696
 30
600.0
 42
-0.386321
  0
VERTEX
  5
332
  8
TEAM-BODY
 10
-559.700452
 20
370.0
 30
600.0
  0
VERTEX
  5
333
  8
TEAM-BODY
 10
646.894301
 20
370.0
 30
600.0
 42
-0.366775
  0
VERTEX
  5
334
  8
TEAM-BODY
 10
745.542105
 20
286.389345
 30
600.0
  0
VERTEX
  5
335
  8
TEAM-BODY
 10
784.815829
 20
0.0
 30
600.0
  0
SEQEND
  5
336
  8
TEAM-BODY
  0
POLYLINE
  5
193
  8
TEAM-NET
 66
     1
 10
0.0
 20
0.0
 30
0.0
 70
    16
 71
     2
 72
    37
  0
VERTEX
  5
194
  8
TEAM-NET
 10
-875.0
 20
0.0
 30
600.0
 70
    64
  0
VERTEX
  5
195
  8
TEAM-NET
 10
-875.0
 20
73.611111
 30
600.0
 70
    64
  0
VERTEX
  5
196
  8
TEAM-NET
 10
-875.0
 20
147.222222
 30
600.0
 70
    64
  0
VERTEX
  5
197
  8
TEAM-NET
 10
-875.0
 20
220.833333
 30
600.0
 70
    64
  0
VERTEX
  5
198
  8
TEAM-NET
 10
-875.0
 20
294.444444
 30
600.0
 70
    64
  0
VERTEX
  5
199
  8
TEAM-NET
 10
-875.0
 20
368.055556
 30
600.0
 70
    64
  0
VERTEX
  5
19A
  8
TEAM-NET
 10
-875.0
 20
441.666667
 30
600.0
 70
    64
  0
VERTEX
  5
19B
  8
TEAM-NET
 10
-809.722222
 20
450.0
 30
600.0
 70
    64
  0
VERTEX
  5
19C
  8
TEAM-NET
 10
-736.111111
 20
450.0
 30
600.0
 70
    64
  0
VERTEX
  5
19D
  8
TEAM-NET
 10
-662.5
 20
450.0
 30
600.0
 70
    64
  0
VERTEX
  5
19E
  8
TEAM-NET
 10
-588.888889
 20
450.0
 30
600.0
 70
    64
  0
VERTEX
  5
19F
  8
TEAM-NET
 10
-515.277778
 20
450.0
 30
600.0
 70
    64
  0
VERTEX
  5
1A0
  8
TEAM-NET
 10
-441.666667
 20
450.0
 30
600.0
 70
    64
  0
VERTEX
  5
1A1
  8
TEAM-NET
 10
-368.055556
 20
450.0
 30
600.0
 70
    64
  0
VERTEX
  5
1A2
  8
TEAM-NET
 10
-294.444444
 20
450.0
 30
600.0
 70
    64
  0
VERTEX
  5
1A3
  8
TEAM-NET
 10
-220.833333
 20
450.0
 30
600.0
 70
    64
  0
VERTEX
  5
1A4
  8
TEAM-NET
 10
-147.222222
 20
450.0
 30
600.0
 70
    64
  0
VERTEX
  5
1A5
  8
TEAM-NET
 10
-73.611111
 20
450.0
 30
600.0
 70
    64
  0
VERTEX
  5
1A6
  8
TEAM-NET
 10
0.0
 20
450.0
 30
600.0
 70
    64
  0
VERTEX
  5
1A7
  8
TEAM-NET
 10
73.611111
 20
450.0
 30
600.0
 70
    64
  0
VERTEX
  5
1A8
  8
TEAM-NET
 10
147.222222
 20
450.0
 30
600.0
 70
    64
  0
VERTEX
  5
1A9
  8
TEAM-NET
 10
220.833333
 20
450.0
 30
600.0
 70
    64
  0
VERTEX
  5
1AA
  8
TEAM-NET
 10
294.444444
 20
450.0
 30
600.0
 70
    64
  0
VERTEX
  5
1AB
  8
TEAM-NET
 10
368.055556
 20
450.0
 30
600.0
 70
    64
  0
VERTEX
  5
1AC
  8
TEAM-NET
 10
441.666667
 20
450.0
 30
600.0
 70
    64
  0
VERTEX
  5
1AD
  8
TEAM-NET
 10
515.277778
 20
450.0
 30
600.0
 70
    64
  0
VERTEX
  5
1AE
  8
TEAM-NET
 10
588.888889
 20
450.0
 30
600.0
 70
    64
  0
VERTEX
  5
1AF
  8
TEAM-NET
 10
662.5
 20
450.0
 30
600.0
 70
    64
  0
VERTEX
  5
1B0
  8
TEAM-NET
 10
736.111111
 20
450.0
 30
600.0
 70
    64
  0
VERTEX
  5
1B1
  8
TEAM-NET
 10
809.722222
 20
450.0
 30
600.0
 70
    64
  0
VERTEX
  5
1B2
  8
TEAM-NET
 10
875.0
 20
441.666667
 30
600.0
 70
    64
  0
VERTEX
  5
1B3
  8
TEAM-NET
 10
875.0
 20
368.055556
 30
600.0
 70
    64
  0
VERTEX
  5
1B4
  8
TEAM-NET
 10
875.0
 20
294.444444
 30
600.0
 70
    64
  0
VERTEX
  5
1B5
  8
TEAM-NET
 10
875.0
 20
220.833333
 30
600.0
 70
    64
  0
VERTEX
  5
1B6
  8
TEAM-NET
 10
875.0
 20
147.222222
 30
600.0
 70
    64
  0
VERTEX
  5
1B7
  8
TEAM-NET
 10
875.0
 20
73.611111
 30
600.0
 70
    64
  0
VERTEX
  5
1B8
  8
TEAM-NET
 10
875.0
 20
0.0
 30
600.0
 70
    64
  0
VERTEX
  5
1B9
  8
TEAM-NET
 10
-765.949784
 20
0.0
 30
600.0
 70
    64
  0
VERTEX
  5
1BA
  8
TEAM-NET
 10
-765.052442
 20
58.897142
 30
600.0
 70
    64
  0
VERTEX
  5
1BB
  8
TEAM-NET
 10
-762.950206
 20
117.763593
 30
600.0
 70
    64
  0
VERTEX
  5
1BC
  8
TEAM-NET
 10
-759.643956
 20
176.574708
 30
600.0
 70
    64
  0
VERTEX
  5
1BD
  8
TEAM-NET
 10
-749.076922
 20
234.316035
 30
600.0
 70
    64
  0
VERTEX
  5
1BE
  8
TEAM-NET
 10
-722.252393
 20
286.519812
 30
600.0
 70
    64
  0
VERTEX
  5
1BF
  8
TEAM-NET
 10
-681.428932
 20
328.688932
 30
600.0
 70
    64
  0
VERTEX
  5
1C0
  8
TEAM-NET
 10
-630.122246
 20
357.191803
 30
600.0
 70
    64
  0
VERTEX
  5
1C1
  8
TEAM-NET
 10
-572.750853
 20
369.573763
 30
600.0
 70
    64
  0
VERTEX
  5
1C2
  8
TEAM-NET
 10
-513.855127
 20
370.0
 30
600.0
 70
    64
  0
VERTEX
  5
1C3
  8
TEAM-NET
 10
-454.950122
 20
370.0
 30
600.0
 70
    64
  0
VERTEX
  5
1C4
  8
TEAM-NET
 10
-396.045118
 20
370.0
 30
600.0
 70
    64
  0
VERTEX
  5
1C5
  8
TEAM-NET
 10
-337.140113
 20
370.0
 30
600.0
 70
    64
  0
VERTEX
  5
1C6
  8
TEAM-NET
 10
-278.235108
 20
370.0
 30
600.0
 70
    64
  0
VERTEX
  5
1C7
  8
TEAM-NET
 10
-219.330104
 20
370.0
 30
600.0
 70
    64
  0
VERTEX
  5
1C8
  8
TEAM-NET
 10
-160.425099
 20
370.0
 30
600.0
 70
    64
  0
VERTEX
  5
1C9
  8
TEAM-NET
 10
-101.520094
 20
370.0
 30
600.0
 70
    64
  0
VERTEX
  5
1CA
  8
TEAM-NET
 10
-42.61509
 20
370.0
 30
600.0
 70
    64
  0
VERTEX
  5
1CB
  8
TEAM-NET
 10
16.289915
 20
370.0
 30
600.0
 70
    64
  0
VERTEX
  5
1CC
  8
TEAM-NET
 10
75.194919
 20
370.0
 30
600.0
 70
    64
  0
VERTEX
  5
1CD
  8
TEAM-NET
 10
134.099924
 20
370.0
 30
600.0
 70
    64
  0
VERTEX
  5
1CE
  8
TEAM-NET
 10
193.004929
 20
370.0
 30
600.0
 70
    64
  0
VERTEX
  5
1CF
  8
TEAM-NET
 10
251.909933
 20
370.0
 30
600.0
 70
    64
  0
VERTEX
  5
1D0
  8
TEAM-NET
 10
310.814938
 20
370.0
 30
600.0
 70
    64
  0
VERTEX
  5
1D1
  8
TEAM-NET
 10
369.719943
 20
370.0
 30
600.0
 70
    64
  0
VERTEX
  5
1D2
  8
TEAM-NET
 10
428.624947
 20
370.0
 30
600.0
 70
    64
  0
VERTEX
  5
1D3
  8
TEAM-NET
 10
487.529952
 20
370.0
 30
600.0
 70
    64
  0
VERTEX
  5
1D4
  8
TEAM-NET
 10
546.434957
 20
370.0
 30
600.0
 70
    64
  0
VERTEX
  5
1D5
  8
TEAM-NET
 10
605.339961
 20
370.0
 30
600.0
 70
    64
  0
VERTEX
  5
1D6
  8
TEAM-NET
 10
664.158041
 20
368.498544
 30
600.0
 70
    64
  0
VERTEX
  5
1D7
  8
TEAM-NET
 10
715.971539
 20
342.307228
 30
600.0
 70
    64
  0
VERTEX
  5
1D8
  8
TEAM-NET
 10
744.501699
 20
291.743866
 30
600.0
 70
    64
  0
VERTEX
  5
1D9
  8
TEAM-NET
 10
752.803909
 20
233.43528
 30
600.0
 70
    64
  0
VERTEX
  5
1DA
  8
TEAM-NET
 10
760.806889
 20
175.07646
 30
600.0
 70
    64
  0
VERTEX
  5
1DB
  8
TEAM-NET
 10
768.809869
 20
116.71764
 30
600.0
 70
    64
  0
VERTEX
  5
1DC
  8
TEAM-NET
 10
776.812849
 20
58.35882
 30
600.0
 70
    64
  0
VERTEX
  5
1DD
  8
TEAM-NET
 10
784.815829
 20
0.0
 30
600.0
 70
    64
  0
SEQEND
  5
1DE
  8
TEAM-NET
  0
LINE
  5
1DF
  8
TEAM-BODY
 10
-875.0
 20
370.0
 30
600.0
 11
-440.0
 21
370.0
 31
600.0
  0
TEXT
  5
1E0
  8
TEAM-TXT
 10
-383.306333
 20
292.12799
 30
602.0
 40
30.0
  1
team 121079
 41
0.8
 51
15.0
  7
TEAM
  0
ENDSEC
  0
EOF
