  0
SECTION
  2
HEADER
  9
$ACADVER
  1
AC1009
  9
$INSBASE
 10
0.0
 20
0.0
 30
0.0
  9
$EXTMIN
 10
-990.09564
 20
-464.276953
 30
-0.012586
  9
$EXTMAX
 10
996.336845
 20
464.285433
 30
580.009408
  9
$LIMMIN
 10
-990.09564
 20
-464.276953
  9
$LIMMAX
 10
996.336845
 20
464.285433
  9
$ORTHOMODE
 70
     1
  9
$REGENMODE
 70
     1
  9
$FILLMODE
 70
     1
  9
$QTEXTMODE
 70
     0
  9
$MIRRTEXT
 70
     0
  9
$DRAGMODE
 70
     2
  9
$LTSCALE
 40
25.0
  9
$OSMODE
 70
     0
  9
$ATTMODE
 70
     1
  9
$TEXTSIZE
 40
200.0
  9
$TRACEWID
 40
1.0
  9
$TEXTSTYLE
  7
STANDARD
  9
$CLAYER
  8
TEAM-MAS
  9
$CELTYPE
  6
BYLAYER
  9
$CECOLOR
 62
   256
  9
$DIMSCALE
 40
0.0
  9
$DIMASZ
 40
20.0
  9
$DIMEXO
 40
10.0
  9
$DIMDLI
 40
1.0
  9
$DIMRND
 40
0.0
  9
$DIMDLE
 40
0.0
  9
$DIMEXE
 40
1.0
  9
$DIMTP
 40
0.0
  9
$DIMTM
 40
0.0
  9
$DIMTXT
 40
35.0
  9
$DIMCEN
 40
1.0
  9
$DIMTSZ
 40
0.0
  9
$DIMTOL
 70
     0
  9
$DIMLIM
 70
     0
  9
$DIMTIH
 70
     0
  9
$DIMTOH
 70
     0
  9
$DIMSE1
 70
     0
  9
$DIMSE2
 70
     0
  9
$DIMTAD
 70
     0
  9
$DIMZIN
 70
     0
  9
$DIMBLK
  1

  9
$DIMASO
 70
     1
  9
$DIMSHO
 70
     0
  9
$DIMPOST
  1

  9
$DIMAPOST
  1

  9
$DIMALT
 70
     0
  9
$DIMALTD
 70
     2
  9
$DIMALTF
 40
25.4
  9
$DIMLFAC
 40
1.0
  9
$DIMTOFL
 70
     0
  9
$DIMTVP
 40
0.0
  9
$DIMTIX
 70
     0
  9
$DIMSOXD
 70
     0
  9
$DIMSAH
 70
     0
  9
$DIMBLK1
  1

  9
$DIMBLK2
  1

  9
$DIMSTYLE
  2
TEAM
  9
$DIMCLRD
 70
     9
  9
$DIMCLRE
 70
     9
  9
$DIMCLRT
 70
    11
  9
$DIMTFAC
 40
1.0
  9
$DIMGAP
 40
15.0
  9
$LUNITS
 70
     2
  9
$LUPREC
 70
     1
  9
$SKETCHINC
 40
1.0
  9
$FILLETRAD
 40
50.0
  9
$AUNITS
 70
     0
  9
$AUPREC
 70
     0
  9
$MENU
  1
ROPLANS
  9
$ELEVATION
 40
0.0
  9
$PELEVATION
 40
0.0
  9
$THICKNESS
 40
0.0
  9
$LIMCHECK
 70
     0
  9
$BLIPMODE
 70
     1
  9
$CHAMFERA
 40
0.0
  9
$CHAMFERB
 40
0.0
  9
$SKPOLY
 70
     0
  9
$TDCREATE
 40
2450392.957851
  9
$TDUPDATE
 40
2455493.945579
  9
$TDINDWG
 40
1.992456
  9
$TDUSRTIMER
 40
1.992456
  9
$USRTIMER
 70
     1
  9
$ANGBASE
 50
0.0
  9
$ANGDIR
 70
     0
  9
$PDMODE
 70
     0
  9
$PDSIZE
 40
0.0
  9
$PLINEWID
 40
0.0
  9
$COORDS
 70
     2
  9
$SPLFRAME
 70
     0
  9
$SPLINETYPE
 70
     6
  9
$SPLINESEGS
 70
     8
  9
$ATTDIA
 70
     0
  9
$ATTREQ
 70
     0
  9
$HANDLING
 70
     1
  9
$HANDSEED
  5
603
  9
$SURFTAB1
 70
    24
  9
$SURFTAB2
 70
    24
  9
$SURFTYPE
 70
     6
  9
$SURFU
 70
     6
  9
$SURFV
 70
     6
  9
$UCSNAME
  2

  9
$UCSORG
 10
0.0
 20
0.0
 30
0.0
  9
$UCSXDIR
 10
1.0
 20
0.0
 30
0.0
  9
$UCSYDIR
 10
0.0
 20
1.0
 30
0.0
  9
$PUCSNAME
  2

  9
$PUCSORG
 10
0.0
 20
0.0
 30
0.0
  9
$PUCSXDIR
 10
1.0
 20
0.0
 30
0.0
  9
$PUCSYDIR
 10
0.0
 20
1.0
 30
0.0
  9
$USERI1
 70
     0
  9
$USERI2
 70
     0
  9
$USERI3
 70
     0
  9
$USERI4
 70
     0
  9
$USERI5
 70
     0
  9
$USERR1
 40
0.0
  9
$USERR2
 40
0.0
  9
$USERR3
 40
0.0
  9
$USERR4
 40
0.0
  9
$USERR5
 40
0.0
  9
$WORLDVIEW
 70
     1
  9
$SHADEDGE
 70
     0
  9
$SHADEDIF
 70
    70
  9
$TILEMODE
 70
     1
  9
$MAXACTVP
 70
    16
  9
$PLIMCHECK
 70
     0
  9
$PEXTMIN
 10
-0.805942
 20
0.005011
 30
0.0
  9
$PEXTMAX
 10
20.250094
 20
11.356329
 30
0.0
  9
$PLIMMIN
 10
0.0
 20
0.0
  9
$PLIMMAX
 10
12.0
 20
9.0
  9
$UNITMODE
 70
     0
  9
$VISRETAIN
 70
     0
  9
$PLINEGEN
 70
     0
  9
$PSLTSCALE
 70
     0
  0
ENDSEC
  0
SECTION
  2
TABLES
  0
TABLE
  2
VPORT
 70
     2
  0
VPORT
  2
*ACTIVE
 70
     0
 10
0.0
 20
0.0
 11
1.0
 21
1.0
 12
3.120602
 22
0.00424
 13
0.0
 23
0.0
 14
1.0
 24
1.0
 15
50.0
 25
50.0
 16
0.0
 26
0.0
 36
1.0
 17
0.0
 27
0.0
 37
0.0
 40
1068.171097
 41
1.865779
 42
50.0
 43
0.0
 44
0.0
 50
0.0
 51
0.0
 71
     0
 72
   100
 73
     1
 74
     1
 75
     0
 76
     0
 77
     0
 78
     0
  0
ENDTAB
  0
TABLE
  2
LTYPE
 70
     2
  0
LTYPE
  2
CONTINUOUS
 70
     0
  3
Solid Line
 72
    65
 73
     0
 40
0.0
  0
LTYPE
  2
31
 70
     0
  3

 72
    65
 73
     4
 40
2.1
 49
1.5
 49
-0.3
 49
0.0
 49
-0.3
  0
ENDTAB
  0
TABLE
  2
LAYER
 70
     9
  0
LAYER
  2
0
 70
     0
 62
     7
  6
CONTINUOUS
  0
LAYER
  2
TEAM-BODY
 70
     0
 62
     2
  6
CONTINUOUS
  0
LAYER
  2
TEAM-AXE
 70
     0
 62
    10
  6
31
  0
LAYER
  2
TEAM-MAS
 70
     0
 62
     9
  6
CONTINUOUS
  0
LAYER
  2
TEAM-TXT
 70
     0
 62
    11
  6
CONTINUOUS
  0
LAYER
  2
TEAM-DET1
 70
     0
 62
     4
  6
CONTINUOUS
  0
LAYER
  2
TEAM-KAN
 70
     0
 62
     6
  6
CONTINUOUS
  0
LAYER
  2
TEAM-NET
 70
     0
 62
    15
  6
CONTINUOUS
  0
LAYER
  2
TEAM-INSP
 70
     0
 62
     5
  6
CONTINUOUS
  0
ENDTAB
  0
TABLE
  2
STYLE
 70
     2
  0
STYLE
  2
STANDARD
 70
     0
 40
0.0
 41
1.0
 50
0.0
 71
     0
 42
200.0
  3
txt
  4

  0
STYLE
  2
TEAM
 70
     0
 40
0.0
 41
0.8
 50
15.0
 71
     0
 42
7.0
  3
ROMANS.shx
  4

  0
ENDTAB
  0
TABLE
  2
VIEW
 70
     0
  0
ENDTAB
  0
TABLE
  2
UCS
 70
     0
  0
ENDTAB
  0
TABLE
  2
APPID
 70
     1
  0
APPID
  2
ACAD
 70
     0
  0
ENDTAB
  0
TABLE
  2
DIMSTYLE
 70
     1
  0
DIMSTYLE
  2
TEAM
 70
     0
  3

  4

  5

  6

  7

 40
0.0
 41
20.0
 42
10.0
 43
1.0
 44
1.0
 45
0.0
 46
0.0
 47
0.0
 48
0.0
140
35.0
141
1.0
142
0.0
143
25.4
144
1.0
145
0.0
146
1.0
147
15.0
 71
     0
 72
     0
 73
     0
 74
     0
 75
     0
 76
     0
 77
     0
 78
     0
170
     0
171
     2
172
     0
173
     0
174
     0
175
     0
176
     9
177
     9
178
    11
  0
ENDTAB
  0
ENDSEC
  0
SECTION
  2
BLOCKS
  0
BLOCK
  8
0
  2
$MODEL_SPACE
 70
     0
 10
0.0
 20
0.0
 30
0.0
  3
$MODEL_SPACE
  1

  0
ENDBLK
  5
574
  8
0
  0
BLOCK
 67
     1
  8
0
  2
$PAPER_SPACE
 70
     0
 10
0.0
 20
0.0
 30
0.0
  3
$PAPER_SPACE
  1

  0
ENDBLK
  5
572
 67
     1
  8
0
  0
ENDSEC
  0
SECTION
  2
ENTITIES
  0
POLYLINE
  5
20
  8
TEAM-NET
 66
     1
 10
0.0
 20
0.0
 30
0.0
 70
    16
 71
     2
 72
    37
  0
VERTEX
  5
21
  8
TEAM-NET
 10
593.471267
 20
-7.778717
 30
70.0
 70
    64
  0
VERTEX
  5
22
  8
TEAM-NET
 10
591.148623
 20
32.179166
 30
70.0
 70
    64
  0
VERTEX
  5
23
  8
TEAM-NET
 10
581.739169
 20
71.082755
 30
70.0
 70
    64
  0
VERTEX
  5
24
  8
TEAM-NET
 10
565.544416
 20
107.685447
 30
70.0
 70
    64
  0
VERTEX
  5
25
  8
TEAM-NET
 10
543.083301
 20
140.814367
 30
70.0
 70
    64
  0
VERTEX
  5
26
  8
TEAM-NET
 10
515.075552
 20
169.407952
 30
70.0
 70
    64
  0
VERTEX
  5
27
  8
TEAM-NET
 10
482.418635
 20
192.549966
 30
70.0
 70
    64
  0
VERTEX
  5
28
  8
TEAM-NET
 10
446.158987
 20
209.498859
 30
70.0
 70
    64
  0
VERTEX
  5
29
  8
TEAM-NET
 10
407.458491
 20
219.711533
 30
70.0
 70
    64
  0
VERTEX
  5
2A
  8
TEAM-NET
 10
367.506379
 20
221.500003
 30
70.0
 70
    64
  0
VERTEX
  5
2B
  8
TEAM-NET
 10
327.427416
 20
221.500003
 30
70.0
 70
    64
  0
VERTEX
  5
2C
  8
TEAM-NET
 10
287.348452
 20
221.500003
 30
70.0
 70
    64
  0
VERTEX
  5
2D
  8
TEAM-NET
 10
247.269489
 20
221.500003
 30
70.0
 70
    64
  0
VERTEX
  5
2E
  8
TEAM-NET
 10
207.190526
 20
221.500003
 30
70.0
 70
    64
  0
VERTEX
  5
2F
  8
TEAM-NET
 10
167.111563
 20
221.500003
 30
70.0
 70
    64
  0
VERTEX
  5
30
  8
TEAM-NET
 10
127.032599
 20
221.500003
 30
70.0
 70
    64
  0
VERTEX
  5
31
  8
TEAM-NET
 10
86.953636
 20
221.500003
 30
70.0
 70
    64
  0
VERTEX
  5
32
  8
TEAM-NET
 10
46.874673
 20
221.500003
 30
70.0
 70
    64
  0
VERTEX
  5
33
  8
TEAM-NET
 10
6.795709
 20
221.500003
 30
70.0
 70
    64
  0
VERTEX
  5
34
  8
TEAM-NET
 10
-33.283254
 20
221.500003
 30
70.0
 70
    64
  0
VERTEX
  5
35
  8
TEAM-NET
 10
-73.362217
 20
221.500003
 30
70.0
 70
    64
  0
VERTEX
  5
36
  8
TEAM-NET
 10
-113.441181
 20
221.500003
 30
70.0
 70
    64
  0
VERTEX
  5
37
  8
TEAM-NET
 10
-153.520144
 20
221.500003
 30
70.0
 70
    64
  0
VERTEX
  5
38
  8
TEAM-NET
 10
-193.599107
 20
221.500003
 30
70.0
 70
    64
  0
VERTEX
  5
39
  8
TEAM-NET
 10
-233.678071
 20
221.500003
 30
70.0
 70
    64
  0
VERTEX
  5
3A
  8
TEAM-NET
 10
-273.757034
 20
221.500003
 30
70.0
 70
    64
  0
VERTEX
  5
3B
  8
TEAM-NET
 10
-313.835997
 20
221.500003
 30
70.0
 70
    64
  0
VERTEX
  5
3C
  8
TEAM-NET
 10
-353.914961
 20
221.500003
 30
70.0
 70
    64
  0
VERTEX
  5
3D
  8
TEAM-NET
 10
-393.993924
 20
221.500003
 30
70.0
 70
    64
  0
VERTEX
  5
3E
  8
TEAM-NET
 10
-433.388859
 20
214.515941
 30
70.0
 70
    64
  0
VERTEX
  5
3F
  8
TEAM-NET
 10
-470.713835
 20
200.085283
 30
70.0
 70
    64
  0
VERTEX
  5
40
  8
TEAM-NET
 10
-504.600494
 20
178.799325
 30
70.0
 70
    64
  0
VERTEX
  5
41
  8
TEAM-NET
 10
-533.804227
 20
151.439871
 30
70.0
 70
    64
  0
VERTEX
  5
42
  8
TEAM-NET
 10
-557.25242
 20
119.011797
 30
70.0
 70
    64
  0
VERTEX
  5
43
  8
TEAM-NET
 10
-574.083852
 20
82.706142
 30
70.0
 70
    64
  0
VERTEX
  5
44
  8
TEAM-NET
 10
-583.680329
 20
43.856362
 30
70.0
 70
    64
  0
VERTEX
  5
45
  8
TEAM-NET
 10
-585.689384
 20
3.889358
 30
70.0
 70
    64
  0
VERTEX
  5
46
  8
TEAM-NET
 10
917.236259
 20
3.889066
 30
580.0
 70
    64
  0
VERTEX
  5
47
  8
TEAM-NET
 10
911.691159
 20
66.788439
 30
580.0
 70
    64
  0
VERTEX
  5
48
  8
TEAM-NET
 10
896.052339
 20
127.964469
 30
580.0
 70
    64
  0
VERTEX
  5
49
  8
TEAM-NET
 10
870.731072
 20
185.808333
 30
580.0
 70
    64
  0
VERTEX
  5
4A
  8
TEAM-NET
 10
836.393262
 20
238.798842
 30
580.0
 70
    64
  0
VERTEX
  5
4B
  8
TEAM-NET
 10
793.941932
 20
285.542439
 30
580.0
 70
    64
  0
VERTEX
  5
4C
  8
TEAM-NET
 10
744.493477
 20
324.809851
 30
580.0
 70
    64
  0
VERTEX
  5
4D
  8
TEAM-NET
 10
689.348304
 20
355.568413
 30
580.0
 70
    64
  0
VERTEX
  5
4E
  8
TEAM-NET
 10
629.956633
 20
377.009231
 30
580.0
 70
    64
  0
VERTEX
  5
4F
  8
TEAM-NET
 10
567.88036
 20
388.568449
 30
580.0
 70
    64
  0
VERTEX
  5
50
  8
TEAM-NET
 10
504.726443
 20
390.000005
 30
580.0
 70
    64
  0
VERTEX
  5
51
  8
TEAM-NET
 10
441.513725
 20
390.000005
 30
580.0
 70
    64
  0
VERTEX
  5
52
  8
TEAM-NET
 10
378.301006
 20
390.000005
 30
580.0
 70
    64
  0
VERTEX
  5
53
  8
TEAM-NET
 10
315.088288
 20
390.000005
 30
580.0
 70
    64
  0
VERTEX
  5
54
  8
TEAM-NET
 10
251.875569
 20
390.000005
 30
580.0
 70
    64
  0
VERTEX
  5
55
  8
TEAM-NET
 10
188.66285
 20
390.000005
 30
580.0
 70
    64
  0
VERTEX
  5
56
  8
TEAM-NET
 10
125.450132
 20
390.000005
 30
580.0
 70
    64
  0
VERTEX
  5
57
  8
TEAM-NET
 10
62.237413
 20
390.000005
 30
580.0
 70
    64
  0
VERTEX
  5
58
  8
TEAM-NET
 10
-0.975305
 20
390.000005
 30
580.0
 70
    64
  0
VERTEX
  5
59
  8
TEAM-NET
 10
-64.188024
 20
390.000005
 30
580.0
 70
    64
  0
VERTEX
  5
5A
  8
TEAM-NET
 10
-127.400742
 20
390.000005
 30
580.0
 70
    64
  0
VERTEX
  5
5B
  8
TEAM-NET
 10
-190.613461
 20
390.000005
 30
580.0
 70
    64
  0
VERTEX
  5
5C
  8
TEAM-NET
 10
-253.82618
 20
390.000005
 30
580.0
 70
    64
  0
VERTEX
  5
5D
  8
TEAM-NET
 10
-317.038898
 20
390.000005
 30
580.0
 70
    64
  0
VERTEX
  5
5E
  8
TEAM-NET
 10
-380.251617
 20
390.000005
 30
580.0
 70
    64
  0
VERTEX
  5
5F
  8
TEAM-NET
 10
-443.464335
 20
390.000005
 30
580.0
 70
    64
  0
VERTEX
  5
60
  8
TEAM-NET
 10
-506.677054
 20
390.000005
 30
580.0
 70
    64
  0
VERTEX
  5
61
  8
TEAM-NET
 10
-569.839995
 20
388.626949
 30
580.0
 70
    64
  0
VERTEX
  5
62
  8
TEAM-NET
 10
-631.961752
 20
377.343336
 30
580.0
 70
    64
  0
VERTEX
  5
63
  8
TEAM-NET
 10
-691.317209
 20
355.81748
 30
580.0
 70
    64
  0
VERTEX
  5
64
  8
TEAM-NET
 10
-746.230477
 20
324.65716
 30
580.0
 70
    64
  0
VERTEX
  5
65
  8
TEAM-NET
 10
-795.151096
 20
284.742178
 30
580.0
 70
    64
  0
VERTEX
  5
66
  8
TEAM-NET
 10
-836.697802
 20
237.199526
 30
580.0
 70
    64
  0
VERTEX
  5
67
  8
TEAM-NET
 10
-869.697536
 20
183.371557
 30
580.0
 70
    64
  0
VERTEX
  5
68
  8
TEAM-NET
 10
-893.218557
 20
124.778091
 30
580.0
 70
    64
  0
VERTEX
  5
69
  8
TEAM-NET
 10
-906.596756
 20
63.073501
 30
580.0
 70
    64
  0
VERTEX
  5
6A
  8
TEAM-NET
 10
-909.454402
 20
0.0
 30
580.0
 70
    64
  0
SEQEND
  5
6C
  8
TEAM-NET
  0
POLYLINE
  5
6D
  8
TEAM-NET
 66
     1
 10
0.0
 20
0.0
 30
0.0
 70
    16
 71
     2
 72
    37
  0
VERTEX
  5
6E
  8
TEAM-NET
 10
917.236259
 20
3.889066
 30
580.0
 70
    64
  0
VERTEX
  5
6F
  8
TEAM-NET
 10
912.909956
 20
-59.321925
 30
580.0
 70
    64
  0
VERTEX
  5
70
  8
TEAM-NET
 10
898.390432
 20
-120.994689
 30
580.0
 70
    64
  0
VERTEX
  5
71
  8
TEAM-NET
 10
874.062049
 20
-179.496621
 30
580.0
 70
    64
  0
VERTEX
  5
72
  8
TEAM-NET
 10
840.568827
 20
-233.279057
 30
580.0
 70
    64
  0
VERTEX
  5
73
  8
TEAM-NET
 10
798.7974
 20
-280.918266
 30
580.0
 70
    64
  0
VERTEX
  5
74
  8
TEAM-NET
 10
749.853544
 20
-321.153142
 30
580.0
 70
    64
  0
VERTEX
  5
75
  8
TEAM-NET
 10
695.0329
 20
-352.918585
 30
580.0
 70
    64
  0
VERTEX
  5
76
  8
TEAM-NET
 10
635.786684
 20
-375.3737
 30
580.0
 70
    64
  0
VERTEX
  5
77
  8
TEAM-NET
 10
573.683263
 20
-387.924055
 30
580.0
 70
    64
  0
VERTEX
  5
78
  8
TEAM-NET
 10
510.348803
 20
-390.000005
 30
580.0
 70
    64
  0
VERTEX
  5
79
  8
TEAM-NET
 10
446.91984
 20
-390.000005
 30
580.0
 70
    64
  0
VERTEX
  5
7A
  8
TEAM-NET
 10
383.490877
 20
-390.000005
 30
580.0
 70
    64
  0
VERTEX
  5
7B
  8
TEAM-NET
 10
320.061913
 20
-390.000005
 30
580.0
 70
    64
  0
VERTEX
  5
7C
  8
TEAM-NET
 10
256.63295
 20
-390.000005
 30
580.0
 70
    64
  0
VERTEX
  5
7D
  8
TEAM-NET
 10
193.203987
 20
-390.000005
 30
580.0
 70
    64
  0
VERTEX
  5
7E
  8
TEAM-NET
 10
129.775024
 20
-390.000005
 30
580.0
 70
    64
  0
VERTEX
  5
7F
  8
TEAM-NET
 10
66.346061
 20
-390.000005
 30
580.0
 70
    64
  0
VERTEX
  5
80
  8
TEAM-NET
 10
2.917097
 20
-390.000005
 30
580.0
 70
    64
  0
VERTEX
  5
81
  8
TEAM-NET
 10
-60.511866
 20
-390.000005
 30
580.0
 70
    64
  0
VERTEX
  5
82
  8
TEAM-NET
 10
-123.940829
 20
-390.000005
 30
580.0
 70
    64
  0
VERTEX
  5
83
  8
TEAM-NET
 10
-187.369792
 20
-390.000005
 30
580.0
 70
    64
  0
VERTEX
  5
84
  8
TEAM-NET
 10
-250.798755
 20
-390.000005
 30
580.0
 70
    64
  0
VERTEX
  5
85
  8
TEAM-NET
 10
-314.227718
 20
-390.000005
 30
580.0
 70
    64
  0
VERTEX
  5
86
  8
TEAM-NET
 10
-377.656682
 20
-390.000005
 30
580.0
 70
    64
  0
VERTEX
  5
87
  8
TEAM-NET
 10
-441.085645
 20
-390.000005
 30
580.0
 70
    64
  0
VERTEX
  5
88
  8
TEAM-NET
 10
-504.514608
 20
-390.000005
 30
580.0
 70
    64
  0
VERTEX
  5
89
  8
TEAM-NET
 10
-567.902201
 20
-388.807633
 30
580.0
 70
    64
  0
VERTEX
  5
8A
  8
TEAM-NET
 10
-630.290606
 20
-377.790567
 30
580.0
 70
    64
  0
VERTEX
  5
8B
  8
TEAM-NET
 10
-689.941303
 20
-356.448515
 30
580.0
 70
    64
  0
VERTEX
  5
8C
  8
TEAM-NET
 10
-745.158554
 20
-325.388187
 30
580.0
 70
    64
  0
VERTEX
  5
8D
  8
TEAM-NET
 10
-794.372654
 20
-285.492559
 30
580.0
 70
    64
  0
VERTEX
  5
8E
  8
TEAM-NET
 10
-836.184555
 20
-237.895776
 30
580.0
 70
    64
  0
VERTEX
  5
8F
  8
TEAM-NET
 10
-869.405635
 20
-183.950909
 30
580.0
 70
    64
  0
VERTEX
  5
90
  8
TEAM-NET
 10
-893.091493
 20
-125.191494
 30
580.0
 70
    64
  0
VERTEX
  5
91
  8
TEAM-NET
 10
-906.568792
 20
-63.28793
 30
580.0
 70
    64
  0
VERTEX
  5
92
  8
TEAM-NET
 10
-909.454402
 20
0.0
 30
580.0
 70
    64
  0
VERTEX
  5
93
  8
TEAM-NET
 10
593.471267
 20
-7.778717
 30
70.0
 70
    64
  0
VERTEX
  5
94
  8
TEAM-NET
 10
588.406309
 20
-47.268947
 30
70.0
 70
    64
  0
VERTEX
  5
95
  8
TEAM-NET
 10
576.421068
 20
-85.235854
 30
70.0
 70
    64
  0
VERTEX
  5
96
  8
TEAM-NET
 10
557.895192
 20
-120.476796
 30
70.0
 70
    64
  0
VERTEX
  5
97
  8
TEAM-NET
 10
533.415508
 20
-151.875477
 30
70.0
 70
    64
  0
VERTEX
  5
98
  8
TEAM-NET
 10
503.757437
 20
-178.437308
 30
70.0
 70
    64
  0
VERTEX
  5
99
  8
TEAM-NET
 10
469.86043
 20
-199.320914
 30
70.0
 70
    64
  0
VERTEX
  5
9A
  8
TEAM-NET
 10
432.798213
 20
-213.864785
 30
70.0
 70
    64
  0
VERTEX
  5
9B
  8
TEAM-NET
 10
393.738876
 20
-221.500003
 30
70.0
 70
    64
  0
VERTEX
  5
9C
  8
TEAM-NET
 10
353.872423
 20
-221.500003
 30
70.0
 70
    64
  0
VERTEX
  5
9D
  8
TEAM-NET
 10
314.00597
 20
-221.500003
 30
70.0
 70
    64
  0
VERTEX
  5
9E
  8
TEAM-NET
 10
274.139517
 20
-221.500003
 30
70.0
 70
    64
  0
VERTEX
  5
9F
  8
TEAM-NET
 10
234.273064
 20
-221.500003
 30
70.0
 70
    64
  0
VERTEX
  5
A0
  8
TEAM-NET
 10
194.406611
 20
-221.500003
 30
70.0
 70
    64
  0
VERTEX
  5
A1
  8
TEAM-NET
 10
154.540158
 20
-221.500003
 30
70.0
 70
    64
  0
VERTEX
  5
A2
  8
TEAM-NET
 10
114.673705
 20
-221.500003
 30
70.0
 70
    64
  0
VERTEX
  5
A3
  8
TEAM-NET
 10
74.807252
 20
-221.500003
 30
70.0
 70
    64
  0
VERTEX
  5
A4
  8
TEAM-NET
 10
34.940799
 20
-221.500003
 30
70.0
 70
    64
  0
VERTEX
  5
A5
  8
TEAM-NET
 10
-4.925654
 20
-221.500003
 30
70.0
 70
    64
  0
VERTEX
  5
A6
  8
TEAM-NET
 10
-44.792107
 20
-221.500003
 30
70.0
 70
    64
  0
VERTEX
  5
A7
  8
TEAM-NET
 10
-84.65856
 20
-221.500003
 30
70.0
 70
    64
  0
VERTEX
  5
A8
  8
TEAM-NET
 10
-124.525013
 20
-221.500003
 30
70.0
 70
    64
  0
VERTEX
  5
A9
  8
TEAM-NET
 10
-164.391466
 20
-221.500003
 30
70.0
 70
    64
  0
VERTEX
  5
AA
  8
TEAM-NET
 10
-204.257919
 20
-221.500003
 30
70.0
 70
    64
  0
VERTEX
  5
AB
  8
TEAM-NET
 10
-244.124372
 20
-221.500003
 30
70.0
 70
    64
  0
VERTEX
  5
AC
  8
TEAM-NET
 10
-283.990825
 20
-221.500003
 30
70.0
 70
    64
  0
VERTEX
  5
AD
  8
TEAM-NET
 10
-323.857278
 20
-221.500003
 30
70.0
 70
    64
  0
VERTEX
  5
AE
  8
TEAM-NET
 10
-363.72373
 20
-221.500003
 30
70.0
 70
    64
  0
VERTEX
  5
AF
  8
TEAM-NET
 10
-403.538621
 20
-220.551918
 30
70.0
 70
    64
  0
VERTEX
  5
B0
  8
TEAM-NET
 10
-442.355148
 20
-211.729909
 30
70.0
 70
    64
  0
VERTEX
  5
B1
  8
TEAM-NET
 10
-478.80447
 20
-195.729988
 30
70.0
 70
    64
  0
VERTEX
  5
B2
  8
TEAM-NET
 10
-511.57252
 20
-173.128982
 30
70.0
 70
    64
  0
VERTEX
  5
B3
  8
TEAM-NET
 10
-539.477946
 20
-144.741702
 30
70.0
 70
    64
  0
VERTEX
  5
B4
  8
TEAM-NET
 10
-561.514706
 20
-111.591562
 30
70.0
 70
    64
  0
VERTEX
  5
B5
  8
TEAM-NET
 10
-576.888331
 20
-74.873689
 30
70.0
 70
    64
  0
VERTEX
  5
B6
  8
TEAM-NET
 10
-585.044573
 20
-35.911832
 30
70.0
 70
    64
  0
VERTEX
  5
B7
  8
TEAM-NET
 10
-585.689384
 20
3.889358
 30
70.0
 70
    64
  0
SEQEND
  5
B8
  8
TEAM-NET
  0
CIRCLE
  5
B9
  8
TEAM-INSP
 10
0.0
 20
0.0
 30
0.0
 40
10.0
  0
CIRCLE
  5
BB
  8
TEAM-DET1
 10
0.0
 20
118.20774
 30
70.0
 40
35.0
  0
CIRCLE
  5
BD
  8
TEAM-KAN
 10
0.0
 20
118.20774
 30
70.0
 40
26.0
  0
POLYLINE
  5
BF
  8
TEAM-BODY
 66
     1
 10
0.0
 20
0.0
 30
70.0
  0
VERTEX
  5
57A
  8
TEAM-BODY
 10
593.471267
 20
-7.778717
 30
70.0
 42
-0.371062
  0
VERTEX
  5
57B
  8
TEAM-BODY
 10
394.735005
 20
-221.500003
 30
70.0
  0
VERTEX
  5
57C
  8
TEAM-BODY
 10
-394.735005
 20
-221.500003
 30
70.0
 42
-0.412083
  0
VERTEX
  5
57D
  8
TEAM-BODY
 10
-585.689384
 20
3.889358
 30
70.0
  0
SEQEND
  5
57E
  8
TEAM-BODY
  0
POLYLINE
  5
C1
  8
TEAM-BODY
 66
     1
 10
0.0
 20
0.0
 30
70.0
  0
VERTEX
  5
57F
  8
TEAM-BODY
 10
593.471267
 20
-7.778717
 30
70.0
 42
0.391158
  0
VERTEX
  5
580
  8
TEAM-BODY
 10
394.735005
 20
221.500003
 30
70.0
  0
VERTEX
  5
581
  8
TEAM-BODY
 10
-394.735005
 20
221.500003
 30
70.0
 42
0.402891
  0
VERTEX
  5
582
  8
TEAM-BODY
 10
-585.689384
 20
3.889358
 30
70.0
  0
SEQEND
  5
583
  8
TEAM-BODY
  0
POLYLINE
  5
C2
  8
TEAM-NET
 66
     1
 10
0.0
 20
0.0
 30
0.0
 70
    16
 71
     2
 72
    37
  0
VERTEX
  5
C3
  8
TEAM-NET
 10
593.471267
 20
-7.778717
 30
70.0
 70
    64
  0
VERTEX
  5
C4
  8
TEAM-NET
 10
591.148623
 20
32.179166
 30
70.0
 70
    64
  0
VERTEX
  5
C5
  8
TEAM-NET
 10
581.739169
 20
71.082755
 30
70.0
 70
    64
  0
VERTEX
  5
C6
  8
TEAM-NET
 10
565.544416
 20
107.685447
 30
70.0
 70
    64
  0
VERTEX
  5
C7
  8
TEAM-NET
 10
543.083301
 20
140.814367
 30
70.0
 70
    64
  0
VERTEX
  5
C8
  8
TEAM-NET
 10
515.075552
 20
169.407952
 30
70.0
 70
    64
  0
VERTEX
  5
C9
  8
TEAM-NET
 10
482.418635
 20
192.549966
 30
70.0
 70
    64
  0
VERTEX
  5
CA
  8
TEAM-NET
 10
446.158987
 20
209.498859
 30
70.0
 70
    64
  0
VERTEX
  5
CB
  8
TEAM-NET
 10
407.458491
 20
219.711533
 30
70.0
 70
    64
  0
VERTEX
  5
CC
  8
TEAM-NET
 10
367.506379
 20
221.500003
 30
70.0
 70
    64
  0
VERTEX
  5
CD
  8
TEAM-NET
 10
327.427416
 20
221.500003
 30
70.0
 70
    64
  0
VERTEX
  5
CE
  8
TEAM-NET
 10
287.348452
 20
221.500003
 30
70.0
 70
    64
  0
VERTEX
  5
CF
  8
TEAM-NET
 10
247.269489
 20
221.500003
 30
70.0
 70
    64
  0
VERTEX
  5
D0
  8
TEAM-NET
 10
207.190526
 20
221.500003
 30
70.0
 70
    64
  0
VERTEX
  5
D1
  8
TEAM-NET
 10
167.111563
 20
221.500003
 30
70.0
 70
    64
  0
VERTEX
  5
D2
  8
TEAM-NET
 10
127.032599
 20
221.500003
 30
70.0
 70
    64
  0
VERTEX
  5
D3
  8
TEAM-NET
 10
86.953636
 20
221.500003
 30
70.0
 70
    64
  0
VERTEX
  5
D4
  8
TEAM-NET
 10
46.874673
 20
221.500003
 30
70.0
 70
    64
  0
VERTEX
  5
D5
  8
TEAM-NET
 10
6.795709
 20
221.500003
 30
70.0
 70
    64
  0
VERTEX
  5
D6
  8
TEAM-NET
 10
-33.283254
 20
221.500003
 30
70.0
 70
    64
  0
VERTEX
  5
D7
  8
TEAM-NET
 10
-73.362217
 20
221.500003
 30
70.0
 70
    64
  0
VERTEX
  5
D8
  8
TEAM-NET
 10
-113.441181
 20
221.500003
 30
70.0
 70
    64
  0
VERTEX
  5
D9
  8
TEAM-NET
 10
-153.520144
 20
221.500003
 30
70.0
 70
    64
  0
VERTEX
  5
DA
  8
TEAM-NET
 10
-193.599107
 20
221.500003
 30
70.0
 70
    64
  0
VERTEX
  5
DB
  8
TEAM-NET
 10
-233.678071
 20
221.500003
 30
70.0
 70
    64
  0
VERTEX
  5
DC
  8
TEAM-NET
 10
-273.757034
 20
221.500003
 30
70.0
 70
    64
  0
VERTEX
  5
DD
  8
TEAM-NET
 10
-313.835997
 20
221.500003
 30
70.0
 70
    64
  0
VERTEX
  5
DE
  8
TEAM-NET
 10
-353.914961
 20
221.500003
 30
70.0
 70
    64
  0
VERTEX
  5
DF
  8
TEAM-NET
 10
-393.993924
 20
221.500003
 30
70.0
 70
    64
  0
VERTEX
  5
E0
  8
TEAM-NET
 10
-433.388859
 20
214.515941
 30
70.0
 70
    64
  0
VERTEX
  5
E1
  8
TEAM-NET
 10
-470.713835
 20
200.085283
 30
70.0
 70
    64
  0
VERTEX
  5
E2
  8
TEAM-NET
 10
-504.600494
 20
178.799325
 30
70.0
 70
    64
  0
VERTEX
  5
E3
  8
TEAM-NET
 10
-533.804227
 20
151.439871
 30
70.0
 70
    64
  0
VERTEX
  5
E4
  8
TEAM-NET
 10
-557.25242
 20
119.011797
 30
70.0
 70
    64
  0
VERTEX
  5
E5
  8
TEAM-NET
 10
-574.083852
 20
82.706142
 30
70.0
 70
    64
  0
VERTEX
  5
E6
  8
TEAM-NET
 10
-583.680329
 20
43.856362
 30
70.0
 70
    64
  0
VERTEX
  5
E7
  8
TEAM-NET
 10
-585.689384
 20
3.889358
 30
70.0
 70
    64
  0
VERTEX
  5
E8
  8
TEAM-NET
 10
593.471267
 20
-7.778717
 30
70.0
 70
    64
  0
VERTEX
  5
E9
  8
TEAM-NET
 10
588.406309
 20
-47.268947
 30
70.0
 70
    64
  0
VERTEX
  5
EA
  8
TEAM-NET
 10
576.421068
 20
-85.235854
 30
70.0
 70
    64
  0
VERTEX
  5
EB
  8
TEAM-NET
 10
557.895192
 20
-120.476796
 30
70.0
 70
    64
  0
VERTEX
  5
EC
  8
TEAM-NET
 10
533.415508
 20
-151.875477
 30
70.0
 70
    64
  0
VERTEX
  5
ED
  8
TEAM-NET
 10
503.757437
 20
-178.437308
 30
70.0
 70
    64
  0
VERTEX
  5
EE
  8
TEAM-NET
 10
469.86043
 20
-199.320914
 30
70.0
 70
    64
  0
VERTEX
  5
EF
  8
TEAM-NET
 10
432.798213
 20
-213.864785
 30
70.0
 70
    64
  0
VERTEX
  5
F0
  8
TEAM-NET
 10
393.738876
 20
-221.500003
 30
70.0
 70
    64
  0
VERTEX
  5
F1
  8
TEAM-NET
 10
353.872423
 20
-221.500003
 30
70.0
 70
    64
  0
VERTEX
  5
F2
  8
TEAM-NET
 10
314.00597
 20
-221.500003
 30
70.0
 70
    64
  0
VERTEX
  5
F3
  8
TEAM-NET
 10
274.139517
 20
-221.500003
 30
70.0
 70
    64
  0
VERTEX
  5
F4
  8
TEAM-NET
 10
234.273064
 20
-221.500003
 30
70.0
 70
    64
  0
VERTEX
  5
F5
  8
TEAM-NET
 10
194.406611
 20
-221.500003
 30
70.0
 70
    64
  0
VERTEX
  5
F6
  8
TEAM-NET
 10
154.540158
 20
-221.500003
 30
70.0
 70
    64
  0
VERTEX
  5
F7
  8
TEAM-NET
 10
114.673705
 20
-221.500003
 30
70.0
 70
    64
  0
VERTEX
  5
F8
  8
TEAM-NET
 10
74.807252
 20
-221.500003
 30
70.0
 70
    64
  0
VERTEX
  5
F9
  8
TEAM-NET
 10
34.940799
 20
-221.500003
 30
70.0
 70
    64
  0
VERTEX
  5
FA
  8
TEAM-NET
 10
-4.925654
 20
-221.500003
 30
70.0
 70
    64
  0
VERTEX
  5
FB
  8
TEAM-NET
 10
-44.792107
 20
-221.500003
 30
70.0
 70
    64
  0
VERTEX
  5
FC
  8
TEAM-NET
 10
-84.65856
 20
-221.500003
 30
70.0
 70
    64
  0
VERTEX
  5
FD
  8
TEAM-NET
 10
-124.525013
 20
-221.500003
 30
70.0
 70
    64
  0
VERTEX
  5
FE
  8
TEAM-NET
 10
-164.391466
 20
-221.500003
 30
70.0
 70
    64
  0
VERTEX
  5
FF
  8
TEAM-NET
 10
-204.257919
 20
-221.500003
 30
70.0
 70
    64
  0
VERTEX
  5
100
  8
TEAM-NET
 10
-244.124372
 20
-221.500003
 30
70.0
 70
    64
  0
VERTEX
  5
101
  8
TEAM-NET
 10
-283.990825
 20
-221.500003
 30
70.0
 70
    64
  0
VERTEX
  5
102
  8
TEAM-NET
 10
-323.857278
 20
-221.500003
 30
70.0
 70
    64
  0
VERTEX
  5
103
  8
TEAM-NET
 10
-363.72373
 20
-221.500003
 30
70.0
 70
    64
  0
VERTEX
  5
104
  8
TEAM-NET
 10
-403.538621
 20
-220.551918
 30
70.0
 70
    64
  0
VERTEX
  5
105
  8
TEAM-NET
 10
-442.355148
 20
-211.729909
 30
70.0
 70
    64
  0
VERTEX
  5
106
  8
TEAM-NET
 10
-478.80447
 20
-195.729988
 30
70.0
 70
    64
  0
VERTEX
  5
107
  8
TEAM-NET
 10
-511.57252
 20
-173.128982
 30
70.0
 70
    64
  0
VERTEX
  5
108
  8
TEAM-NET
 10
-539.477946
 20
-144.741702
 30
70.0
 70
    64
  0
VERTEX
  5
109
  8
TEAM-NET
 10
-561.514706
 20
-111.591562
 30
70.0
 70
    64
  0
VERTEX
  5
10A
  8
TEAM-NET
 10
-576.888331
 20
-74.873689
 30
70.0
 70
    64
  0
VERTEX
  5
10B
  8
TEAM-NET
 10
-585.044573
 20
-35.911832
 30
70.0
 70
    64
  0
VERTEX
  5
10C
  8
TEAM-NET
 10
-585.689384
 20
3.889358
 30
70.0
 70
    64
  0
SEQEND
  5
10D
  8
TEAM-NET
  0
LINE
  5
10E
  8
TEAM-AXE
 10
40.918787
 20
374.421841
 30
530.0
 11
-27.851214
 21
374.421841
 31
530.0
  0
POLYLINE
  5
111
  8
TEAM-KAN
 66
     1
 10
0.0
 20
0.0
 30
530.0
  0
VERTEX
  5
584
  8
TEAM-KAN
 10
-17.641214
 20
376.261841
 30
530.0
  0
VERTEX
  5
585
  8
TEAM-KAN
 10
-18.191214
 20
375.971841
 30
530.0
  0
VERTEX
  5
586
  8
TEAM-KAN
 10
-18.651214
 20
375.661841
 30
530.0
  0
VERTEX
  5
587
  8
TEAM-KAN
 10
-19.001214
 20
375.361841
 30
530.0
  0
VERTEX
  5
588
  8
TEAM-KAN
 10
-19.261214
 20
375.051841
 30
530.0
  0
VERTEX
  5
589
  8
TEAM-KAN
 10
-19.411214
 20
374.731841
 30
530.0
  0
VERTEX
  5
58A
  8
TEAM-KAN
 10
-19.461214
 20
374.421841
 30
530.0
  0
SEQEND
  5
58B
  8
TEAM-KAN
  0
POLYLINE
  5
112
  8
TEAM-KAN
 66
     1
 10
0.0
 20
0.0
 30
530.0
  0
VERTEX
  5
58C
  8
TEAM-KAN
 10
32.078787
 20
373.481841
 30
530.0
  0
VERTEX
  5
58D
  8
TEAM-KAN
 10
32.328787
 20
373.791841
 30
530.0
  0
VERTEX
  5
58E
  8
TEAM-KAN
 10
32.478787
 20
374.111841
 30
530.0
  0
VERTEX
  5
58F
  8
TEAM-KAN
 10
32.538787
 20
374.421841
 30
530.0
  0
VERTEX
  5
590
  8
TEAM-KAN
 10
32.478787
 20
374.731841
 30
530.0
  0
VERTEX
  5
591
  8
TEAM-KAN
 10
32.328787
 20
375.051841
 30
530.0
  0
VERTEX
  5
592
  8
TEAM-KAN
 10
32.078787
 20
375.361841
 30
530.0
  0
VERTEX
  5
593
  8
TEAM-KAN
 10
31.718787
 20
375.661841
 30
530.0
  0
VERTEX
  5
594
  8
TEAM-KAN
 10
31.268787
 20
375.971841
 30
530.0
  0
VERTEX
  5
595
  8
TEAM-KAN
 10
30.708787
 20
376.261841
 30
530.0
  0
VERTEX
  5
596
  8
TEAM-KAN
 10
30.058787
 20
376.551841
 30
530.0
  0
VERTEX
  5
597
  8
TEAM-KAN
 10
29.318787
 20
376.831841
 30
530.0
  0
VERTEX
  5
598
  8
TEAM-KAN
 10
28.488787
 20
377.101841
 30
530.0
  0
VERTEX
  5
599
  8
TEAM-KAN
 10
27.568787
 20
377.361841
 30
530.0
  0
VERTEX
  5
59A
  8
TEAM-KAN
 10
26.568787
 20
377.611841
 30
530.0
  0
VERTEX
  5
59B
  8
TEAM-KAN
 10
25.488787
 20
377.841841
 30
530.0
  0
VERTEX
  5
59C
  8
TEAM-KAN
 10
24.338787
 20
378.071841
 30
530.0
  0
VERTEX
  5
59D
  8
TEAM-KAN
 10
23.108787
 20
378.271841
 30
530.0
  0
VERTEX
  5
59E
  8
TEAM-KAN
 10
21.818787
 20
378.471841
 30
530.0
  0
VERTEX
  5
59F
  8
TEAM-KAN
 10
20.468787
 20
378.641841
 30
530.0
  0
VERTEX
  5
5A0
  8
TEAM-KAN
 10
19.058787
 20
378.801841
 30
530.0
  0
VERTEX
  5
5A1
  8
TEAM-KAN
 10
17.608787
 20
378.941841
 30
530.0
  0
VERTEX
  5
5A2
  8
TEAM-KAN
 10
16.108787
 20
379.071841
 30
530.0
  0
VERTEX
  5
5A3
  8
TEAM-KAN
 10
14.568787
 20
379.171841
 30
530.0
  0
VERTEX
  5
5A4
  8
TEAM-KAN
 10
12.998787
 20
379.261841
 30
530.0
  0
VERTEX
  5
5A5
  8
TEAM-KAN
 10
11.408787
 20
379.331841
 30
530.0
  0
VERTEX
  5
5A6
  8
TEAM-KAN
 10
9.798787
 20
379.381841
 30
530.0
  0
VERTEX
  5
5A7
  8
TEAM-KAN
 10
8.168787
 20
379.411841
 30
530.0
  0
VERTEX
  5
5A8
  8
TEAM-KAN
 10
6.538787
 20
379.421841
 30
530.0
  0
VERTEX
  5
5A9
  8
TEAM-KAN
 10
4.908787
 20
379.411841
 30
530.0
  0
VERTEX
  5
5AA
  8
TEAM-KAN
 10
3.278787
 20
379.381841
 30
530.0
  0
VERTEX
  5
5AB
  8
TEAM-KAN
 10
1.658787
 20
379.331841
 30
530.0
  0
VERTEX
  5
5AC
  8
TEAM-KAN
 10
0.068787
 20
379.261841
 30
530.0
  0
VERTEX
  5
5AD
  8
TEAM-KAN
 10
-1.501213
 20
379.171841
 30
530.0
  0
VERTEX
  5
5AE
  8
TEAM-KAN
 10
-3.041213
 20
379.071841
 30
530.0
  0
VERTEX
  5
5AF
  8
TEAM-KAN
 10
-4.531213
 20
378.941841
 30
530.0
  0
VERTEX
  5
5B0
  8
TEAM-KAN
 10
-5.991213
 20
378.801841
 30
530.0
  0
VERTEX
  5
5B1
  8
TEAM-KAN
 10
-7.391213
 20
378.641841
 30
530.0
  0
VERTEX
  5
5B2
  8
TEAM-KAN
 10
-8.751213
 20
378.471841
 30
530.0
  0
VERTEX
  5
5B3
  8
TEAM-KAN
 10
-10.041213
 20
378.271841
 30
530.0
  0
VERTEX
  5
5B4
  8
TEAM-KAN
 10
-11.261213
 20
378.071841
 30
530.0
  0
VERTEX
  5
5B5
  8
TEAM-KAN
 10
-12.411213
 20
377.841841
 30
530.0
  0
VERTEX
  5
5B6
  8
TEAM-KAN
 10
-13.501213
 20
377.611841
 30
530.0
  0
VERTEX
  5
5B7
  8
TEAM-KAN
 10
-14.501214
 20
377.361841
 30
530.0
  0
VERTEX
  5
5B8
  8
TEAM-KAN
 10
-15.411214
 20
377.101841
 30
530.0
  0
VERTEX
  5
5B9
  8
TEAM-KAN
 10
-16.251214
 20
376.831841
 30
530.0
  0
VERTEX
  5
5BA
  8
TEAM-KAN
 10
-16.991214
 20
376.551841
 30
530.0
  0
VERTEX
  5
5BB
  8
TEAM-KAN
 10
-17.641214
 20
376.261841
 30
530.0
  0
SEQEND
  5
5BC
  8
TEAM-KAN
  0
POLYLINE
  5
113
  8
TEAM-KAN
 66
     1
 10
0.0
 20
0.0
 30
530.0
  0
VERTEX
  5
5BD
  8
TEAM-KAN
 10
-19.461214
 20
374.421841
 30
530.0
  0
VERTEX
  5
5BE
  8
TEAM-KAN
 10
-19.411214
 20
374.111841
 30
530.0
  0
VERTEX
  5
5BF
  8
TEAM-KAN
 10
-19.261214
 20
373.791841
 30
530.0
  0
VERTEX
  5
5C0
  8
TEAM-KAN
 10
-19.001214
 20
373.481841
 30
530.0
  0
VERTEX
  5
5C1
  8
TEAM-KAN
 10
-18.651214
 20
373.181841
 30
530.0
  0
VERTEX
  5
5C2
  8
TEAM-KAN
 10
-18.191214
 20
372.881841
 30
530.0
  0
VERTEX
  5
5C3
  8
TEAM-KAN
 10
-17.641214
 20
372.581841
 30
530.0
  0
VERTEX
  5
5C4
  8
TEAM-KAN
 10
-16.991214
 20
372.291841
 30
530.0
  0
VERTEX
  5
5C5
  8
TEAM-KAN
 10
-16.251214
 20
372.011841
 30
530.0
  0
VERTEX
  5
5C6
  8
TEAM-KAN
 10
-15.411214
 20
371.741841
 30
530.0
  0
VERTEX
  5
5C7
  8
TEAM-KAN
 10
-14.501214
 20
371.481841
 30
530.0
  0
VERTEX
  5
5C8
  8
TEAM-KAN
 10
-13.501213
 20
371.231841
 30
530.0
  0
VERTEX
  5
5C9
  8
TEAM-KAN
 10
-12.411213
 20
371.001841
 30
530.0
  0
VERTEX
  5
5CA
  8
TEAM-KAN
 10
-11.261213
 20
370.771841
 30
530.0
  0
VERTEX
  5
5CB
  8
TEAM-KAN
 10
-10.041213
 20
370.571841
 30
530.0
  0
VERTEX
  5
5CC
  8
TEAM-KAN
 10
-8.751213
 20
370.381841
 30
530.0
  0
VERTEX
  5
5CD
  8
TEAM-KAN
 10
-7.391213
 20
370.201841
 30
530.0
  0
VERTEX
  5
5CE
  8
TEAM-KAN
 10
-5.991213
 20
370.041841
 30
530.0
  0
VERTEX
  5
5CF
  8
TEAM-KAN
 10
-4.531213
 20
369.901841
 30
530.0
  0
VERTEX
  5
5D0
  8
TEAM-KAN
 10
-3.041213
 20
369.771841
 30
530.0
  0
VERTEX
  5
5D1
  8
TEAM-KAN
 10
-1.501213
 20
369.661841
 30
530.0
  0
VERTEX
  5
5D2
  8
TEAM-KAN
 10
0.068787
 20
369.581841
 30
530.0
  0
VERTEX
  5
5D3
  8
TEAM-KAN
 10
1.658787
 20
369.511841
 30
530.0
  0
VERTEX
  5
5D4
  8
TEAM-KAN
 10
3.278787
 20
369.461841
 30
530.0
  0
VERTEX
  5
5D5
  8
TEAM-KAN
 10
4.908787
 20
369.431841
 30
530.0
  0
VERTEX
  5
5D6
  8
TEAM-KAN
 10
6.538787
 20
369.421841
 30
530.0
  0
VERTEX
  5
5D7
  8
TEAM-KAN
 10
8.168787
 20
369.431841
 30
530.0
  0
VERTEX
  5
5D8
  8
TEAM-KAN
 10
9.798787
 20
369.461841
 30
530.0
  0
VERTEX
  5
5D9
  8
TEAM-KAN
 10
11.408787
 20
369.511841
 30
530.0
  0
VERTEX
  5
5DA
  8
TEAM-KAN
 10
12.998787
 20
369.581841
 30
530.0
  0
VERTEX
  5
5DB
  8
TEAM-KAN
 10
14.568787
 20
369.661841
 30
530.0
  0
VERTEX
  5
5DC
  8
TEAM-KAN
 10
16.108787
 20
369.771841
 30
530.0
  0
VERTEX
  5
5DD
  8
TEAM-KAN
 10
17.608787
 20
369.901841
 30
530.0
  0
VERTEX
  5
5DE
  8
TEAM-KAN
 10
19.058787
 20
370.041841
 30
530.0
  0
VERTEX
  5
5DF
  8
TEAM-KAN
 10
20.468787
 20
370.201841
 30
530.0
  0
VERTEX
  5
5E0
  8
TEAM-KAN
 10
21.818787
 20
370.381841
 30
530.0
  0
VERTEX
  5
5E1
  8
TEAM-KAN
 10
23.108787
 20
370.571841
 30
530.0
  0
VERTEX
  5
5E2
  8
TEAM-KAN
 10
24.338787
 20
370.771841
 30
530.0
  0
VERTEX
  5
5E3
  8
TEAM-KAN
 10
25.488787
 20
371.001841
 30
530.0
  0
VERTEX
  5
5E4
  8
TEAM-KAN
 10
26.568787
 20
371.231841
 30
530.0
  0
VERTEX
  5
5E5
  8
TEAM-KAN
 10
27.568787
 20
371.481841
 30
530.0
  0
VERTEX
  5
5E6
  8
TEAM-KAN
 10
28.488787
 20
371.741841
 30
530.0
  0
VERTEX
  5
5E7
  8
TEAM-KAN
 10
29.318787
 20
372.011841
 30
530.0
  0
VERTEX
  5
5E8
  8
TEAM-KAN
 10
30.058787
 20
372.291841
 30
530.0
  0
VERTEX
  5
5E9
  8
TEAM-KAN
 10
30.708787
 20
372.581841
 30
530.0
  0
VERTEX
  5
5EA
  8
TEAM-KAN
 10
31.268787
 20
372.881841
 30
530.0
  0
VERTEX
  5
5EB
  8
TEAM-KAN
 10
31.718787
 20
373.181841
 30
530.0
  0
VERTEX
  5
5EC
  8
TEAM-KAN
 10
32.078787
 20
373.481841
 30
530.0
  0
SEQEND
  5
5ED
  8
TEAM-KAN
  0
POLYLINE
  5
114
  8
TEAM-DET1
 66
     1
 10
0.0
 20
0.0
 30
580.0
  0
VERTEX
  5
5EE
  8
TEAM-DET1
 10
-909.454402
 20
0.0
 30
580.0
 42
-0.413104
  0
VERTEX
  5
5EF
  8
TEAM-DET1
 10
-550.000021
 20
390.000005
 30
580.0
  0
VERTEX
  5
5F0
  8
TEAM-DET1
 10
549.999994
 20
390.000005
 30
580.0
 42
-0.395702
  0
VERTEX
  5
5F1
  8
TEAM-DET1
 10
917.236259
 20
3.889066
 30
580.0
  0
SEQEND
  5
5F2
  8
TEAM-DET1
  0
POLYLINE
  5
115
  8
TEAM-DET1
 66
     1
 10
0.0
 20
0.0
 30
580.0
  0
VERTEX
  5
5F3
  8
TEAM-DET1
 10
-909.454402
 20
0.0
 30
580.0
 42
0.413104
  0
VERTEX
  5
5F4
  8
TEAM-DET1
 10
-550.000021
 20
-390.000005
 30
580.0
  0
VERTEX
  5
5F5
  8
TEAM-DET1
 10
549.999994
 20
-390.000005
 30
580.0
 42
0.401443
  0
VERTEX
  5
5F6
  8
TEAM-DET1
 10
917.236259
 20
3.889066
 30
580.0
  0
SEQEND
  5
5F7
  8
TEAM-DET1
  0
POLYLINE
  5
116
  8
TEAM-NET
 66
     1
 10
0.0
 20
0.0
 30
0.0
 70
    16
 71
     2
 72
    37
  0
VERTEX
  5
117
  8
TEAM-NET
 10
917.236259
 20
3.889066
 30
580.0
 70
    64
  0
VERTEX
  5
118
  8
TEAM-NET
 10
911.691159
 20
66.788439
 30
580.0
 70
    64
  0
VERTEX
  5
119
  8
TEAM-NET
 10
896.052339
 20
127.964469
 30
580.0
 70
    64
  0
VERTEX
  5
11A
  8
TEAM-NET
 10
870.731072
 20
185.808333
 30
580.0
 70
    64
  0
VERTEX
  5
11B
  8
TEAM-NET
 10
836.393262
 20
238.798842
 30
580.0
 70
    64
  0
VERTEX
  5
11C
  8
TEAM-NET
 10
793.941932
 20
285.542439
 30
580.0
 70
    64
  0
VERTEX
  5
11D
  8
TEAM-NET
 10
744.493477
 20
324.809851
 30
580.0
 70
    64
  0
VERTEX
  5
11E
  8
TEAM-NET
 10
689.348304
 20
355.568413
 30
580.0
 70
    64
  0
VERTEX
  5
11F
  8
TEAM-NET
 10
629.956633
 20
377.009231
 30
580.0
 70
    64
  0
VERTEX
  5
120
  8
TEAM-NET
 10
567.88036
 20
388.568449
 30
580.0
 70
    64
  0
VERTEX
  5
121
  8
TEAM-NET
 10
504.726443
 20
390.000005
 30
580.0
 70
    64
  0
VERTEX
  5
122
  8
TEAM-NET
 10
441.513725
 20
390.000005
 30
580.0
 70
    64
  0
VERTEX
  5
123
  8
TEAM-NET
 10
378.301006
 20
390.000005
 30
580.0
 70
    64
  0
VERTEX
  5
124
  8
TEAM-NET
 10
315.088288
 20
390.000005
 30
580.0
 70
    64
  0
VERTEX
  5
125
  8
TEAM-NET
 10
251.875569
 20
390.000005
 30
580.0
 70
    64
  0
VERTEX
  5
126
  8
TEAM-NET
 10
188.66285
 20
390.000005
 30
580.0
 70
    64
  0
VERTEX
  5
127
  8
TEAM-NET
 10
125.450132
 20
390.000005
 30
580.0
 70
    64
  0
VERTEX
  5
128
  8
TEAM-NET
 10
62.237413
 20
390.000005
 30
580.0
 70
    64
  0
VERTEX
  5
129
  8
TEAM-NET
 10
-0.975305
 20
390.000005
 30
580.0
 70
    64
  0
VERTEX
  5
12A
  8
TEAM-NET
 10
-64.188024
 20
390.000005
 30
580.0
 70
    64
  0
VERTEX
  5
12B
  8
TEAM-NET
 10
-127.400742
 20
390.000005
 30
580.0
 70
    64
  0
VERTEX
  5
12C
  8
TEAM-NET
 10
-190.613461
 20
390.000005
 30
580.0
 70
    64
  0
VERTEX
  5
12D
  8
TEAM-NET
 10
-253.82618
 20
390.000005
 30
580.0
 70
    64
  0
VERTEX
  5
12E
  8
TEAM-NET
 10
-317.038898
 20
390.000005
 30
580.0
 70
    64
  0
VERTEX
  5
12F
  8
TEAM-NET
 10
-380.251617
 20
390.000005
 30
580.0
 70
    64
  0
VERTEX
  5
130
  8
TEAM-NET
 10
-443.464335
 20
390.000005
 30
580.0
 70
    64
  0
VERTEX
  5
131
  8
TEAM-NET
 10
-506.677054
 20
390.000005
 30
580.0
 70
    64
  0
VERTEX
  5
132
  8
TEAM-NET
 10
-569.839995
 20
388.626949
 30
580.0
 70
    64
  0
VERTEX
  5
133
  8
TEAM-NET
 10
-631.961752
 20
377.343336
 30
580.0
 70
    64
  0
VERTEX
  5
134
  8
TEAM-NET
 10
-691.317209
 20
355.81748
 30
580.0
 70
    64
  0
VERTEX
  5
135
  8
TEAM-NET
 10
-746.230477
 20
324.65716
 30
580.0
 70
    64
  0
VERTEX
  5
136
  8
TEAM-NET
 10
-795.151096
 20
284.742178
 30
580.0
 70
    64
  0
VERTEX
  5
137
  8
TEAM-NET
 10
-836.697802
 20
237.199526
 30
580.0
 70
    64
  0
VERTEX
  5
138
  8
TEAM-NET
 10
-869.697536
 20
183.371557
 30
580.0
 70
    64
  0
VERTEX
  5
139
  8
TEAM-NET
 10
-893.218557
 20
124.778091
 30
580.0
 70
    64
  0
VERTEX
  5
13A
  8
TEAM-NET
 10
-906.596756
 20
63.073501
 30
580.0
 70
    64
  0
VERTEX
  5
13B
  8
TEAM-NET
 10
-909.454402
 20
0.0
 30
580.0
 70
    64
  0
VERTEX
  5
13C
  8
TEAM-NET
 10
950.0
 20
0.0
 30
580.0
 70
    64
  0
VERTEX
  5
13D
  8
TEAM-NET
 10
950.0
 20
77.777778
 30
580.0
 70
    64
  0
VERTEX
  5
13E
  8
TEAM-NET
 10
950.0
 20
155.555556
 30
580.0
 70
    64
  0
VERTEX
  5
13F
  8
TEAM-NET
 10
950.0
 20
233.333333
 30
580.0
 70
    64
  0
VERTEX
  5
140
  8
TEAM-NET
 10
950.0
 20
311.111111
 30
580.0
 70
    64
  0
VERTEX
  5
141
  8
TEAM-NET
 10
950.0
 20
388.888889
 30
580.0
 70
    64
  0
VERTEX
  5
142
  8
TEAM-NET
 10
933.333333
 20
450.0
 30
580.0
 70
    64
  0
VERTEX
  5
143
  8
TEAM-NET
 10
855.555556
 20
450.0
 30
580.0
 70
    64
  0
VERTEX
  5
144
  8
TEAM-NET
 10
777.777778
 20
450.0
 30
580.0
 70
    64
  0
VERTEX
  5
145
  8
TEAM-NET
 10
700.0
 20
450.0
 30
580.0
 70
    64
  0
VERTEX
  5
146
  8
TEAM-NET
 10
622.222222
 20
450.0
 30
580.0
 70
    64
  0
VERTEX
  5
147
  8
TEAM-NET
 10
544.444444
 20
450.0
 30
580.0
 70
    64
  0
VERTEX
  5
148
  8
TEAM-NET
 10
466.666667
 20
450.0
 30
580.0
 70
    64
  0
VERTEX
  5
149
  8
TEAM-NET
 10
388.888889
 20
450.0
 30
580.0
 70
    64
  0
VERTEX
  5
14A
  8
TEAM-NET
 10
311.111111
 20
450.0
 30
580.0
 70
    64
  0
VERTEX
  5
14B
  8
TEAM-NET
 10
233.333333
 20
450.0
 30
580.0
 70
    64
  0
VERTEX
  5
14C
  8
TEAM-NET
 10
155.555556
 20
450.0
 30
580.0
 70
    64
  0
VERTEX
  5
14D
  8
TEAM-NET
 10
77.777778
 20
450.0
 30
580.0
 70
    64
  0
VERTEX
  5
14E
  8
TEAM-NET
 10
0.0
 20
450.0
 30
580.0
 70
    64
  0
VERTEX
  5
14F
  8
TEAM-NET
 10
-77.777778
 20
450.0
 30
580.0
 70
    64
  0
VERTEX
  5
150
  8
TEAM-NET
 10
-155.555556
 20
450.0
 30
580.0
 70
    64
  0
VERTEX
  5
151
  8
TEAM-NET
 10
-233.333333
 20
450.0
 30
580.0
 70
    64
  0
VERTEX
  5
152
  8
TEAM-NET
 10
-311.111111
 20
450.0
 30
580.0
 70
    64
  0
VERTEX
  5
153
  8
TEAM-NET
 10
-388.888889
 20
450.0
 30
580.0
 70
    64
  0
VERTEX
  5
154
  8
TEAM-NET
 10
-466.666667
 20
450.0
 30
580.0
 70
    64
  0
VERTEX
  5
155
  8
TEAM-NET
 10
-544.444444
 20
450.0
 30
580.0
 70
    64
  0
VERTEX
  5
156
  8
TEAM-NET
 10
-622.222222
 20
450.0
 30
580.0
 70
    64
  0
VERTEX
  5
157
  8
TEAM-NET
 10
-700.0
 20
450.0
 30
580.0
 70
    64
  0
VERTEX
  5
158
  8
TEAM-NET
 10
-777.777778
 20
450.0
 30
580.0
 70
    64
  0
VERTEX
  5
159
  8
TEAM-NET
 10
-855.555556
 20
450.0
 30
580.0
 70
    64
  0
VERTEX
  5
15A
  8
TEAM-NET
 10
-933.333333
 20
450.0
 30
580.0
 70
    64
  0
VERTEX
  5
15B
  8
TEAM-NET
 10
-950.0
 20
388.888889
 30
580.0
 70
    64
  0
VERTEX
  5
15C
  8
TEAM-NET
 10
-950.0
 20
311.111111
 30
580.0
 70
    64
  0
VERTEX
  5
15D
  8
TEAM-NET
 10
-950.0
 20
233.333333
 30
580.0
 70
    64
  0
VERTEX
  5
15E
  8
TEAM-NET
 10
-950.0
 20
155.555556
 30
580.0
 70
    64
  0
VERTEX
  5
15F
  8
TEAM-NET
 10
-950.0
 20
77.777778
 30
580.0
 70
    64
  0
VERTEX
  5
160
  8
TEAM-NET
 10
-950.0
 20
0.0
 30
580.0
 70
    64
  0
SEQEND
  5
161
  8
TEAM-NET
  0
POLYLINE
  5
162
  8
TEAM-NET
 66
     1
 10
0.0
 20
0.0
 30
0.0
 70
    16
 71
     2
 72
    37
  0
VERTEX
  5
163
  8
TEAM-NET
 10
917.236259
 20
3.889066
 30
580.0
 70
    64
  0
VERTEX
  5
164
  8
TEAM-NET
 10
912.909956
 20
-59.321925
 30
580.0
 70
    64
  0
VERTEX
  5
165
  8
TEAM-NET
 10
898.390432
 20
-120.994689
 30
580.0
 70
    64
  0
VERTEX
  5
166
  8
TEAM-NET
 10
874.062049
 20
-179.496621
 30
580.0
 70
    64
  0
VERTEX
  5
167
  8
TEAM-NET
 10
840.568827
 20
-233.279057
 30
580.0
 70
    64
  0
VERTEX
  5
168
  8
TEAM-NET
 10
798.7974
 20
-280.918266
 30
580.0
 70
    64
  0
VERTEX
  5
169
  8
TEAM-NET
 10
749.853544
 20
-321.153142
 30
580.0
 70
    64
  0
VERTEX
  5
16A
  8
TEAM-NET
 10
695.0329
 20
-352.918585
 30
580.0
 70
    64
  0
VERTEX
  5
16B
  8
TEAM-NET
 10
635.786684
 20
-375.3737
 30
580.0
 70
    64
  0
VERTEX
  5
16C
  8
TEAM-NET
 10
573.683263
 20
-387.924055
 30
580.0
 70
    64
  0
VERTEX
  5
16D
  8
TEAM-NET
 10
510.348803
 20
-390.000005
 30
580.0
 70
    64
  0
VERTEX
  5
16E
  8
TEAM-NET
 10
446.91984
 20
-390.000005
 30
580.0
 70
    64
  0
VERTEX
  5
16F
  8
TEAM-NET
 10
383.490877
 20
-390.000005
 30
580.0
 70
    64
  0
VERTEX
  5
170
  8
TEAM-NET
 10
320.061913
 20
-390.000005
 30
580.0
 70
    64
  0
VERTEX
  5
171
  8
TEAM-NET
 10
256.63295
 20
-390.000005
 30
580.0
 70
    64
  0
VERTEX
  5
172
  8
TEAM-NET
 10
193.203987
 20
-390.000005
 30
580.0
 70
    64
  0
VERTEX
  5
173
  8
TEAM-NET
 10
129.775024
 20
-390.000005
 30
580.0
 70
    64
  0
VERTEX
  5
174
  8
TEAM-NET
 10
66.346061
 20
-390.000005
 30
580.0
 70
    64
  0
VERTEX
  5
175
  8
TEAM-NET
 10
2.917097
 20
-390.000005
 30
580.0
 70
    64
  0
VERTEX
  5
176
  8
TEAM-NET
 10
-60.511866
 20
-390.000005
 30
580.0
 70
    64
  0
VERTEX
  5
177
  8
TEAM-NET
 10
-123.940829
 20
-390.000005
 30
580.0
 70
    64
  0
VERTEX
  5
178
  8
TEAM-NET
 10
-187.369792
 20
-390.000005
 30
580.0
 70
    64
  0
VERTEX
  5
179
  8
TEAM-NET
 10
-250.798755
 20
-390.000005
 30
580.0
 70
    64
  0
VERTEX
  5
17A
  8
TEAM-NET
 10
-314.227718
 20
-390.000005
 30
580.0
 70
    64
  0
VERTEX
  5
17B
  8
TEAM-NET
 10
-377.656682
 20
-390.000005
 30
580.0
 70
    64
  0
VERTEX
  5
17C
  8
TEAM-NET
 10
-441.085645
 20
-390.000005
 30
580.0
 70
    64
  0
VERTEX
  5
17D
  8
TEAM-NET
 10
-504.514608
 20
-390.000005
 30
580.0
 70
    64
  0
VERTEX
  5
17E
  8
TEAM-NET
 10
-567.902201
 20
-388.807633
 30
580.0
 70
    64
  0
VERTEX
  5
17F
  8
TEAM-NET
 10
-630.290606
 20
-377.790567
 30
580.0
 70
    64
  0
VERTEX
  5
180
  8
TEAM-NET
 10
-689.941303
 20
-356.448515
 30
580.0
 70
    64
  0
VERTEX
  5
181
  8
TEAM-NET
 10
-745.158554
 20
-325.388187
 30
580.0
 70
    64
  0
VERTEX
  5
182
  8
TEAM-NET
 10
-794.372654
 20
-285.492559
 30
580.0
 70
    64
  0
VERTEX
  5
183
  8
TEAM-NET
 10
-836.184555
 20
-237.895776
 30
580.0
 70
    64
  0
VERTEX
  5
184
  8
TEAM-NET
 10
-869.405635
 20
-183.950909
 30
580.0
 70
    64
  0
VERTEX
  5
185
  8
TEAM-NET
 10
-893.091493
 20
-125.191494
 30
580.0
 70
    64
  0
VERTEX
  5
186
  8
TEAM-NET
 10
-906.568792
 20
-63.28793
 30
580.0
 70
    64
  0
VERTEX
  5
187
  8
TEAM-NET
 10
-909.454402
 20
0.0
 30
580.0
 70
    64
  0
VERTEX
  5
188
  8
TEAM-NET
 10
950.0
 20
0.0
 30
580.0
 70
    64
  0
VERTEX
  5
189
  8
TEAM-NET
 10
950.0
 20
-77.777778
 30
580.0
 70
    64
  0
VERTEX
  5
18A
  8
TEAM-NET
 10
950.0
 20
-155.555556
 30
580.0
 70
    64
  0
VERTEX
  5
18B
  8
TEAM-NET
 10
950.0
 20
-233.333333
 30
580.0
 70
    64
  0
VERTEX
  5
18C
  8
TEAM-NET
 10
950.0
 20
-311.111111
 30
580.0
 70
    64
  0
VERTEX
  5
18D
  8
TEAM-NET
 10
950.0
 20
-388.888889
 30
580.0
 70
    64
  0
VERTEX
  5
18E
  8
TEAM-NET
 10
933.333333
 20
-450.0
 30
580.0
 70
    64
  0
VERTEX
  5
18F
  8
TEAM-NET
 10
855.555556
 20
-450.0
 30
580.0
 70
    64
  0
VERTEX
  5
190
  8
TEAM-NET
 10
777.777778
 20
-450.0
 30
580.0
 70
    64
  0
VERTEX
  5
191
  8
TEAM-NET
 10
700.0
 20
-450.0
 30
580.0
 70
    64
  0
VERTEX
  5
192
  8
TEAM-NET
 10
622.222222
 20
-450.0
 30
580.0
 70
    64
  0
VERTEX
  5
193
  8
TEAM-NET
 10
544.444444
 20
-450.0
 30
580.0
 70
    64
  0
VERTEX
  5
194
  8
TEAM-NET
 10
466.666667
 20
-450.0
 30
580.0
 70
    64
  0
VERTEX
  5
195
  8
TEAM-NET
 10
388.888889
 20
-450.0
 30
580.0
 70
    64
  0
VERTEX
  5
196
  8
TEAM-NET
 10
311.111111
 20
-450.0
 30
580.0
 70
    64
  0
VERTEX
  5
197
  8
TEAM-NET
 10
233.333333
 20
-450.0
 30
580.0
 70
    64
  0
VERTEX
  5
198
  8
TEAM-NET
 10
155.555556
 20
-450.0
 30
580.0
 70
    64
  0
VERTEX
  5
199
  8
TEAM-NET
 10
77.777778
 20
-450.0
 30
580.0
 70
    64
  0
VERTEX
  5
19A
  8
TEAM-NET
 10
0.0
 20
-450.0
 30
580.0
 70
    64
  0
VERTEX
  5
19B
  8
TEAM-NET
 10
-77.777778
 20
-450.0
 30
580.0
 70
    64
  0
VERTEX
  5
19C
  8
TEAM-NET
 10
-155.555556
 20
-450.0
 30
580.0
 70
    64
  0
VERTEX
  5
19D
  8
TEAM-NET
 10
-233.333333
 20
-450.0
 30
580.0
 70
    64
  0
VERTEX
  5
19E
  8
TEAM-NET
 10
-311.111111
 20
-450.0
 30
580.0
 70
    64
  0
VERTEX
  5
19F
  8
TEAM-NET
 10
-388.888889
 20
-450.0
 30
580.0
 70
    64
  0
VERTEX
  5
1A0
  8
TEAM-NET
 10
-466.666667
 20
-450.0
 30
580.0
 70
    64
  0
VERTEX
  5
1A1
  8
TEAM-NET
 10
-544.444444
 20
-450.0
 30
580.0
 70
    64
  0
VERTEX
  5
1A2
  8
TEAM-NET
 10
-622.222222
 20
-450.0
 30
580.0
 70
    64
  0
VERTEX
  5
1A3
  8
TEAM-NET
 10
-700.0
 20
-450.0
 30
580.0
 70
    64
  0
VERTEX
  5
1A4
  8
TEAM-NET
 10
-777.777778
 20
-450.0
 30
580.0
 70
    64
  0
VERTEX
  5
1A5
  8
TEAM-NET
 10
-855.555556
 20
-450.0
 30
580.0
 70
    64
  0
VERTEX
  5
1A6
  8
TEAM-NET
 10
-933.333333
 20
-450.0
 30
580.0
 70
    64
  0
VERTEX
  5
1A7
  8
TEAM-NET
 10
-950.0
 20
-388.888889
 30
580.0
 70
    64
  0
VERTEX
  5
1A8
  8
TEAM-NET
 10
-950.0
 20
-311.111111
 30
580.0
 70
    64
  0
VERTEX
  5
1A9
  8
TEAM-NET
 10
-950.0
 20
-233.333333
 30
580.0
 70
    64
  0
VERTEX
  5
1AA
  8
TEAM-NET
 10
-950.0
 20
-155.555556
 30
580.0
 70
    64
  0
VERTEX
  5
1AB
  8
TEAM-NET
 10
-950.0
 20
-77.777778
 30
580.0
 70
    64
  0
VERTEX
  5
1AC
  8
TEAM-NET
 10
-950.0
 20
0.0
 30
580.0
 70
    64
  0
SEQEND
  5
1AD
  8
TEAM-NET
  0
POLYLINE
  5
1AE
  8
TEAM-BODY
 66
     1
 10
0.0
 20
0.0
 30
580.0
 39
-30.0
  0
VERTEX
  5
5F8
  8
TEAM-BODY
 10
950.0
 20
0.0
 30
580.0
  0
VERTEX
  5
5F9
  8
TEAM-BODY
 10
950.0
 20
-450.0
 30
580.0
  0
VERTEX
  5
5FA
  8
TEAM-BODY
 10
-950.0
 20
-450.0
 30
580.0
  0
VERTEX
  5
5FB
  8
TEAM-BODY
 10
-950.0
 20
0.0
 30
580.0
  0
SEQEND
  5
5FC
  8
TEAM-BODY
  0
POLYLINE
  5
1AF
  8
TEAM-BODY
 66
     1
 10
0.0
 20
0.0
 30
580.0
 39
-30.0
  0
VERTEX
  5
5FD
  8
TEAM-BODY
 10
950.0
 20
0.0
 30
580.0
  0
VERTEX
  5
5FE
  8
TEAM-BODY
 10
950.0
 20
450.0
 30
580.0
  0
VERTEX
  5
5FF
  8
TEAM-BODY
 10
-950.0
 20
450.0
 30
580.0
  0
VERTEX
  5
600
  8
TEAM-BODY
 10
-950.0
 20
0.0
 30
580.0
  0
SEQEND
  5
601
  8
TEAM-BODY
  0
TEXT
  5
1B0
  8
TEAM-TXT
 10
-581.400466
 20
343.014342
 30
580.0
 40
30.0
  1
team 121710
 41
0.8
 51
15.0
  7
TEAM
  0
ENDSEC
  0
EOF
