  0
SECTION
  2
HEADER
  9
$ACADVER
  1
AC1009
  9
$INSBASE
 10
0.0
 20
0.0
 30
0.0
  9
$EXTMIN
 10
-910.45705
 20
-410.423633
 30
-0.012586
  9
$EXTMAX
 10
910.516559
 20
410.463127
 30
580.009408
  9
$LIMMIN
 10
-910.45705
 20
-410.423633
  9
$LIMMAX
 10
910.516559
 20
410.463127
  9
$ORTHOMODE
 70
     1
  9
$REGENMODE
 70
     1
  9
$FILLMODE
 70
     1
  9
$QTEXTMODE
 70
     0
  9
$MIRRTEXT
 70
     0
  9
$DRAGMODE
 70
     2
  9
$LTSCALE
 40
25.0
  9
$OSMODE
 70
     0
  9
$ATTMODE
 70
     1
  9
$TEXTSIZE
 40
200.0
  9
$TRACEWID
 40
1.0
  9
$TEXTSTYLE
  7
STANDARD
  9
$CLAYER
  8
TEAM-MAS
  9
$CELTYPE
  6
BYLAYER
  9
$CECOLOR
 62
   256
  9
$DIMSCALE
 40
0.0
  9
$DIMASZ
 40
20.0
  9
$DIMEXO
 40
10.0
  9
$DIMDLI
 40
1.0
  9
$DIMRND
 40
0.0
  9
$DIMDLE
 40
0.0
  9
$DIMEXE
 40
1.0
  9
$DIMTP
 40
0.0
  9
$DIMTM
 40
0.0
  9
$DIMTXT
 40
35.0
  9
$DIMCEN
 40
1.0
  9
$DIMTSZ
 40
0.0
  9
$DIMTOL
 70
     0
  9
$DIMLIM
 70
     0
  9
$DIMTIH
 70
     0
  9
$DIMTOH
 70
     0
  9
$DIMSE1
 70
     0
  9
$DIMSE2
 70
     0
  9
$DIMTAD
 70
     0
  9
$DIMZIN
 70
     0
  9
$DIMBLK
  1

  9
$DIMASO
 70
     1
  9
$DIMSHO
 70
     0
  9
$DIMPOST
  1

  9
$DIMAPOST
  1

  9
$DIMALT
 70
     0
  9
$DIMALTD
 70
     2
  9
$DIMALTF
 40
25.4
  9
$DIMLFAC
 40
1.0
  9
$DIMTOFL
 70
     0
  9
$DIMTVP
 40
0.0
  9
$DIMTIX
 70
     0
  9
$DIMSOXD
 70
     0
  9
$DIMSAH
 70
     0
  9
$DIMBLK1
  1

  9
$DIMBLK2
  1

  9
$DIMSTYLE
  2
TEAM
  9
$DIMCLRD
 70
     9
  9
$DIMCLRE
 70
     9
  9
$DIMCLRT
 70
    11
  9
$DIMTFAC
 40
1.0
  9
$DIMGAP
 40
15.0
  9
$LUNITS
 70
     2
  9
$LUPREC
 70
     1
  9
$SKETCHINC
 40
1.0
  9
$FILLETRAD
 40
50.0
  9
$AUNITS
 70
     0
  9
$AUPREC
 70
     0
  9
$MENU
  1
ROPLANS
  9
$ELEVATION
 40
0.0
  9
$PELEVATION
 40
0.0
  9
$THICKNESS
 40
0.0
  9
$LIMCHECK
 70
     0
  9
$BLIPMODE
 70
     1
  9
$CHAMFERA
 40
0.0
  9
$CHAMFERB
 40
0.0
  9
$SKPOLY
 70
     0
  9
$TDCREATE
 40
2450392.957851
  9
$TDUPDATE
 40
2455493.945579
  9
$TDINDWG
 40
1.992456
  9
$TDUSRTIMER
 40
1.992456
  9
$USRTIMER
 70
     1
  9
$ANGBASE
 50
0.0
  9
$ANGDIR
 70
     0
  9
$PDMODE
 70
     0
  9
$PDSIZE
 40
0.0
  9
$PLINEWID
 40
0.0
  9
$COORDS
 70
     2
  9
$SPLFRAME
 70
     0
  9
$SPLINETYPE
 70
     6
  9
$SPLINESEGS
 70
     8
  9
$ATTDIA
 70
     0
  9
$ATTREQ
 70
     0
  9
$HANDLING
 70
     1
  9
$HANDSEED
  5
58B
  9
$SURFTAB1
 70
    24
  9
$SURFTAB2
 70
    24
  9
$SURFTYPE
 70
     6
  9
$SURFU
 70
     6
  9
$SURFV
 70
     6
  9
$UCSNAME
  2

  9
$UCSORG
 10
0.0
 20
0.0
 30
0.0
  9
$UCSXDIR
 10
1.0
 20
0.0
 30
0.0
  9
$UCSYDIR
 10
0.0
 20
1.0
 30
0.0
  9
$PUCSNAME
  2

  9
$PUCSORG
 10
0.0
 20
0.0
 30
0.0
  9
$PUCSXDIR
 10
1.0
 20
0.0
 30
0.0
  9
$PUCSYDIR
 10
0.0
 20
1.0
 30
0.0
  9
$USERI1
 70
     0
  9
$USERI2
 70
     0
  9
$USERI3
 70
     0
  9
$USERI4
 70
     0
  9
$USERI5
 70
     0
  9
$USERR1
 40
0.0
  9
$USERR2
 40
0.0
  9
$USERR3
 40
0.0
  9
$USERR4
 40
0.0
  9
$USERR5
 40
0.0
  9
$WORLDVIEW
 70
     1
  9
$SHADEDGE
 70
     0
  9
$SHADEDIF
 70
    70
  9
$TILEMODE
 70
     1
  9
$MAXACTVP
 70
    16
  9
$PLIMCHECK
 70
     0
  9
$PEXTMIN
 10
-0.805942
 20
0.005011
 30
0.0
  9
$PEXTMAX
 10
20.250094
 20
11.356329
 30
0.0
  9
$PLIMMIN
 10
0.0
 20
0.0
  9
$PLIMMAX
 10
12.0
 20
9.0
  9
$UNITMODE
 70
     0
  9
$VISRETAIN
 70
     0
  9
$PLINEGEN
 70
     0
  9
$PSLTSCALE
 70
     0
  0
ENDSEC
  0
SECTION
  2
TABLES
  0
TABLE
  2
VPORT
 70
     2
  0
VPORT
  2
*ACTIVE
 70
     0
 10
0.0
 20
0.0
 11
1.0
 21
1.0
 12
0.029754
 22
0.019747
 13
0.0
 23
0.0
 14
1.0
 24
1.0
 15
50.0
 25
50.0
 16
0.0
 26
0.0
 36
1.0
 17
0.0
 27
0.0
 37
0.0
 40
979.198332
 41
1.865779
 42
50.0
 43
0.0
 44
0.0
 50
0.0
 51
0.0
 71
     0
 72
   100
 73
     1
 74
     1
 75
     0
 76
     0
 77
     0
 78
     0
  0
ENDTAB
  0
TABLE
  2
LTYPE
 70
     2
  0
LTYPE
  2
CONTINUOUS
 70
     0
  3
Solid Line
 72
    65
 73
     0
 40
0.0
  0
LTYPE
  2
31
 70
     0
  3

 72
    65
 73
     4
 40
2.1
 49
1.5
 49
-0.3
 49
0.0
 49
-0.3
  0
ENDTAB
  0
TABLE
  2
LAYER
 70
     9
  0
LAYER
  2
0
 70
     0
 62
     7
  6
CONTINUOUS
  0
LAYER
  2
TEAM-BODY
 70
     0
 62
     2
  6
CONTINUOUS
  0
LAYER
  2
TEAM-AXE
 70
     0
 62
    10
  6
31
  0
LAYER
  2
TEAM-MAS
 70
     0
 62
     9
  6
CONTINUOUS
  0
LAYER
  2
TEAM-TXT
 70
     0
 62
    11
  6
CONTINUOUS
  0
LAYER
  2
TEAM-DET1
 70
     0
 62
     4
  6
CONTINUOUS
  0
LAYER
  2
TEAM-KAN
 70
     0
 62
     6
  6
CONTINUOUS
  0
LAYER
  2
TEAM-NET
 70
     0
 62
    15
  6
CONTINUOUS
  0
LAYER
  2
TEAM-INSP
 70
     0
 62
     5
  6
CONTINUOUS
  0
ENDTAB
  0
TABLE
  2
STYLE
 70
     2
  0
STYLE
  2
STANDARD
 70
     0
 40
0.0
 41
1.0
 50
0.0
 71
     0
 42
200.0
  3
txt
  4

  0
STYLE
  2
TEAM
 70
     0
 40
0.0
 41
0.8
 50
15.0
 71
     0
 42
7.0
  3
ROMANS.shx
  4

  0
ENDTAB
  0
TABLE
  2
VIEW
 70
     0
  0
ENDTAB
  0
TABLE
  2
UCS
 70
     0
  0
ENDTAB
  0
TABLE
  2
APPID
 70
     1
  0
APPID
  2
ACAD
 70
     0
  0
ENDTAB
  0
TABLE
  2
DIMSTYLE
 70
     1
  0
DIMSTYLE
  2
TEAM
 70
     0
  3

  4

  5

  6

  7

 40
0.0
 41
20.0
 42
10.0
 43
1.0
 44
1.0
 45
0.0
 46
0.0
 47
0.0
 48
0.0
140
35.0
141
1.0
142
0.0
143
25.4
144
1.0
145
0.0
146
1.0
147
15.0
 71
     0
 72
     0
 73
     0
 74
     0
 75
     0
 76
     0
 77
     0
 78
     0
170
     0
171
     2
172
     0
173
     0
174
     0
175
     0
176
     9
177
     9
178
    11
  0
ENDTAB
  0
ENDSEC
  0
SECTION
  2
BLOCKS
  0
BLOCK
  8
0
  2
$MODEL_SPACE
 70
     0
 10
0.0
 20
0.0
 30
0.0
  3
$MODEL_SPACE
  1

  0
ENDBLK
  5
4FC
  8
0
  0
BLOCK
 67
     1
  8
0
  2
$PAPER_SPACE
 70
     0
 10
0.0
 20
0.0
 30
0.0
  3
$PAPER_SPACE
  1

  0
ENDBLK
  5
4FA
 67
     1
  8
0
  0
ENDSEC
  0
SECTION
  2
ENTITIES
  0
POLYLINE
  5
20
  8
TEAM-NET
 66
     1
 10
0.0
 20
0.0
 30
0.0
 70
    16
 71
     2
 72
    25
  0
VERTEX
  5
21
  8
TEAM-NET
 10
662.396648
 20
0.0
 30
110.0
 70
    64
  0
VERTEX
  5
22
  8
TEAM-NET
 10
654.817263
 20
50.42105
 30
110.0
 70
    64
  0
VERTEX
  5
23
  8
TEAM-NET
 10
632.749042
 20
96.385417
 30
110.0
 70
    64
  0
VERTEX
  5
24
  8
TEAM-NET
 10
598.142582
 20
133.83034
 30
110.0
 70
    64
  0
VERTEX
  5
25
  8
TEAM-NET
 10
554.056725
 20
159.446089
 30
110.0
 70
    64
  0
VERTEX
  5
26
  8
TEAM-NET
 10
504.388191
 20
170.968503
 30
110.0
 70
    64
  0
VERTEX
  5
27
  8
TEAM-NET
 10
453.22493
 20
171.500003
 30
110.0
 70
    64
  0
VERTEX
  5
28
  8
TEAM-NET
 10
402.047715
 20
171.500003
 30
110.0
 70
    64
  0
VERTEX
  5
29
  8
TEAM-NET
 10
350.8705
 20
171.500003
 30
110.0
 70
    64
  0
VERTEX
  5
2A
  8
TEAM-NET
 10
299.693286
 20
171.500003
 30
110.0
 70
    64
  0
VERTEX
  5
2B
  8
TEAM-NET
 10
248.516071
 20
171.500003
 30
110.0
 70
    64
  0
VERTEX
  5
2C
  8
TEAM-NET
 10
197.338856
 20
171.500003
 30
110.0
 70
    64
  0
VERTEX
  5
2D
  8
TEAM-NET
 10
146.161641
 20
171.500003
 30
110.0
 70
    64
  0
VERTEX
  5
2E
  8
TEAM-NET
 10
94.984426
 20
171.500003
 30
110.0
 70
    64
  0
VERTEX
  5
2F
  8
TEAM-NET
 10
43.807211
 20
171.500003
 30
110.0
 70
    64
  0
VERTEX
  5
30
  8
TEAM-NET
 10
-7.370004
 20
171.500003
 30
110.0
 70
    64
  0
VERTEX
  5
31
  8
TEAM-NET
 10
-58.547219
 20
171.500003
 30
110.0
 70
    64
  0
VERTEX
  5
32
  8
TEAM-NET
 10
-109.724434
 20
171.500003
 30
110.0
 70
    64
  0
VERTEX
  5
33
  8
TEAM-NET
 10
-160.901649
 20
171.500003
 30
110.0
 70
    64
  0
VERTEX
  5
34
  8
TEAM-NET
 10
-212.064909
 20
170.968503
 30
110.0
 70
    64
  0
VERTEX
  5
35
  8
TEAM-NET
 10
-261.733444
 20
159.446089
 30
110.0
 70
    64
  0
VERTEX
  5
36
  8
TEAM-NET
 10
-305.819301
 20
133.83034
 30
110.0
 70
    64
  0
VERTEX
  5
37
  8
TEAM-NET
 10
-340.425761
 20
96.385417
 30
110.0
 70
    64
  0
VERTEX
  5
38
  8
TEAM-NET
 10
-362.493981
 20
50.42105
 30
110.0
 70
    64
  0
VERTEX
  5
39
  8
TEAM-NET
 10
-370.073367
 20
0.0
 30
110.0
 70
    64
  0
VERTEX
  5
3A
  8
TEAM-NET
 10
839.999999
 20
0.0
 30
580.0
 70
    64
  0
VERTEX
  5
3B
  8
TEAM-NET
 10
829.138167
 20
85.252955
 30
580.0
 70
    64
  0
VERTEX
  5
3C
  8
TEAM-NET
 10
797.246668
 20
165.058833
 30
580.0
 70
    64
  0
VERTEX
  5
3D
  8
TEAM-NET
 10
746.363149
 20
234.318585
 30
580.0
 70
    64
  0
VERTEX
  5
3E
  8
TEAM-NET
 10
679.738717
 20
288.60699
 30
580.0
 70
    64
  0
VERTEX
  5
3F
  8
TEAM-NET
 10
601.630217
 20
324.455392
 30
580.0
 70
    64
  0
VERTEX
  5
40
  8
TEAM-NET
 10
517.028243
 20
339.573324
 30
580.0
 70
    64
  0
VERTEX
  5
41
  8
TEAM-NET
 10
430.862806
 20
340.000005
 30
580.0
 70
    64
  0
VERTEX
  5
42
  8
TEAM-NET
 10
344.690242
 20
340.000005
 30
580.0
 70
    64
  0
VERTEX
  5
43
  8
TEAM-NET
 10
258.517678
 20
340.000005
 30
580.0
 70
    64
  0
VERTEX
  5
44
  8
TEAM-NET
 10
172.345114
 20
340.000005
 30
580.0
 70
    64
  0
VERTEX
  5
45
  8
TEAM-NET
 10
86.17255
 20
340.000005
 30
580.0
 70
    64
  0
VERTEX
  5
46
  8
TEAM-NET
 10
-0.000013
 20
340.000005
 30
580.0
 70
    64
  0
VERTEX
  5
47
  8
TEAM-NET
 10
-86.172577
 20
340.000005
 30
580.0
 70
    64
  0
VERTEX
  5
48
  8
TEAM-NET
 10
-172.345141
 20
340.000005
 30
580.0
 70
    64
  0
VERTEX
  5
49
  8
TEAM-NET
 10
-258.517705
 20
340.000005
 30
580.0
 70
    64
  0
VERTEX
  5
4A
  8
TEAM-NET
 10
-344.690269
 20
340.000005
 30
580.0
 70
    64
  0
VERTEX
  5
4B
  8
TEAM-NET
 10
-430.862833
 20
340.000005
 30
580.0
 70
    64
  0
VERTEX
  5
4C
  8
TEAM-NET
 10
-517.02827
 20
339.573324
 30
580.0
 70
    64
  0
VERTEX
  5
4D
  8
TEAM-NET
 10
-601.630244
 20
324.455392
 30
580.0
 70
    64
  0
VERTEX
  5
4E
  8
TEAM-NET
 10
-679.738744
 20
288.60699
 30
580.0
 70
    64
  0
VERTEX
  5
4F
  8
TEAM-NET
 10
-746.363176
 20
234.318585
 30
580.0
 70
    64
  0
VERTEX
  5
50
  8
TEAM-NET
 10
-797.246695
 20
165.058833
 30
580.0
 70
    64
  0
VERTEX
  5
51
  8
TEAM-NET
 10
-829.138194
 20
85.252955
 30
580.0
 70
    64
  0
VERTEX
  5
52
  8
TEAM-NET
 10
-840.000026
 20
0.0
 30
580.0
 70
    64
  0
SEQEND
  5
54
  8
TEAM-NET
  0
POLYLINE
  5
55
  8
TEAM-NET
 66
     1
 10
0.0
 20
0.0
 30
0.0
 70
    16
 71
     2
 72
    25
  0
VERTEX
  5
56
  8
TEAM-NET
 10
839.999999
 20
0.0
 30
580.0
 70
    64
  0
VERTEX
  5
57
  8
TEAM-NET
 10
829.138167
 20
-85.252955
 30
580.0
 70
    64
  0
VERTEX
  5
58
  8
TEAM-NET
 10
797.246668
 20
-165.058833
 30
580.0
 70
    64
  0
VERTEX
  5
59
  8
TEAM-NET
 10
746.363149
 20
-234.318585
 30
580.0
 70
    64
  0
VERTEX
  5
5A
  8
TEAM-NET
 10
679.738717
 20
-288.60699
 30
580.0
 70
    64
  0
VERTEX
  5
5B
  8
TEAM-NET
 10
601.630217
 20
-324.455392
 30
580.0
 70
    64
  0
VERTEX
  5
5C
  8
TEAM-NET
 10
517.028243
 20
-339.573324
 30
580.0
 70
    64
  0
VERTEX
  5
5D
  8
TEAM-NET
 10
430.862806
 20
-340.000005
 30
580.0
 70
    64
  0
VERTEX
  5
5E
  8
TEAM-NET
 10
344.690242
 20
-340.000005
 30
580.0
 70
    64
  0
VERTEX
  5
5F
  8
TEAM-NET
 10
258.517678
 20
-340.000005
 30
580.0
 70
    64
  0
VERTEX
  5
60
  8
TEAM-NET
 10
172.345114
 20
-340.000005
 30
580.0
 70
    64
  0
VERTEX
  5
61
  8
TEAM-NET
 10
86.17255
 20
-340.000005
 30
580.0
 70
    64
  0
VERTEX
  5
62
  8
TEAM-NET
 10
-0.000013
 20
-340.000005
 30
580.0
 70
    64
  0
VERTEX
  5
63
  8
TEAM-NET
 10
-86.172577
 20
-340.000005
 30
580.0
 70
    64
  0
VERTEX
  5
64
  8
TEAM-NET
 10
-172.345141
 20
-340.000005
 30
580.0
 70
    64
  0
VERTEX
  5
65
  8
TEAM-NET
 10
-258.517705
 20
-340.000005
 30
580.0
 70
    64
  0
VERTEX
  5
66
  8
TEAM-NET
 10
-344.690269
 20
-340.000005
 30
580.0
 70
    64
  0
VERTEX
  5
67
  8
TEAM-NET
 10
-430.862833
 20
-340.000005
 30
580.0
 70
    64
  0
VERTEX
  5
68
  8
TEAM-NET
 10
-517.02827
 20
-339.573324
 30
580.0
 70
    64
  0
VERTEX
  5
69
  8
TEAM-NET
 10
-601.630244
 20
-324.455392
 30
580.0
 70
    64
  0
VERTEX
  5
6A
  8
TEAM-NET
 10
-679.738744
 20
-288.60699
 30
580.0
 70
    64
  0
VERTEX
  5
6B
  8
TEAM-NET
 10
-746.363176
 20
-234.318585
 30
580.0
 70
    64
  0
VERTEX
  5
6C
  8
TEAM-NET
 10
-797.246695
 20
-165.058833
 30
580.0
 70
    64
  0
VERTEX
  5
6D
  8
TEAM-NET
 10
-829.138194
 20
-85.252955
 30
580.0
 70
    64
  0
VERTEX
  5
6E
  8
TEAM-NET
 10
-840.000026
 20
0.0
 30
580.0
 70
    64
  0
VERTEX
  5
6F
  8
TEAM-NET
 10
662.396648
 20
0.0
 30
110.0
 70
    64
  0
VERTEX
  5
70
  8
TEAM-NET
 10
654.817263
 20
-50.42105
 30
110.0
 70
    64
  0
VERTEX
  5
71
  8
TEAM-NET
 10
632.749042
 20
-96.385417
 30
110.0
 70
    64
  0
VERTEX
  5
72
  8
TEAM-NET
 10
598.142582
 20
-133.83034
 30
110.0
 70
    64
  0
VERTEX
  5
73
  8
TEAM-NET
 10
554.056725
 20
-159.446089
 30
110.0
 70
    64
  0
VERTEX
  5
74
  8
TEAM-NET
 10
504.388191
 20
-170.968503
 30
110.0
 70
    64
  0
VERTEX
  5
75
  8
TEAM-NET
 10
453.22493
 20
-171.500003
 30
110.0
 70
    64
  0
VERTEX
  5
76
  8
TEAM-NET
 10
402.047715
 20
-171.500003
 30
110.0
 70
    64
  0
VERTEX
  5
77
  8
TEAM-NET
 10
350.8705
 20
-171.500003
 30
110.0
 70
    64
  0
VERTEX
  5
78
  8
TEAM-NET
 10
299.693286
 20
-171.500003
 30
110.0
 70
    64
  0
VERTEX
  5
79
  8
TEAM-NET
 10
248.516071
 20
-171.500003
 30
110.0
 70
    64
  0
VERTEX
  5
7A
  8
TEAM-NET
 10
197.338856
 20
-171.500003
 30
110.0
 70
    64
  0
VERTEX
  5
7B
  8
TEAM-NET
 10
146.161641
 20
-171.500003
 30
110.0
 70
    64
  0
VERTEX
  5
7C
  8
TEAM-NET
 10
94.984426
 20
-171.500003
 30
110.0
 70
    64
  0
VERTEX
  5
7D
  8
TEAM-NET
 10
43.807211
 20
-171.500003
 30
110.0
 70
    64
  0
VERTEX
  5
7E
  8
TEAM-NET
 10
-7.370004
 20
-171.500003
 30
110.0
 70
    64
  0
VERTEX
  5
7F
  8
TEAM-NET
 10
-58.547219
 20
-171.500003
 30
110.0
 70
    64
  0
VERTEX
  5
80
  8
TEAM-NET
 10
-109.724434
 20
-171.500003
 30
110.0
 70
    64
  0
VERTEX
  5
81
  8
TEAM-NET
 10
-160.901649
 20
-171.500003
 30
110.0
 70
    64
  0
VERTEX
  5
82
  8
TEAM-NET
 10
-212.064909
 20
-170.968503
 30
110.0
 70
    64
  0
VERTEX
  5
83
  8
TEAM-NET
 10
-261.733444
 20
-159.446089
 30
110.0
 70
    64
  0
VERTEX
  5
84
  8
TEAM-NET
 10
-305.819301
 20
-133.83034
 30
110.0
 70
    64
  0
VERTEX
  5
85
  8
TEAM-NET
 10
-340.425761
 20
-96.385417
 30
110.0
 70
    64
  0
VERTEX
  5
86
  8
TEAM-NET
 10
-362.493981
 20
-50.42105
 30
110.0
 70
    64
  0
VERTEX
  5
87
  8
TEAM-NET
 10
-370.073367
 20
0.0
 30
110.0
 70
    64
  0
SEQEND
  5
88
  8
TEAM-NET
  0
CIRCLE
  5
89
  8
TEAM-INSP
 10
0.0
 20
0.0
 30
0.0
 40
10.0
  0
CIRCLE
  5
8B
  8
TEAM-DET1
 10
511.999987
 20
0.0
 30
110.0
 40
35.0
  0
CIRCLE
  5
8D
  8
TEAM-KAN
 10
511.999987
 20
0.0
 30
110.0
 40
26.0
  0
POLYLINE
  5
8F
  8
TEAM-BODY
 66
     1
 10
0.0
 20
0.0
 30
110.0
  0
VERTEX
  5
502
  8
TEAM-BODY
 10
662.396648
 20
0.0
 30
110.0
 42
-0.414214
  0
VERTEX
  5
503
  8
TEAM-BODY
 10
490.896646
 20
-171.500003
 30
110.0
  0
VERTEX
  5
504
  8
TEAM-BODY
 10
-198.573364
 20
-171.500003
 30
110.0
 42
-0.414214
  0
VERTEX
  5
505
  8
TEAM-BODY
 10
-370.073367
 20
0.0
 30
110.0
  0
SEQEND
  5
506
  8
TEAM-BODY
  0
POLYLINE
  5
91
  8
TEAM-BODY
 66
     1
 10
0.0
 20
0.0
 30
110.0
  0
VERTEX
  5
507
  8
TEAM-BODY
 10
662.396648
 20
0.0
 30
110.0
 42
0.414214
  0
VERTEX
  5
508
  8
TEAM-BODY
 10
490.896646
 20
171.500003
 30
110.0
  0
VERTEX
  5
509
  8
TEAM-BODY
 10
-198.573364
 20
171.500003
 30
110.0
 42
0.414214
  0
VERTEX
  5
50A
  8
TEAM-BODY
 10
-370.073367
 20
0.0
 30
110.0
  0
SEQEND
  5
50B
  8
TEAM-BODY
  0
POLYLINE
  5
92
  8
TEAM-NET
 66
     1
 10
0.0
 20
0.0
 30
0.0
 70
    16
 71
     2
 72
    25
  0
VERTEX
  5
93
  8
TEAM-NET
 10
662.396648
 20
0.0
 30
110.0
 70
    64
  0
VERTEX
  5
94
  8
TEAM-NET
 10
654.817263
 20
-50.42105
 30
110.0
 70
    64
  0
VERTEX
  5
95
  8
TEAM-NET
 10
632.749042
 20
-96.385417
 30
110.0
 70
    64
  0
VERTEX
  5
96
  8
TEAM-NET
 10
598.142582
 20
-133.83034
 30
110.0
 70
    64
  0
VERTEX
  5
97
  8
TEAM-NET
 10
554.056725
 20
-159.446089
 30
110.0
 70
    64
  0
VERTEX
  5
98
  8
TEAM-NET
 10
504.388191
 20
-170.968503
 30
110.0
 70
    64
  0
VERTEX
  5
99
  8
TEAM-NET
 10
453.22493
 20
-171.500003
 30
110.0
 70
    64
  0
VERTEX
  5
9A
  8
TEAM-NET
 10
402.047715
 20
-171.500003
 30
110.0
 70
    64
  0
VERTEX
  5
9B
  8
TEAM-NET
 10
350.8705
 20
-171.500003
 30
110.0
 70
    64
  0
VERTEX
  5
9C
  8
TEAM-NET
 10
299.693286
 20
-171.500003
 30
110.0
 70
    64
  0
VERTEX
  5
9D
  8
TEAM-NET
 10
248.516071
 20
-171.500003
 30
110.0
 70
    64
  0
VERTEX
  5
9E
  8
TEAM-NET
 10
197.338856
 20
-171.500003
 30
110.0
 70
    64
  0
VERTEX
  5
9F
  8
TEAM-NET
 10
146.161641
 20
-171.500003
 30
110.0
 70
    64
  0
VERTEX
  5
A0
  8
TEAM-NET
 10
94.984426
 20
-171.500003
 30
110.0
 70
    64
  0
VERTEX
  5
A1
  8
TEAM-NET
 10
43.807211
 20
-171.500003
 30
110.0
 70
    64
  0
VERTEX
  5
A2
  8
TEAM-NET
 10
-7.370004
 20
-171.500003
 30
110.0
 70
    64
  0
VERTEX
  5
A3
  8
TEAM-NET
 10
-58.547219
 20
-171.500003
 30
110.0
 70
    64
  0
VERTEX
  5
A4
  8
TEAM-NET
 10
-109.724434
 20
-171.500003
 30
110.0
 70
    64
  0
VERTEX
  5
A5
  8
TEAM-NET
 10
-160.901649
 20
-171.500003
 30
110.0
 70
    64
  0
VERTEX
  5
A6
  8
TEAM-NET
 10
-212.064909
 20
-170.968503
 30
110.0
 70
    64
  0
VERTEX
  5
A7
  8
TEAM-NET
 10
-261.733444
 20
-159.446089
 30
110.0
 70
    64
  0
VERTEX
  5
A8
  8
TEAM-NET
 10
-305.819301
 20
-133.83034
 30
110.0
 70
    64
  0
VERTEX
  5
A9
  8
TEAM-NET
 10
-340.425761
 20
-96.385417
 30
110.0
 70
    64
  0
VERTEX
  5
AA
  8
TEAM-NET
 10
-362.493981
 20
-50.42105
 30
110.0
 70
    64
  0
VERTEX
  5
AB
  8
TEAM-NET
 10
-370.073367
 20
0.0
 30
110.0
 70
    64
  0
VERTEX
  5
AC
  8
TEAM-NET
 10
662.396648
 20
0.0
 30
110.0
 70
    64
  0
VERTEX
  5
AD
  8
TEAM-NET
 10
654.817263
 20
50.42105
 30
110.0
 70
    64
  0
VERTEX
  5
AE
  8
TEAM-NET
 10
632.749042
 20
96.385417
 30
110.0
 70
    64
  0
VERTEX
  5
AF
  8
TEAM-NET
 10
598.142582
 20
133.83034
 30
110.0
 70
    64
  0
VERTEX
  5
B0
  8
TEAM-NET
 10
554.056725
 20
159.446089
 30
110.0
 70
    64
  0
VERTEX
  5
B1
  8
TEAM-NET
 10
504.388191
 20
170.968503
 30
110.0
 70
    64
  0
VERTEX
  5
B2
  8
TEAM-NET
 10
453.22493
 20
171.500003
 30
110.0
 70
    64
  0
VERTEX
  5
B3
  8
TEAM-NET
 10
402.047715
 20
171.500003
 30
110.0
 70
    64
  0
VERTEX
  5
B4
  8
TEAM-NET
 10
350.8705
 20
171.500003
 30
110.0
 70
    64
  0
VERTEX
  5
B5
  8
TEAM-NET
 10
299.693286
 20
171.500003
 30
110.0
 70
    64
  0
VERTEX
  5
B6
  8
TEAM-NET
 10
248.516071
 20
171.500003
 30
110.0
 70
    64
  0
VERTEX
  5
B7
  8
TEAM-NET
 10
197.338856
 20
171.500003
 30
110.0
 70
    64
  0
VERTEX
  5
B8
  8
TEAM-NET
 10
146.161641
 20
171.500003
 30
110.0
 70
    64
  0
VERTEX
  5
B9
  8
TEAM-NET
 10
94.984426
 20
171.500003
 30
110.0
 70
    64
  0
VERTEX
  5
BA
  8
TEAM-NET
 10
43.807211
 20
171.500003
 30
110.0
 70
    64
  0
VERTEX
  5
BB
  8
TEAM-NET
 10
-7.370004
 20
171.500003
 30
110.0
 70
    64
  0
VERTEX
  5
BC
  8
TEAM-NET
 10
-58.547219
 20
171.500003
 30
110.0
 70
    64
  0
VERTEX
  5
BD
  8
TEAM-NET
 10
-109.724434
 20
171.500003
 30
110.0
 70
    64
  0
VERTEX
  5
BE
  8
TEAM-NET
 10
-160.901649
 20
171.500003
 30
110.0
 70
    64
  0
VERTEX
  5
BF
  8
TEAM-NET
 10
-212.064909
 20
170.968503
 30
110.0
 70
    64
  0
VERTEX
  5
C0
  8
TEAM-NET
 10
-261.733444
 20
159.446089
 30
110.0
 70
    64
  0
VERTEX
  5
C1
  8
TEAM-NET
 10
-305.819301
 20
133.83034
 30
110.0
 70
    64
  0
VERTEX
  5
C2
  8
TEAM-NET
 10
-340.425761
 20
96.385417
 30
110.0
 70
    64
  0
VERTEX
  5
C3
  8
TEAM-NET
 10
-362.493981
 20
50.42105
 30
110.0
 70
    64
  0
VERTEX
  5
C4
  8
TEAM-NET
 10
-370.073367
 20
0.0
 30
110.0
 70
    64
  0
SEQEND
  5
C5
  8
TEAM-NET
  0
POLYLINE
  5
C6
  8
TEAM-KAN
 66
     1
 10
0.0
 20
0.0
 30
530.0
  0
VERTEX
  5
50C
  8
TEAM-KAN
 10
795.422735
 20
-26.143864
 30
530.0
  0
VERTEX
  5
50D
  8
TEAM-KAN
 10
795.732735
 20
-26.093864
 30
530.0
  0
VERTEX
  5
50E
  8
TEAM-KAN
 10
796.052735
 20
-25.943864
 30
530.0
  0
VERTEX
  5
50F
  8
TEAM-KAN
 10
796.362735
 20
-25.683864
 30
530.0
  0
VERTEX
  5
510
  8
TEAM-KAN
 10
796.662735
 20
-25.333864
 30
530.0
  0
VERTEX
  5
511
  8
TEAM-KAN
 10
796.962735
 20
-24.873864
 30
530.0
  0
VERTEX
  5
512
  8
TEAM-KAN
 10
797.262735
 20
-24.323864
 30
530.0
  0
VERTEX
  5
513
  8
TEAM-KAN
 10
797.552735
 20
-23.673864
 30
530.0
  0
VERTEX
  5
514
  8
TEAM-KAN
 10
797.832735
 20
-22.933864
 30
530.0
  0
VERTEX
  5
515
  8
TEAM-KAN
 10
798.102735
 20
-22.093864
 30
530.0
  0
VERTEX
  5
516
  8
TEAM-KAN
 10
798.362735
 20
-21.183864
 30
530.0
  0
VERTEX
  5
517
  8
TEAM-KAN
 10
798.612735
 20
-20.183864
 30
530.0
  0
VERTEX
  5
518
  8
TEAM-KAN
 10
798.842735
 20
-19.093864
 30
530.0
  0
VERTEX
  5
519
  8
TEAM-KAN
 10
799.072735
 20
-17.943864
 30
530.0
  0
VERTEX
  5
51A
  8
TEAM-KAN
 10
799.272735
 20
-16.723864
 30
530.0
  0
VERTEX
  5
51B
  8
TEAM-KAN
 10
799.462735
 20
-15.433864
 30
530.0
  0
VERTEX
  5
51C
  8
TEAM-KAN
 10
799.642735
 20
-14.073864
 30
530.0
  0
VERTEX
  5
51D
  8
TEAM-KAN
 10
799.802735
 20
-12.673864
 30
530.0
  0
VERTEX
  5
51E
  8
TEAM-KAN
 10
799.942735
 20
-11.213864
 30
530.0
  0
VERTEX
  5
51F
  8
TEAM-KAN
 10
800.072735
 20
-9.723864
 30
530.0
  0
VERTEX
  5
520
  8
TEAM-KAN
 10
800.182735
 20
-8.183864
 30
530.0
  0
VERTEX
  5
521
  8
TEAM-KAN
 10
800.262735
 20
-6.613864
 30
530.0
  0
VERTEX
  5
522
  8
TEAM-KAN
 10
800.332735
 20
-5.023864
 30
530.0
  0
VERTEX
  5
523
  8
TEAM-KAN
 10
800.382735
 20
-3.403864
 30
530.0
  0
VERTEX
  5
524
  8
TEAM-KAN
 10
800.412735
 20
-1.773864
 30
530.0
  0
VERTEX
  5
525
  8
TEAM-KAN
 10
800.422735
 20
-0.143864
 30
530.0
  0
VERTEX
  5
526
  8
TEAM-KAN
 10
800.412735
 20
1.486136
 30
530.0
  0
VERTEX
  5
527
  8
TEAM-KAN
 10
800.382735
 20
3.116136
 30
530.0
  0
VERTEX
  5
528
  8
TEAM-KAN
 10
800.332735
 20
4.726136
 30
530.0
  0
VERTEX
  5
529
  8
TEAM-KAN
 10
800.262735
 20
6.316136
 30
530.0
  0
VERTEX
  5
52A
  8
TEAM-KAN
 10
800.182735
 20
7.886136
 30
530.0
  0
VERTEX
  5
52B
  8
TEAM-KAN
 10
800.072735
 20
9.426136
 30
530.0
  0
VERTEX
  5
52C
  8
TEAM-KAN
 10
799.942735
 20
10.926136
 30
530.0
  0
VERTEX
  5
52D
  8
TEAM-KAN
 10
799.802735
 20
12.376136
 30
530.0
  0
VERTEX
  5
52E
  8
TEAM-KAN
 10
799.642735
 20
13.786136
 30
530.0
  0
VERTEX
  5
52F
  8
TEAM-KAN
 10
799.462735
 20
15.136136
 30
530.0
  0
VERTEX
  5
530
  8
TEAM-KAN
 10
799.272735
 20
16.426136
 30
530.0
  0
VERTEX
  5
531
  8
TEAM-KAN
 10
799.072735
 20
17.656136
 30
530.0
  0
VERTEX
  5
532
  8
TEAM-KAN
 10
798.842735
 20
18.806136
 30
530.0
  0
VERTEX
  5
533
  8
TEAM-KAN
 10
798.612735
 20
19.886136
 30
530.0
  0
VERTEX
  5
534
  8
TEAM-KAN
 10
798.362735
 20
20.886136
 30
530.0
  0
VERTEX
  5
535
  8
TEAM-KAN
 10
798.102735
 20
21.806136
 30
530.0
  0
VERTEX
  5
536
  8
TEAM-KAN
 10
797.832735
 20
22.636137
 30
530.0
  0
VERTEX
  5
537
  8
TEAM-KAN
 10
797.552735
 20
23.376137
 30
530.0
  0
VERTEX
  5
538
  8
TEAM-KAN
 10
797.262735
 20
24.026137
 30
530.0
  0
VERTEX
  5
539
  8
TEAM-KAN
 10
796.962735
 20
24.586137
 30
530.0
  0
VERTEX
  5
53A
  8
TEAM-KAN
 10
796.662735
 20
25.036137
 30
530.0
  0
VERTEX
  5
53B
  8
TEAM-KAN
 10
796.362735
 20
25.396137
 30
530.0
  0
SEQEND
  5
53C
  8
TEAM-KAN
  0
POLYLINE
  5
C7
  8
TEAM-KAN
 66
     1
 10
0.0
 20
0.0
 30
530.0
  0
VERTEX
  5
53D
  8
TEAM-KAN
 10
796.362735
 20
25.396137
 30
530.0
  0
VERTEX
  5
53E
  8
TEAM-KAN
 10
796.052735
 20
25.646137
 30
530.0
  0
VERTEX
  5
53F
  8
TEAM-KAN
 10
795.732735
 20
25.796137
 30
530.0
  0
VERTEX
  5
540
  8
TEAM-KAN
 10
795.422735
 20
25.856137
 30
530.0
  0
VERTEX
  5
541
  8
TEAM-KAN
 10
795.112735
 20
25.796137
 30
530.0
  0
VERTEX
  5
542
  8
TEAM-KAN
 10
794.792735
 20
25.646137
 30
530.0
  0
VERTEX
  5
543
  8
TEAM-KAN
 10
794.482735
 20
25.396137
 30
530.0
  0
VERTEX
  5
544
  8
TEAM-KAN
 10
794.182735
 20
25.036137
 30
530.0
  0
VERTEX
  5
545
  8
TEAM-KAN
 10
793.872735
 20
24.586137
 30
530.0
  0
VERTEX
  5
546
  8
TEAM-KAN
 10
793.582735
 20
24.026137
 30
530.0
  0
VERTEX
  5
547
  8
TEAM-KAN
 10
793.292735
 20
23.376137
 30
530.0
  0
VERTEX
  5
548
  8
TEAM-KAN
 10
793.012735
 20
22.636137
 30
530.0
  0
VERTEX
  5
549
  8
TEAM-KAN
 10
792.742735
 20
21.806136
 30
530.0
  0
VERTEX
  5
54A
  8
TEAM-KAN
 10
792.482735
 20
20.886136
 30
530.0
  0
VERTEX
  5
54B
  8
TEAM-KAN
 10
792.232735
 20
19.886136
 30
530.0
  0
VERTEX
  5
54C
  8
TEAM-KAN
 10
792.002735
 20
18.806136
 30
530.0
  0
VERTEX
  5
54D
  8
TEAM-KAN
 10
791.772735
 20
17.656136
 30
530.0
  0
VERTEX
  5
54E
  8
TEAM-KAN
 10
791.572735
 20
16.426136
 30
530.0
  0
VERTEX
  5
54F
  8
TEAM-KAN
 10
791.372735
 20
15.136136
 30
530.0
  0
VERTEX
  5
550
  8
TEAM-KAN
 10
791.202735
 20
13.786136
 30
530.0
  0
VERTEX
  5
551
  8
TEAM-KAN
 10
791.042735
 20
12.376136
 30
530.0
  0
VERTEX
  5
552
  8
TEAM-KAN
 10
790.902735
 20
10.926136
 30
530.0
  0
VERTEX
  5
553
  8
TEAM-KAN
 10
790.772735
 20
9.426136
 30
530.0
  0
VERTEX
  5
554
  8
TEAM-KAN
 10
790.672735
 20
7.886136
 30
530.0
  0
VERTEX
  5
555
  8
TEAM-KAN
 10
790.582735
 20
6.316136
 30
530.0
  0
VERTEX
  5
556
  8
TEAM-KAN
 10
790.512735
 20
4.726136
 30
530.0
  0
VERTEX
  5
557
  8
TEAM-KAN
 10
790.462735
 20
3.116136
 30
530.0
  0
VERTEX
  5
558
  8
TEAM-KAN
 10
790.432735
 20
1.486136
 30
530.0
  0
VERTEX
  5
559
  8
TEAM-KAN
 10
790.422735
 20
-0.143864
 30
530.0
  0
VERTEX
  5
55A
  8
TEAM-KAN
 10
790.432735
 20
-1.773864
 30
530.0
  0
VERTEX
  5
55B
  8
TEAM-KAN
 10
790.462735
 20
-3.403864
 30
530.0
  0
VERTEX
  5
55C
  8
TEAM-KAN
 10
790.512735
 20
-5.023864
 30
530.0
  0
VERTEX
  5
55D
  8
TEAM-KAN
 10
790.582735
 20
-6.613864
 30
530.0
  0
VERTEX
  5
55E
  8
TEAM-KAN
 10
790.672735
 20
-8.183864
 30
530.0
  0
VERTEX
  5
55F
  8
TEAM-KAN
 10
790.772735
 20
-9.723864
 30
530.0
  0
VERTEX
  5
560
  8
TEAM-KAN
 10
790.902735
 20
-11.213864
 30
530.0
  0
VERTEX
  5
561
  8
TEAM-KAN
 10
791.042735
 20
-12.673864
 30
530.0
  0
VERTEX
  5
562
  8
TEAM-KAN
 10
791.202735
 20
-14.073864
 30
530.0
  0
VERTEX
  5
563
  8
TEAM-KAN
 10
791.372735
 20
-15.433864
 30
530.0
  0
VERTEX
  5
564
  8
TEAM-KAN
 10
791.572735
 20
-16.723864
 30
530.0
  0
VERTEX
  5
565
  8
TEAM-KAN
 10
791.772735
 20
-17.943864
 30
530.0
  0
VERTEX
  5
566
  8
TEAM-KAN
 10
792.002735
 20
-19.093864
 30
530.0
  0
VERTEX
  5
567
  8
TEAM-KAN
 10
792.232735
 20
-20.183864
 30
530.0
  0
VERTEX
  5
568
  8
TEAM-KAN
 10
792.482735
 20
-21.183864
 30
530.0
  0
VERTEX
  5
569
  8
TEAM-KAN
 10
792.742735
 20
-22.093864
 30
530.0
  0
VERTEX
  5
56A
  8
TEAM-KAN
 10
793.012735
 20
-22.933864
 30
530.0
  0
VERTEX
  5
56B
  8
TEAM-KAN
 10
793.292735
 20
-23.673864
 30
530.0
  0
VERTEX
  5
56C
  8
TEAM-KAN
 10
793.582735
 20
-24.323864
 30
530.0
  0
SEQEND
  5
56D
  8
TEAM-KAN
  0
POLYLINE
  5
C8
  8
TEAM-KAN
 66
     1
 10
0.0
 20
0.0
 30
530.0
  0
VERTEX
  5
56E
  8
TEAM-KAN
 10
793.582735
 20
-24.323864
 30
530.0
  0
VERTEX
  5
56F
  8
TEAM-KAN
 10
793.872735
 20
-24.873864
 30
530.0
  0
VERTEX
  5
570
  8
TEAM-KAN
 10
794.182735
 20
-25.333864
 30
530.0
  0
VERTEX
  5
571
  8
TEAM-KAN
 10
794.482735
 20
-25.683864
 30
530.0
  0
VERTEX
  5
572
  8
TEAM-KAN
 10
794.792735
 20
-25.943864
 30
530.0
  0
VERTEX
  5
573
  8
TEAM-KAN
 10
795.112735
 20
-26.093864
 30
530.0
  0
VERTEX
  5
574
  8
TEAM-KAN
 10
795.422735
 20
-26.143864
 30
530.0
  0
SEQEND
  5
575
  8
TEAM-KAN
  0
LINE
  5
C9
  8
TEAM-AXE
 10
795.422735
 20
34.236137
 30
530.0
 11
795.422735
 21
-34.533864
 31
530.0
  0
POLYLINE
  5
CC
  8
TEAM-DET1
 66
     1
 10
0.0
 20
0.0
 30
580.0
  0
VERTEX
  5
576
  8
TEAM-DET1
 10
-840.000026
 20
0.0
 30
580.0
 42
0.414214
  0
VERTEX
  5
577
  8
TEAM-DET1
 10
-500.000021
 20
-340.000005
 30
580.0
  0
VERTEX
  5
578
  8
TEAM-DET1
 10
499.999994
 20
-340.000005
 30
580.0
 42
0.414214
  0
VERTEX
  5
579
  8
TEAM-DET1
 10
839.999999
 20
0.0
 30
580.0
  0
SEQEND
  5
57A
  8
TEAM-DET1
  0
POLYLINE
  5
CD
  8
TEAM-DET1
 66
     1
 10
0.0
 20
0.0
 30
580.0
  0
VERTEX
  5
57B
  8
TEAM-DET1
 10
-840.000026
 20
0.0
 30
580.0
 42
-0.414214
  0
VERTEX
  5
57C
  8
TEAM-DET1
 10
-500.000021
 20
340.000005
 30
580.0
  0
VERTEX
  5
57D
  8
TEAM-DET1
 10
499.999994
 20
340.000005
 30
580.0
 42
-0.414214
  0
VERTEX
  5
57E
  8
TEAM-DET1
 10
839.999999
 20
0.0
 30
580.0
  0
SEQEND
  5
57F
  8
TEAM-DET1
  0
POLYLINE
  5
CE
  8
TEAM-NET
 66
     1
 10
0.0
 20
0.0
 30
0.0
 70
    16
 71
     2
 72
    25
  0
VERTEX
  5
CF
  8
TEAM-NET
 10
839.999999
 20
0.0
 30
580.0
 70
    64
  0
VERTEX
  5
D0
  8
TEAM-NET
 10
829.138167
 20
-85.252955
 30
580.0
 70
    64
  0
VERTEX
  5
D1
  8
TEAM-NET
 10
797.246668
 20
-165.058833
 30
580.0
 70
    64
  0
VERTEX
  5
D2
  8
TEAM-NET
 10
746.363149
 20
-234.318585
 30
580.0
 70
    64
  0
VERTEX
  5
D3
  8
TEAM-NET
 10
679.738717
 20
-288.60699
 30
580.0
 70
    64
  0
VERTEX
  5
D4
  8
TEAM-NET
 10
601.630217
 20
-324.455392
 30
580.0
 70
    64
  0
VERTEX
  5
D5
  8
TEAM-NET
 10
517.028243
 20
-339.573324
 30
580.0
 70
    64
  0
VERTEX
  5
D6
  8
TEAM-NET
 10
430.862806
 20
-340.000005
 30
580.0
 70
    64
  0
VERTEX
  5
D7
  8
TEAM-NET
 10
344.690242
 20
-340.000005
 30
580.0
 70
    64
  0
VERTEX
  5
D8
  8
TEAM-NET
 10
258.517678
 20
-340.000005
 30
580.0
 70
    64
  0
VERTEX
  5
D9
  8
TEAM-NET
 10
172.345114
 20
-340.000005
 30
580.0
 70
    64
  0
VERTEX
  5
DA
  8
TEAM-NET
 10
86.17255
 20
-340.000005
 30
580.0
 70
    64
  0
VERTEX
  5
DB
  8
TEAM-NET
 10
-0.000013
 20
-340.000005
 30
580.0
 70
    64
  0
VERTEX
  5
DC
  8
TEAM-NET
 10
-86.172577
 20
-340.000005
 30
580.0
 70
    64
  0
VERTEX
  5
DD
  8
TEAM-NET
 10
-172.345141
 20
-340.000005
 30
580.0
 70
    64
  0
VERTEX
  5
DE
  8
TEAM-NET
 10
-258.517705
 20
-340.000005
 30
580.0
 70
    64
  0
VERTEX
  5
DF
  8
TEAM-NET
 10
-344.690269
 20
-340.000005
 30
580.0
 70
    64
  0
VERTEX
  5
E0
  8
TEAM-NET
 10
-430.862833
 20
-340.000005
 30
580.0
 70
    64
  0
VERTEX
  5
E1
  8
TEAM-NET
 10
-517.02827
 20
-339.573324
 30
580.0
 70
    64
  0
VERTEX
  5
E2
  8
TEAM-NET
 10
-601.630244
 20
-324.455392
 30
580.0
 70
    64
  0
VERTEX
  5
E3
  8
TEAM-NET
 10
-679.738744
 20
-288.60699
 30
580.0
 70
    64
  0
VERTEX
  5
E4
  8
TEAM-NET
 10
-746.363176
 20
-234.318585
 30
580.0
 70
    64
  0
VERTEX
  5
E5
  8
TEAM-NET
 10
-797.246695
 20
-165.058833
 30
580.0
 70
    64
  0
VERTEX
  5
E6
  8
TEAM-NET
 10
-829.138194
 20
-85.252955
 30
580.0
 70
    64
  0
VERTEX
  5
E7
  8
TEAM-NET
 10
-840.000026
 20
0.0
 30
580.0
 70
    64
  0
VERTEX
  5
E8
  8
TEAM-NET
 10
900.0
 20
0.0
 30
580.0
 70
    64
  0
VERTEX
  5
E9
  8
TEAM-NET
 10
900.0
 20
-108.333333
 30
580.0
 70
    64
  0
VERTEX
  5
EA
  8
TEAM-NET
 10
900.0
 20
-216.666667
 30
580.0
 70
    64
  0
VERTEX
  5
EB
  8
TEAM-NET
 10
900.0
 20
-325.0
 30
580.0
 70
    64
  0
VERTEX
  5
EC
  8
TEAM-NET
 10
866.666667
 20
-400.0
 30
580.0
 70
    64
  0
VERTEX
  5
ED
  8
TEAM-NET
 10
758.333333
 20
-400.0
 30
580.0
 70
    64
  0
VERTEX
  5
EE
  8
TEAM-NET
 10
650.0
 20
-400.0
 30
580.0
 70
    64
  0
VERTEX
  5
EF
  8
TEAM-NET
 10
541.666667
 20
-400.0
 30
580.0
 70
    64
  0
VERTEX
  5
F0
  8
TEAM-NET
 10
433.333333
 20
-400.0
 30
580.0
 70
    64
  0
VERTEX
  5
F1
  8
TEAM-NET
 10
325.0
 20
-400.0
 30
580.0
 70
    64
  0
VERTEX
  5
F2
  8
TEAM-NET
 10
216.666667
 20
-400.0
 30
580.0
 70
    64
  0
VERTEX
  5
F3
  8
TEAM-NET
 10
108.333333
 20
-400.0
 30
580.0
 70
    64
  0
VERTEX
  5
F4
  8
TEAM-NET
 10
0.0
 20
-400.0
 30
580.0
 70
    64
  0
VERTEX
  5
F5
  8
TEAM-NET
 10
-108.333333
 20
-400.0
 30
580.0
 70
    64
  0
VERTEX
  5
F6
  8
TEAM-NET
 10
-216.666667
 20
-400.0
 30
580.0
 70
    64
  0
VERTEX
  5
F7
  8
TEAM-NET
 10
-325.0
 20
-400.0
 30
580.0
 70
    64
  0
VERTEX
  5
F8
  8
TEAM-NET
 10
-433.333333
 20
-400.0
 30
580.0
 70
    64
  0
VERTEX
  5
F9
  8
TEAM-NET
 10
-541.666667
 20
-400.0
 30
580.0
 70
    64
  0
VERTEX
  5
FA
  8
TEAM-NET
 10
-650.0
 20
-400.0
 30
580.0
 70
    64
  0
VERTEX
  5
FB
  8
TEAM-NET
 10
-758.333333
 20
-400.0
 30
580.0
 70
    64
  0
VERTEX
  5
FC
  8
TEAM-NET
 10
-866.666667
 20
-400.0
 30
580.0
 70
    64
  0
VERTEX
  5
FD
  8
TEAM-NET
 10
-900.0
 20
-325.0
 30
580.0
 70
    64
  0
VERTEX
  5
FE
  8
TEAM-NET
 10
-900.0
 20
-216.666667
 30
580.0
 70
    64
  0
VERTEX
  5
FF
  8
TEAM-NET
 10
-900.0
 20
-108.333333
 30
580.0
 70
    64
  0
VERTEX
  5
100
  8
TEAM-NET
 10
-900.0
 20
0.0
 30
580.0
 70
    64
  0
SEQEND
  5
101
  8
TEAM-NET
  0
POLYLINE
  5
102
  8
TEAM-NET
 66
     1
 10
0.0
 20
0.0
 30
0.0
 70
    16
 71
     2
 72
    25
  0
VERTEX
  5
103
  8
TEAM-NET
 10
839.999999
 20
0.0
 30
580.0
 70
    64
  0
VERTEX
  5
104
  8
TEAM-NET
 10
829.138167
 20
85.252955
 30
580.0
 70
    64
  0
VERTEX
  5
105
  8
TEAM-NET
 10
797.246668
 20
165.058833
 30
580.0
 70
    64
  0
VERTEX
  5
106
  8
TEAM-NET
 10
746.363149
 20
234.318585
 30
580.0
 70
    64
  0
VERTEX
  5
107
  8
TEAM-NET
 10
679.738717
 20
288.60699
 30
580.0
 70
    64
  0
VERTEX
  5
108
  8
TEAM-NET
 10
601.630217
 20
324.455392
 30
580.0
 70
    64
  0
VERTEX
  5
109
  8
TEAM-NET
 10
517.028243
 20
339.573324
 30
580.0
 70
    64
  0
VERTEX
  5
10A
  8
TEAM-NET
 10
430.862806
 20
340.000005
 30
580.0
 70
    64
  0
VERTEX
  5
10B
  8
TEAM-NET
 10
344.690242
 20
340.000005
 30
580.0
 70
    64
  0
VERTEX
  5
10C
  8
TEAM-NET
 10
258.517678
 20
340.000005
 30
580.0
 70
    64
  0
VERTEX
  5
10D
  8
TEAM-NET
 10
172.345114
 20
340.000005
 30
580.0
 70
    64
  0
VERTEX
  5
10E
  8
TEAM-NET
 10
86.17255
 20
340.000005
 30
580.0
 70
    64
  0
VERTEX
  5
10F
  8
TEAM-NET
 10
-0.000013
 20
340.000005
 30
580.0
 70
    64
  0
VERTEX
  5
110
  8
TEAM-NET
 10
-86.172577
 20
340.000005
 30
580.0
 70
    64
  0
VERTEX
  5
111
  8
TEAM-NET
 10
-172.345141
 20
340.000005
 30
580.0
 70
    64
  0
VERTEX
  5
112
  8
TEAM-NET
 10
-258.517705
 20
340.000005
 30
580.0
 70
    64
  0
VERTEX
  5
113
  8
TEAM-NET
 10
-344.690269
 20
340.000005
 30
580.0
 70
    64
  0
VERTEX
  5
114
  8
TEAM-NET
 10
-430.862833
 20
340.000005
 30
580.0
 70
    64
  0
VERTEX
  5
115
  8
TEAM-NET
 10
-517.02827
 20
339.573324
 30
580.0
 70
    64
  0
VERTEX
  5
116
  8
TEAM-NET
 10
-601.630244
 20
324.455392
 30
580.0
 70
    64
  0
VERTEX
  5
117
  8
TEAM-NET
 10
-679.738744
 20
288.60699
 30
580.0
 70
    64
  0
VERTEX
  5
118
  8
TEAM-NET
 10
-746.363176
 20
234.318585
 30
580.0
 70
    64
  0
VERTEX
  5
119
  8
TEAM-NET
 10
-797.246695
 20
165.058833
 30
580.0
 70
    64
  0
VERTEX
  5
11A
  8
TEAM-NET
 10
-829.138194
 20
85.252955
 30
580.0
 70
    64
  0
VERTEX
  5
11B
  8
TEAM-NET
 10
-840.000026
 20
0.0
 30
580.0
 70
    64
  0
VERTEX
  5
11C
  8
TEAM-NET
 10
900.0
 20
0.0
 30
580.0
 70
    64
  0
VERTEX
  5
11D
  8
TEAM-NET
 10
900.0
 20
108.333333
 30
580.0
 70
    64
  0
VERTEX
  5
11E
  8
TEAM-NET
 10
900.0
 20
216.666667
 30
580.0
 70
    64
  0
VERTEX
  5
11F
  8
TEAM-NET
 10
900.0
 20
325.0
 30
580.0
 70
    64
  0
VERTEX
  5
120
  8
TEAM-NET
 10
866.666667
 20
400.0
 30
580.0
 70
    64
  0
VERTEX
  5
121
  8
TEAM-NET
 10
758.333333
 20
400.0
 30
580.0
 70
    64
  0
VERTEX
  5
122
  8
TEAM-NET
 10
650.0
 20
400.0
 30
580.0
 70
    64
  0
VERTEX
  5
123
  8
TEAM-NET
 10
541.666667
 20
400.0
 30
580.0
 70
    64
  0
VERTEX
  5
124
  8
TEAM-NET
 10
433.333333
 20
400.0
 30
580.0
 70
    64
  0
VERTEX
  5
125
  8
TEAM-NET
 10
325.0
 20
400.0
 30
580.0
 70
    64
  0
VERTEX
  5
126
  8
TEAM-NET
 10
216.666667
 20
400.0
 30
580.0
 70
    64
  0
VERTEX
  5
127
  8
TEAM-NET
 10
108.333333
 20
400.0
 30
580.0
 70
    64
  0
VERTEX
  5
128
  8
TEAM-NET
 10
0.0
 20
400.0
 30
580.0
 70
    64
  0
VERTEX
  5
129
  8
TEAM-NET
 10
-108.333333
 20
400.0
 30
580.0
 70
    64
  0
VERTEX
  5
12A
  8
TEAM-NET
 10
-216.666667
 20
400.0
 30
580.0
 70
    64
  0
VERTEX
  5
12B
  8
TEAM-NET
 10
-325.0
 20
400.0
 30
580.0
 70
    64
  0
VERTEX
  5
12C
  8
TEAM-NET
 10
-433.333333
 20
400.0
 30
580.0
 70
    64
  0
VERTEX
  5
12D
  8
TEAM-NET
 10
-541.666667
 20
400.0
 30
580.0
 70
    64
  0
VERTEX
  5
12E
  8
TEAM-NET
 10
-650.0
 20
400.0
 30
580.0
 70
    64
  0
VERTEX
  5
12F
  8
TEAM-NET
 10
-758.333333
 20
400.0
 30
580.0
 70
    64
  0
VERTEX
  5
130
  8
TEAM-NET
 10
-866.666667
 20
400.0
 30
580.0
 70
    64
  0
VERTEX
  5
131
  8
TEAM-NET
 10
-900.0
 20
325.0
 30
580.0
 70
    64
  0
VERTEX
  5
132
  8
TEAM-NET
 10
-900.0
 20
216.666667
 30
580.0
 70
    64
  0
VERTEX
  5
133
  8
TEAM-NET
 10
-900.0
 20
108.333333
 30
580.0
 70
    64
  0
VERTEX
  5
134
  8
TEAM-NET
 10
-900.0
 20
0.0
 30
580.0
 70
    64
  0
SEQEND
  5
135
  8
TEAM-NET
  0
POLYLINE
  5
136
  8
TEAM-BODY
 66
     1
 10
0.0
 20
0.0
 30
580.0
 39
-30.0
  0
VERTEX
  5
580
  8
TEAM-BODY
 10
900.0
 20
0.0
 30
580.0
  0
VERTEX
  5
581
  8
TEAM-BODY
 10
900.0
 20
-400.0
 30
580.0
  0
VERTEX
  5
582
  8
TEAM-BODY
 10
-900.0
 20
-400.0
 30
580.0
  0
VERTEX
  5
583
  8
TEAM-BODY
 10
-900.0
 20
0.0
 30
580.0
  0
SEQEND
  5
584
  8
TEAM-BODY
  0
POLYLINE
  5
137
  8
TEAM-BODY
 66
     1
 10
0.0
 20
0.0
 30
580.0
 39
-30.0
  0
VERTEX
  5
585
  8
TEAM-BODY
 10
900.0
 20
0.0
 30
580.0
  0
VERTEX
  5
586
  8
TEAM-BODY
 10
900.0
 20
400.0
 30
580.0
  0
VERTEX
  5
587
  8
TEAM-BODY
 10
-900.0
 20
400.0
 30
580.0
  0
VERTEX
  5
588
  8
TEAM-BODY
 10
-900.0
 20
0.0
 30
580.0
  0
SEQEND
  5
589
  8
TEAM-BODY
  0
TEXT
  5
138
  8
TEAM-TXT
 10
-531.400466
 20
293.014342
 30
580.0
 40
30.0
  1
team 121714
 41
0.8
 51
15.0
  7
TEAM
  0
ENDSEC
  0
EOF
