  0
SECTION
  2
HEADER
  9
$ACADVER
  1
AC1009
  9
$INSBASE
 10
0.0
 20
0.0
 30
0.0
  9
$EXTMIN
 10
-400.018462
 20
-593.209426
 30
-0.000958
  9
$EXTMAX
 10
493.214546
 20
500.010151
 30
105.002886
  9
$LIMMIN
 10
-400.018462
 20
-593.209426
  9
$LIMMAX
 10
493.214546
 20
500.010151
  9
$ORTHOMODE
 70
     1
  9
$REGENMODE
 70
     1
  9
$FILLMODE
 70
     1
  9
$QTEXTMODE
 70
     0
  9
$MIRRTEXT
 70
     0
  9
$DRAGMODE
 70
     2
  9
$LTSCALE
 40
25.0
  9
$OSMODE
 70
     0
  9
$ATTMODE
 70
     1
  9
$TEXTSIZE
 40
200.0
  9
$TRACEWID
 40
1.0
  9
$TEXTSTYLE
  7
STANDARD
  9
$CLAYER
  8
TEAM-MAS
  9
$CELTYPE
  6
BYLAYER
  9
$CECOLOR
 62
   256
  9
$DIMSCALE
 40
0.0
  9
$DIMASZ
 40
20.0
  9
$DIMEXO
 40
10.0
  9
$DIMDLI
 40
1.0
  9
$DIMRND
 40
0.0
  9
$DIMDLE
 40
0.0
  9
$DIMEXE
 40
1.0
  9
$DIMTP
 40
0.0
  9
$DIMTM
 40
0.0
  9
$DIMTXT
 40
35.0
  9
$DIMCEN
 40
1.0
  9
$DIMTSZ
 40
0.0
  9
$DIMTOL
 70
     0
  9
$DIMLIM
 70
     0
  9
$DIMTIH
 70
     0
  9
$DIMTOH
 70
     0
  9
$DIMSE1
 70
     0
  9
$DIMSE2
 70
     0
  9
$DIMTAD
 70
     0
  9
$DIMZIN
 70
     0
  9
$DIMBLK
  1

  9
$DIMASO
 70
     1
  9
$DIMSHO
 70
     0
  9
$DIMPOST
  1

  9
$DIMAPOST
  1

  9
$DIMALT
 70
     0
  9
$DIMALTD
 70
     2
  9
$DIMALTF
 40
25.4
  9
$DIMLFAC
 40
1.0
  9
$DIMTOFL
 70
     0
  9
$DIMTVP
 40
0.0
  9
$DIMTIX
 70
     0
  9
$DIMSOXD
 70
     0
  9
$DIMSAH
 70
     0
  9
$DIMBLK1
  1

  9
$DIMBLK2
  1

  9
$DIMSTYLE
  2
TEAM
  9
$DIMCLRD
 70
     9
  9
$DIMCLRE
 70
     9
  9
$DIMCLRT
 70
    11
  9
$DIMTFAC
 40
1.0
  9
$DIMGAP
 40
15.0
  9
$LUNITS
 70
     2
  9
$LUPREC
 70
     1
  9
$SKETCHINC
 40
1.0
  9
$FILLETRAD
 40
50.0
  9
$AUNITS
 70
     0
  9
$AUPREC
 70
     0
  9
$MENU
  1
ROPLANS
  9
$ELEVATION
 40
0.0
  9
$PELEVATION
 40
0.0
  9
$THICKNESS
 40
0.0
  9
$LIMCHECK
 70
     0
  9
$BLIPMODE
 70
     1
  9
$CHAMFERA
 40
0.0
  9
$CHAMFERB
 40
0.0
  9
$SKPOLY
 70
     0
  9
$TDCREATE
 40
2450392.957851
  9
$TDUPDATE
 40
2455493.972203
  9
$TDINDWG
 40
1.964307
  9
$TDUSRTIMER
 40
1.964307
  9
$USRTIMER
 70
     1
  9
$ANGBASE
 50
0.0
  9
$ANGDIR
 70
     0
  9
$PDMODE
 70
     0
  9
$PDSIZE
 40
0.0
  9
$PLINEWID
 40
0.0
  9
$COORDS
 70
     2
  9
$SPLFRAME
 70
     0
  9
$SPLINETYPE
 70
     6
  9
$SPLINESEGS
 70
     8
  9
$ATTDIA
 70
     0
  9
$ATTREQ
 70
     0
  9
$HANDLING
 70
     1
  9
$HANDSEED
  5
2CA
  9
$SURFTAB1
 70
    24
  9
$SURFTAB2
 70
    24
  9
$SURFTYPE
 70
     6
  9
$SURFU
 70
     6
  9
$SURFV
 70
     6
  9
$UCSNAME
  2

  9
$UCSORG
 10
0.0
 20
0.0
 30
0.0
  9
$UCSXDIR
 10
1.0
 20
0.0
 30
0.0
  9
$UCSYDIR
 10
0.0
 20
1.0
 30
0.0
  9
$PUCSNAME
  2

  9
$PUCSORG
 10
0.0
 20
0.0
 30
0.0
  9
$PUCSXDIR
 10
1.0
 20
0.0
 30
0.0
  9
$PUCSYDIR
 10
0.0
 20
1.0
 30
0.0
  9
$USERI1
 70
     0
  9
$USERI2
 70
     0
  9
$USERI3
 70
     0
  9
$USERI4
 70
     0
  9
$USERI5
 70
     0
  9
$USERR1
 40
0.0
  9
$USERR2
 40
0.0
  9
$USERR3
 40
0.0
  9
$USERR4
 40
0.0
  9
$USERR5
 40
0.0
  9
$WORLDVIEW
 70
     1
  9
$SHADEDGE
 70
     0
  9
$SHADEDIF
 70
    70
  9
$TILEMODE
 70
     1
  9
$MAXACTVP
 70
    16
  9
$PLIMCHECK
 70
     0
  9
$PEXTMIN
 10
-0.805942
 20
0.005011
 30
0.0
  9
$PEXTMAX
 10
20.250094
 20
11.356329
 30
0.0
  9
$PLIMMIN
 10
0.0
 20
0.0
  9
$PLIMMAX
 10
12.0
 20
9.0
  9
$UNITMODE
 70
     0
  9
$VISRETAIN
 70
     0
  9
$PLINEGEN
 70
     0
  9
$PSLTSCALE
 70
     0
  0
ENDSEC
  0
SECTION
  2
TABLES
  0
TABLE
  2
VPORT
 70
     2
  0
VPORT
  2
*ACTIVE
 70
     0
 10
0.0
 20
0.0
 11
1.0
 21
1.0
 12
46.598042
 22
-46.599638
 13
0.0
 23
0.0
 14
1.0
 24
1.0
 15
50.0
 25
50.0
 16
0.0
 26
0.0
 36
1.0
 17
0.0
 27
0.0
 37
0.0
 40
1099.933311
 41
1.865779
 42
50.0
 43
0.0
 44
0.0
 50
0.0
 51
0.0
 71
     0
 72
   100
 73
     1
 74
     1
 75
     0
 76
     0
 77
     0
 78
     0
  0
ENDTAB
  0
TABLE
  2
LTYPE
 70
     1
  0
LTYPE
  2
CONTINUOUS
 70
     0
  3
Solid Line
 72
    65
 73
     0
 40
0.0
  0
ENDTAB
  0
TABLE
  2
LAYER
 70
     8
  0
LAYER
  2
0
 70
     0
 62
     7
  6
CONTINUOUS
  0
LAYER
  2
TEAM-BODY
 70
     0
 62
     2
  6
CONTINUOUS
  0
LAYER
  2
TEAM-MAS
 70
     0
 62
     9
  6
CONTINUOUS
  0
LAYER
  2
TEAM-TXT
 70
     0
 62
    11
  6
CONTINUOUS
  0
LAYER
  2
TEAM-DET1
 70
     0
 62
     4
  6
CONTINUOUS
  0
LAYER
  2
TEAM-KAN
 70
     0
 62
     6
  6
CONTINUOUS
  0
LAYER
  2
TEAM-NET
 70
     0
 62
    15
  6
CONTINUOUS
  0
LAYER
  2
TEAM-INSP
 70
     0
 62
     5
  6
CONTINUOUS
  0
ENDTAB
  0
TABLE
  2
STYLE
 70
     2
  0
STYLE
  2
STANDARD
 70
     0
 40
0.0
 41
1.0
 50
0.0
 71
     0
 42
200.0
  3
txt
  4

  0
STYLE
  2
TEAM
 70
     0
 40
0.0
 41
0.8
 50
15.0
 71
     0
 42
7.0
  3
ROMANS.shx
  4

  0
ENDTAB
  0
TABLE
  2
VIEW
 70
     0
  0
ENDTAB
  0
TABLE
  2
UCS
 70
     0
  0
ENDTAB
  0
TABLE
  2
APPID
 70
     1
  0
APPID
  2
ACAD
 70
     0
  0
ENDTAB
  0
TABLE
  2
DIMSTYLE
 70
     1
  0
DIMSTYLE
  2
TEAM
 70
     0
  3

  4

  5

  6

  7

 40
0.0
 41
20.0
 42
10.0
 43
1.0
 44
1.0
 45
0.0
 46
0.0
 47
0.0
 48
0.0
140
35.0
141
1.0
142
0.0
143
25.4
144
1.0
145
0.0
146
1.0
147
15.0
 71
     0
 72
     0
 73
     0
 74
     0
 75
     0
 76
     0
 77
     0
 78
     0
170
     0
171
     2
172
     0
173
     0
174
     0
175
     0
176
     9
177
     9
178
    11
  0
ENDTAB
  0
ENDSEC
  0
SECTION
  2
BLOCKS
  0
BLOCK
  8
0
  2
$MODEL_SPACE
 70
     0
 10
0.0
 20
0.0
 30
0.0
  3
$MODEL_SPACE
  1

  0
ENDBLK
  5
29E
  8
0
  0
BLOCK
 67
     1
  8
0
  2
$PAPER_SPACE
 70
     0
 10
0.0
 20
0.0
 30
0.0
  3
$PAPER_SPACE
  1

  0
ENDBLK
  5
29C
 67
     1
  8
0
  0
ENDSEC
  0
SECTION
  2
ENTITIES
  0
CIRCLE
  5
20
  8
TEAM-INSP
 10
0.0
 20
0.0
 30
0.0
 40
10.0
  0
CIRCLE
  5
22
  8
TEAM-KAN
 39
10.0
 10
-210.0
 20
-310.0
 30
70.0
 40
45.0
  0
CIRCLE
  5
24
  8
TEAM-KAN
 39
10.0
 10
-210.0
 20
-310.0
 30
70.0
 40
35.0
  0
POLYLINE
  5
25
  8
TEAM-NET
 66
     1
 10
0.0
 20
0.0
 30
0.0
 70
    16
 71
     2
 72
    25
  0
VERTEX
  5
26
  8
TEAM-NET
 10
294.279387
 20
395.209351
 30
80.0
 70
    64
  0
VERTEX
  5
27
  8
TEAM-NET
 10
305.0
 20
345.952821
 30
80.0
 70
    64
  0
VERTEX
  5
28
  8
TEAM-NET
 10
305.0
 20
293.759082
 30
80.0
 70
    64
  0
VERTEX
  5
29
  8
TEAM-NET
 10
305.0
 20
241.565344
 30
80.0
 70
    64
  0
VERTEX
  5
2A
  8
TEAM-NET
 10
305.0
 20
189.371606
 30
80.0
 70
    64
  0
VERTEX
  5
2B
  8
TEAM-NET
 10
305.0
 20
137.177868
 30
80.0
 70
    64
  0
VERTEX
  5
2C
  8
TEAM-NET
 10
305.0
 20
84.98413
 30
80.0
 70
    64
  0
VERTEX
  5
2D
  8
TEAM-NET
 10
305.0
 20
32.790392
 30
80.0
 70
    64
  0
VERTEX
  5
2E
  8
TEAM-NET
 10
305.0
 20
-19.403346
 30
80.0
 70
    64
  0
VERTEX
  5
2F
  8
TEAM-NET
 10
304.343253
 20
-71.583765
 30
80.0
 70
    64
  0
VERTEX
  5
30
  8
TEAM-NET
 10
297.358439
 20
-123.260597
 30
80.0
 70
    64
  0
VERTEX
  5
31
  8
TEAM-NET
 10
282.878558
 20
-173.356661
 30
80.0
 70
    64
  0
VERTEX
  5
32
  8
TEAM-NET
 10
261.216047
 20
-220.791019
 30
80.0
 70
    64
  0
VERTEX
  5
33
  8
TEAM-NET
 10
232.838326
 20
-264.540162
 30
80.0
 70
    64
  0
VERTEX
  5
34
  8
TEAM-NET
 10
198.35771
 20
-303.660103
 30
80.0
 70
    64
  0
VERTEX
  5
35
  8
TEAM-NET
 10
158.518199
 20
-337.306736
 30
80.0
 70
    64
  0
VERTEX
  5
36
  8
TEAM-NET
 10
114.179422
 20
-364.754058
 30
80.0
 70
    64
  0
VERTEX
  5
37
  8
TEAM-NET
 10
66.298092
 20
-385.409829
 30
80.0
 70
    64
  0
VERTEX
  5
38
  8
TEAM-NET
 10
15.907361
 20
-398.828353
 30
80.0
 70
    64
  0
VERTEX
  5
39
  8
TEAM-NET
 10
-35.905476
 20
-404.720093
 30
80.0
 70
    64
  0
VERTEX
  5
3A
  8
TEAM-NET
 10
-88.095508
 20
-405.0
 30
80.0
 70
    64
  0
VERTEX
  5
3B
  8
TEAM-NET
 10
-140.289246
 20
-405.0
 30
80.0
 70
    64
  0
VERTEX
  5
3C
  8
TEAM-NET
 10
-192.482985
 20
-405.0
 30
80.0
 70
    64
  0
VERTEX
  5
3D
  8
TEAM-NET
 10
-244.676723
 20
-405.0
 30
80.0
 70
    64
  0
VERTEX
  5
3E
  8
TEAM-NET
 10
-294.307569
 20
-395.182178
 30
80.0
 70
    64
  0
VERTEX
  5
3F
  8
TEAM-NET
 10
322.040844
 20
424.00695
 30
105.0
 70
    64
  0
VERTEX
  5
40
  8
TEAM-NET
 10
344.945281
 20
372.864408
 30
105.0
 70
    64
  0
VERTEX
  5
41
  8
TEAM-NET
 10
345.0
 20
315.435022
 30
105.0
 70
    64
  0
VERTEX
  5
42
  8
TEAM-NET
 10
345.0
 20
258.004938
 30
105.0
 70
    64
  0
VERTEX
  5
43
  8
TEAM-NET
 10
345.0
 20
200.574854
 30
105.0
 70
    64
  0
VERTEX
  5
44
  8
TEAM-NET
 10
345.0
 20
143.144771
 30
105.0
 70
    64
  0
VERTEX
  5
45
  8
TEAM-NET
 10
345.0
 20
85.714687
 30
105.0
 70
    64
  0
VERTEX
  5
46
  8
TEAM-NET
 10
345.0
 20
28.284604
 30
105.0
 70
    64
  0
VERTEX
  5
47
  8
TEAM-NET
 10
345.0
 20
-29.14548
 30
105.0
 70
    64
  0
VERTEX
  5
48
  8
TEAM-NET
 10
343.307828
 20
-86.523319
 30
105.0
 70
    64
  0
VERTEX
  5
49
  8
TEAM-NET
 10
333.866544
 20
-143.120763
 30
105.0
 70
    64
  0
VERTEX
  5
4A
  8
TEAM-NET
 10
316.324985
 20
-197.753191
 30
105.0
 70
    64
  0
VERTEX
  5
4B
  8
TEAM-NET
 10
291.053309
 20
-249.267761
 30
105.0
 70
    64
  0
VERTEX
  5
4C
  8
TEAM-NET
 10
258.584794
 20
-296.577422
 30
105.0
 70
    64
  0
VERTEX
  5
4D
  8
TEAM-NET
 10
219.604584
 20
-338.683856
 30
105.0
 70
    64
  0
VERTEX
  5
4E
  8
TEAM-NET
 10
174.935231
 20
-374.69854
 30
105.0
 70
    64
  0
VERTEX
  5
4F
  8
TEAM-NET
 10
125.519341
 20
-403.8615
 30
105.0
 70
    64
  0
VERTEX
  5
50
  8
TEAM-NET
 10
72.399676
 20
-425.557345
 30
105.0
 70
    64
  0
VERTEX
  5
51
  8
TEAM-NET
 10
16.697157
 20
-439.328254
 30
105.0
 70
    64
  0
VERTEX
  5
52
  8
TEAM-NET
 10
-40.412792
 20
-444.883635
 30
105.0
 70
    64
  0
VERTEX
  5
53
  8
TEAM-NET
 10
-97.841934
 20
-445.0
 30
105.0
 70
    64
  0
VERTEX
  5
54
  8
TEAM-NET
 10
-155.272017
 20
-445.0
 30
105.0
 70
    64
  0
VERTEX
  5
55
  8
TEAM-NET
 10
-212.702101
 20
-445.0
 30
105.0
 70
    64
  0
VERTEX
  5
56
  8
TEAM-NET
 10
-270.132185
 20
-444.999884
 30
105.0
 70
    64
  0
VERTEX
  5
57
  8
TEAM-NET
 10
-322.075205
 20
-423.973818
 30
105.0
 70
    64
  0
SEQEND
  5
59
  8
TEAM-NET
  0
POLYLINE
  5
5A
  8
TEAM-NET
 66
     1
 10
0.0
 20
0.0
 30
0.0
 70
    16
 71
     2
 72
    25
  0
VERTEX
  5
5B
  8
TEAM-NET
 10
294.271999
 20
395.216464
 30
80.0
 70
    64
  0
VERTEX
  5
5C
  8
TEAM-NET
 10
238.908753
 20
405.0
 30
80.0
 70
    64
  0
VERTEX
  5
5D
  8
TEAM-NET
 10
180.996449
 20
405.0
 30
80.0
 70
    64
  0
VERTEX
  5
5E
  8
TEAM-NET
 10
123.084144
 20
405.0
 30
80.0
 70
    64
  0
VERTEX
  5
5F
  8
TEAM-NET
 10
65.171839
 20
405.0
 30
80.0
 70
    64
  0
VERTEX
  5
60
  8
TEAM-NET
 10
7.259535
 20
405.0
 30
80.0
 70
    64
  0
VERTEX
  5
61
  8
TEAM-NET
 10
-50.65277
 20
405.0
 30
80.0
 70
    64
  0
VERTEX
  5
62
  8
TEAM-NET
 10
-108.565075
 20
405.0
 30
80.0
 70
    64
  0
VERTEX
  5
63
  8
TEAM-NET
 10
-166.477379
 20
405.0
 30
80.0
 70
    64
  0
VERTEX
  5
64
  8
TEAM-NET
 10
-224.389684
 20
405.0
 30
80.0
 70
    64
  0
VERTEX
  5
65
  8
TEAM-NET
 10
-282.050247
 20
402.860182
 30
80.0
 70
    64
  0
VERTEX
  5
66
  8
TEAM-NET
 10
-305.0
 20
354.763578
 30
80.0
 70
    64
  0
VERTEX
  5
67
  8
TEAM-NET
 10
-305.0
 20
296.851273
 30
80.0
 70
    64
  0
VERTEX
  5
68
  8
TEAM-NET
 10
-305.0
 20
238.938969
 30
80.0
 70
    64
  0
VERTEX
  5
69
  8
TEAM-NET
 10
-305.0
 20
181.026664
 30
80.0
 70
    64
  0
VERTEX
  5
6A
  8
TEAM-NET
 10
-305.0
 20
123.114359
 30
80.0
 70
    64
  0
VERTEX
  5
6B
  8
TEAM-NET
 10
-305.0
 20
65.202055
 30
80.0
 70
    64
  0
VERTEX
  5
6C
  8
TEAM-NET
 10
-305.0
 20
7.28975
 30
80.0
 70
    64
  0
VERTEX
  5
6D
  8
TEAM-NET
 10
-305.0
 20
-50.622555
 30
80.0
 70
    64
  0
VERTEX
  5
6E
  8
TEAM-NET
 10
-305.0
 20
-108.534859
 30
80.0
 70
    64
  0
VERTEX
  5
6F
  8
TEAM-NET
 10
-305.0
 20
-166.447164
 30
80.0
 70
    64
  0
VERTEX
  5
70
  8
TEAM-NET
 10
-305.0
 20
-224.359469
 30
80.0
 70
    64
  0
VERTEX
  5
71
  8
TEAM-NET
 10
-305.0
 20
-282.271773
 30
80.0
 70
    64
  0
VERTEX
  5
72
  8
TEAM-NET
 10
-305.0
 20
-340.184078
 30
80.0
 70
    64
  0
VERTEX
  5
73
  8
TEAM-NET
 10
-294.315502
 20
-395.174518
 30
80.0
 70
    64
  0
VERTEX
  5
74
  8
TEAM-NET
 10
322.025348
 20
424.021877
 30
105.0
 70
    64
  0
VERTEX
  5
75
  8
TEAM-NET
 10
264.345866
 20
445.0
 30
105.0
 70
    64
  0
VERTEX
  5
76
  8
TEAM-NET
 10
201.198712
 20
445.0
 30
105.0
 70
    64
  0
VERTEX
  5
77
  8
TEAM-NET
 10
138.051558
 20
445.0
 30
105.0
 70
    64
  0
VERTEX
  5
78
  8
TEAM-NET
 10
74.904404
 20
445.0
 30
105.0
 70
    64
  0
VERTEX
  5
79
  8
TEAM-NET
 10
11.75725
 20
445.0
 30
105.0
 70
    64
  0
VERTEX
  5
7A
  8
TEAM-NET
 10
-51.389903
 20
445.0
 30
105.0
 70
    64
  0
VERTEX
  5
7B
  8
TEAM-NET
 10
-114.537057
 20
445.0
 30
105.0
 70
    64
  0
VERTEX
  5
7C
  8
TEAM-NET
 10
-177.684211
 20
445.0
 30
105.0
 70
    64
  0
VERTEX
  5
7D
  8
TEAM-NET
 10
-240.831365
 20
445.0
 30
105.0
 70
    64
  0
VERTEX
  5
7E
  8
TEAM-NET
 10
-302.828033
 20
437.433821
 30
105.0
 70
    64
  0
VERTEX
  5
7F
  8
TEAM-NET
 10
-342.165832
 20
390.422847
 30
105.0
 70
    64
  0
VERTEX
  5
80
  8
TEAM-NET
 10
-345.0
 20
327.536898
 30
105.0
 70
    64
  0
VERTEX
  5
81
  8
TEAM-NET
 10
-345.0
 20
264.389744
 30
105.0
 70
    64
  0
VERTEX
  5
82
  8
TEAM-NET
 10
-345.0
 20
201.24259
 30
105.0
 70
    64
  0
VERTEX
  5
83
  8
TEAM-NET
 10
-345.0
 20
138.095436
 30
105.0
 70
    64
  0
VERTEX
  5
84
  8
TEAM-NET
 10
-345.0
 20
74.948282
 30
105.0
 70
    64
  0
VERTEX
  5
85
  8
TEAM-NET
 10
-345.0
 20
11.801128
 30
105.0
 70
    64
  0
VERTEX
  5
86
  8
TEAM-NET
 10
-345.0
 20
-51.346025
 30
105.0
 70
    64
  0
VERTEX
  5
87
  8
TEAM-NET
 10
-345.0
 20
-114.493179
 30
105.0
 70
    64
  0
VERTEX
  5
88
  8
TEAM-NET
 10
-345.0
 20
-177.640333
 30
105.0
 70
    64
  0
VERTEX
  5
89
  8
TEAM-NET
 10
-345.0
 20
-240.787487
 30
105.0
 70
    64
  0
VERTEX
  5
8A
  8
TEAM-NET
 10
-345.0
 20
-303.934641
 30
105.0
 70
    64
  0
VERTEX
  5
8B
  8
TEAM-NET
 10
-345.0
 20
-367.081795
 30
105.0
 70
    64
  0
VERTEX
  5
8C
  8
TEAM-NET
 10
-322.088522
 20
-423.960966
 30
105.0
 70
    64
  0
SEQEND
  5
8D
  8
TEAM-NET
  0
POLYLINE
  5
8E
  8
TEAM-BODY
 66
     1
 10
0.0
 20
0.0
 30
80.0
  0
VERTEX
  5
2A4
  8
TEAM-BODY
 10
294.279387
 20
395.209351
 30
80.0
 42
-0.2038
  0
VERTEX
  5
2A5
  8
TEAM-BODY
 10
305.0
 20
370.0
 30
80.0
  0
VERTEX
  5
2A6
  8
TEAM-BODY
 10
305.0
 20
-50.0
 30
80.0
 42
-0.414214
  0
VERTEX
  5
2A7
  8
TEAM-BODY
 10
-50.0
 20
-405.0
 30
80.0
  0
VERTEX
  5
2A8
  8
TEAM-BODY
 10
-270.0
 20
-405.0
 30
80.0
 42
-0.194324
  0
VERTEX
  5
2A9
  8
TEAM-BODY
 10
-294.307569
 20
-395.182178
 30
80.0
 42
-0.194324
  0
SEQEND
  5
2AA
  8
TEAM-BODY
  0
POLYLINE
  5
90
  8
TEAM-BODY
 66
     1
 10
0.0
 20
0.0
 30
80.0
  0
VERTEX
  5
2AB
  8
TEAM-BODY
 10
-294.315502
 20
-395.174518
 30
80.0
 42
-0.203427
  0
VERTEX
  5
2AC
  8
TEAM-BODY
 10
-305.0
 20
-370.0
 30
80.0
  0
VERTEX
  5
2AD
  8
TEAM-BODY
 10
-305.0
 20
370.0
 30
80.0
 42
-0.414214
  0
VERTEX
  5
2AE
  8
TEAM-BODY
 10
-270.0
 20
405.0
 30
80.0
  0
VERTEX
  5
2AF
  8
TEAM-BODY
 10
270.0
 20
405.0
 30
80.0
 42
-0.193958
  0
VERTEX
  5
2B0
  8
TEAM-BODY
 10
294.271999
 20
395.216464
 30
80.0
  0
SEQEND
  5
2B1
  8
TEAM-BODY
  0
POLYLINE
  5
91
  8
TEAM-NET
 66
     1
 10
0.0
 20
0.0
 30
0.0
 70
    16
 71
     2
 72
    25
  0
VERTEX
  5
92
  8
TEAM-NET
 10
294.279387
 20
395.209351
 30
80.0
 70
    64
  0
VERTEX
  5
93
  8
TEAM-NET
 10
305.0
 20
345.952821
 30
80.0
 70
    64
  0
VERTEX
  5
94
  8
TEAM-NET
 10
305.0
 20
293.759082
 30
80.0
 70
    64
  0
VERTEX
  5
95
  8
TEAM-NET
 10
305.0
 20
241.565344
 30
80.0
 70
    64
  0
VERTEX
  5
96
  8
TEAM-NET
 10
305.0
 20
189.371606
 30
80.0
 70
    64
  0
VERTEX
  5
97
  8
TEAM-NET
 10
305.0
 20
137.177868
 30
80.0
 70
    64
  0
VERTEX
  5
98
  8
TEAM-NET
 10
305.0
 20
84.98413
 30
80.0
 70
    64
  0
VERTEX
  5
99
  8
TEAM-NET
 10
305.0
 20
32.790392
 30
80.0
 70
    64
  0
VERTEX
  5
9A
  8
TEAM-NET
 10
305.0
 20
-19.403346
 30
80.0
 70
    64
  0
VERTEX
  5
9B
  8
TEAM-NET
 10
304.343253
 20
-71.583765
 30
80.0
 70
    64
  0
VERTEX
  5
9C
  8
TEAM-NET
 10
297.358439
 20
-123.260597
 30
80.0
 70
    64
  0
VERTEX
  5
9D
  8
TEAM-NET
 10
282.878558
 20
-173.356661
 30
80.0
 70
    64
  0
VERTEX
  5
9E
  8
TEAM-NET
 10
261.216047
 20
-220.791019
 30
80.0
 70
    64
  0
VERTEX
  5
9F
  8
TEAM-NET
 10
232.838326
 20
-264.540162
 30
80.0
 70
    64
  0
VERTEX
  5
A0
  8
TEAM-NET
 10
198.35771
 20
-303.660103
 30
80.0
 70
    64
  0
VERTEX
  5
A1
  8
TEAM-NET
 10
158.518199
 20
-337.306736
 30
80.0
 70
    64
  0
VERTEX
  5
A2
  8
TEAM-NET
 10
114.179422
 20
-364.754058
 30
80.0
 70
    64
  0
VERTEX
  5
A3
  8
TEAM-NET
 10
66.298092
 20
-385.409829
 30
80.0
 70
    64
  0
VERTEX
  5
A4
  8
TEAM-NET
 10
15.907361
 20
-398.828353
 30
80.0
 70
    64
  0
VERTEX
  5
A5
  8
TEAM-NET
 10
-35.905476
 20
-404.720093
 30
80.0
 70
    64
  0
VERTEX
  5
A6
  8
TEAM-NET
 10
-88.095508
 20
-405.0
 30
80.0
 70
    64
  0
VERTEX
  5
A7
  8
TEAM-NET
 10
-140.289246
 20
-405.0
 30
80.0
 70
    64
  0
VERTEX
  5
A8
  8
TEAM-NET
 10
-192.482985
 20
-405.0
 30
80.0
 70
    64
  0
VERTEX
  5
A9
  8
TEAM-NET
 10
-244.676723
 20
-405.0
 30
80.0
 70
    64
  0
VERTEX
  5
AA
  8
TEAM-NET
 10
-294.307569
 20
-395.182178
 30
80.0
 70
    64
  0
VERTEX
  5
AB
  8
TEAM-NET
 10
294.271999
 20
395.216464
 30
80.0
 70
    64
  0
VERTEX
  5
AC
  8
TEAM-NET
 10
238.908753
 20
405.0
 30
80.0
 70
    64
  0
VERTEX
  5
AD
  8
TEAM-NET
 10
180.996449
 20
405.0
 30
80.0
 70
    64
  0
VERTEX
  5
AE
  8
TEAM-NET
 10
123.084144
 20
405.0
 30
80.0
 70
    64
  0
VERTEX
  5
AF
  8
TEAM-NET
 10
65.171839
 20
405.0
 30
80.0
 70
    64
  0
VERTEX
  5
B0
  8
TEAM-NET
 10
7.259535
 20
405.0
 30
80.0
 70
    64
  0
VERTEX
  5
B1
  8
TEAM-NET
 10
-50.65277
 20
405.0
 30
80.0
 70
    64
  0
VERTEX
  5
B2
  8
TEAM-NET
 10
-108.565075
 20
405.0
 30
80.0
 70
    64
  0
VERTEX
  5
B3
  8
TEAM-NET
 10
-166.477379
 20
405.0
 30
80.0
 70
    64
  0
VERTEX
  5
B4
  8
TEAM-NET
 10
-224.389684
 20
405.0
 30
80.0
 70
    64
  0
VERTEX
  5
B5
  8
TEAM-NET
 10
-282.050247
 20
402.860182
 30
80.0
 70
    64
  0
VERTEX
  5
B6
  8
TEAM-NET
 10
-305.0
 20
354.763578
 30
80.0
 70
    64
  0
VERTEX
  5
B7
  8
TEAM-NET
 10
-305.0
 20
296.851273
 30
80.0
 70
    64
  0
VERTEX
  5
B8
  8
TEAM-NET
 10
-305.0
 20
238.938969
 30
80.0
 70
    64
  0
VERTEX
  5
B9
  8
TEAM-NET
 10
-305.0
 20
181.026664
 30
80.0
 70
    64
  0
VERTEX
  5
BA
  8
TEAM-NET
 10
-305.0
 20
123.114359
 30
80.0
 70
    64
  0
VERTEX
  5
BB
  8
TEAM-NET
 10
-305.0
 20
65.202055
 30
80.0
 70
    64
  0
VERTEX
  5
BC
  8
TEAM-NET
 10
-305.0
 20
7.28975
 30
80.0
 70
    64
  0
VERTEX
  5
BD
  8
TEAM-NET
 10
-305.0
 20
-50.622555
 30
80.0
 70
    64
  0
VERTEX
  5
BE
  8
TEAM-NET
 10
-305.0
 20
-108.534859
 30
80.0
 70
    64
  0
VERTEX
  5
BF
  8
TEAM-NET
 10
-305.0
 20
-166.447164
 30
80.0
 70
    64
  0
VERTEX
  5
C0
  8
TEAM-NET
 10
-305.0
 20
-224.359469
 30
80.0
 70
    64
  0
VERTEX
  5
C1
  8
TEAM-NET
 10
-305.0
 20
-282.271773
 30
80.0
 70
    64
  0
VERTEX
  5
C2
  8
TEAM-NET
 10
-305.0
 20
-340.184078
 30
80.0
 70
    64
  0
VERTEX
  5
C3
  8
TEAM-NET
 10
-294.315502
 20
-395.174518
 30
80.0
 70
    64
  0
SEQEND
  5
C4
  8
TEAM-NET
  0
TEXT
  5
C5
  8
TEAM-TXT
 10
-16.830605
 20
351.863299
 30
105.0
 40
30.0
  1
team 141182
 41
0.8
 51
15.0
  7
TEAM
  0
POLYLINE
  5
C8
  8
TEAM-NET
 66
     1
 10
0.0
 20
0.0
 30
0.0
 70
    16
 71
     2
 72
    25
  0
VERTEX
  5
C9
  8
TEAM-NET
 10
322.025348
 20
424.021877
 30
105.0
 70
    64
  0
VERTEX
  5
CA
  8
TEAM-NET
 10
264.345866
 20
445.0
 30
105.0
 70
    64
  0
VERTEX
  5
CB
  8
TEAM-NET
 10
201.198712
 20
445.0
 30
105.0
 70
    64
  0
VERTEX
  5
CC
  8
TEAM-NET
 10
138.051558
 20
445.0
 30
105.0
 70
    64
  0
VERTEX
  5
CD
  8
TEAM-NET
 10
74.904404
 20
445.0
 30
105.0
 70
    64
  0
VERTEX
  5
CE
  8
TEAM-NET
 10
11.75725
 20
445.0
 30
105.0
 70
    64
  0
VERTEX
  5
CF
  8
TEAM-NET
 10
-51.389903
 20
445.0
 30
105.0
 70
    64
  0
VERTEX
  5
D0
  8
TEAM-NET
 10
-114.537057
 20
445.0
 30
105.0
 70
    64
  0
VERTEX
  5
D1
  8
TEAM-NET
 10
-177.684211
 20
445.0
 30
105.0
 70
    64
  0
VERTEX
  5
D2
  8
TEAM-NET
 10
-240.831365
 20
445.0
 30
105.0
 70
    64
  0
VERTEX
  5
D3
  8
TEAM-NET
 10
-302.828033
 20
437.433821
 30
105.0
 70
    64
  0
VERTEX
  5
D4
  8
TEAM-NET
 10
-342.165832
 20
390.422847
 30
105.0
 70
    64
  0
VERTEX
  5
D5
  8
TEAM-NET
 10
-345.0
 20
327.536898
 30
105.0
 70
    64
  0
VERTEX
  5
D6
  8
TEAM-NET
 10
-345.0
 20
264.389744
 30
105.0
 70
    64
  0
VERTEX
  5
D7
  8
TEAM-NET
 10
-345.0
 20
201.24259
 30
105.0
 70
    64
  0
VERTEX
  5
D8
  8
TEAM-NET
 10
-345.0
 20
138.095436
 30
105.0
 70
    64
  0
VERTEX
  5
D9
  8
TEAM-NET
 10
-345.0
 20
74.948282
 30
105.0
 70
    64
  0
VERTEX
  5
DA
  8
TEAM-NET
 10
-345.0
 20
11.801128
 30
105.0
 70
    64
  0
VERTEX
  5
DB
  8
TEAM-NET
 10
-345.0
 20
-51.346025
 30
105.0
 70
    64
  0
VERTEX
  5
DC
  8
TEAM-NET
 10
-345.0
 20
-114.493179
 30
105.0
 70
    64
  0
VERTEX
  5
DD
  8
TEAM-NET
 10
-345.0
 20
-177.640333
 30
105.0
 70
    64
  0
VERTEX
  5
DE
  8
TEAM-NET
 10
-345.0
 20
-240.787487
 30
105.0
 70
    64
  0
VERTEX
  5
DF
  8
TEAM-NET
 10
-345.0
 20
-303.934641
 30
105.0
 70
    64
  0
VERTEX
  5
E0
  8
TEAM-NET
 10
-345.0
 20
-367.081795
 30
105.0
 70
    64
  0
VERTEX
  5
E1
  8
TEAM-NET
 10
-322.088522
 20
-423.960966
 30
105.0
 70
    64
  0
VERTEX
  5
E2
  8
TEAM-NET
 10
400.0
 20
500.0
 30
105.0
 70
    64
  0
VERTEX
  5
E3
  8
TEAM-NET
 10
325.0
 20
500.0
 30
105.0
 70
    64
  0
VERTEX
  5
E4
  8
TEAM-NET
 10
250.0
 20
500.0
 30
105.0
 70
    64
  0
VERTEX
  5
E5
  8
TEAM-NET
 10
175.0
 20
500.0
 30
105.0
 70
    64
  0
VERTEX
  5
E6
  8
TEAM-NET
 10
100.0
 20
500.0
 30
105.0
 70
    64
  0
VERTEX
  5
E7
  8
TEAM-NET
 10
25.0
 20
500.0
 30
105.0
 70
    64
  0
VERTEX
  5
E8
  8
TEAM-NET
 10
-50.0
 20
500.0
 30
105.0
 70
    64
  0
VERTEX
  5
E9
  8
TEAM-NET
 10
-125.0
 20
500.0
 30
105.0
 70
    64
  0
VERTEX
  5
EA
  8
TEAM-NET
 10
-200.0
 20
500.0
 30
105.0
 70
    64
  0
VERTEX
  5
EB
  8
TEAM-NET
 10
-275.0
 20
500.0
 30
105.0
 70
    64
  0
VERTEX
  5
EC
  8
TEAM-NET
 10
-350.0
 20
500.0
 30
105.0
 70
    64
  0
VERTEX
  5
ED
  8
TEAM-NET
 10
-400.0
 20
475.0
 30
105.0
 70
    64
  0
VERTEX
  5
EE
  8
TEAM-NET
 10
-400.0
 20
400.0
 30
105.0
 70
    64
  0
VERTEX
  5
EF
  8
TEAM-NET
 10
-400.0
 20
325.0
 30
105.0
 70
    64
  0
VERTEX
  5
F0
  8
TEAM-NET
 10
-400.0
 20
250.0
 30
105.0
 70
    64
  0
VERTEX
  5
F1
  8
TEAM-NET
 10
-400.0
 20
175.0
 30
105.0
 70
    64
  0
VERTEX
  5
F2
  8
TEAM-NET
 10
-400.0
 20
100.0
 30
105.0
 70
    64
  0
VERTEX
  5
F3
  8
TEAM-NET
 10
-400.0
 20
25.0
 30
105.0
 70
    64
  0
VERTEX
  5
F4
  8
TEAM-NET
 10
-400.0
 20
-50.0
 30
105.0
 70
    64
  0
VERTEX
  5
F5
  8
TEAM-NET
 10
-400.0
 20
-125.0
 30
105.0
 70
    64
  0
VERTEX
  5
F6
  8
TEAM-NET
 10
-400.0
 20
-200.0
 30
105.0
 70
    64
  0
VERTEX
  5
F7
  8
TEAM-NET
 10
-400.0
 20
-275.0
 30
105.0
 70
    64
  0
VERTEX
  5
F8
  8
TEAM-NET
 10
-400.0
 20
-350.0
 30
105.0
 70
    64
  0
VERTEX
  5
F9
  8
TEAM-NET
 10
-400.0
 20
-425.0
 30
105.0
 70
    64
  0
VERTEX
  5
FA
  8
TEAM-NET
 10
-400.0
 20
-500.0
 30
105.0
 70
    64
  0
SEQEND
  5
FB
  8
TEAM-NET
  0
POLYLINE
  5
FC
  8
TEAM-NET
 66
     1
 10
0.0
 20
0.0
 30
0.0
 70
    16
 71
     2
 72
    25
  0
VERTEX
  5
FD
  8
TEAM-NET
 10
322.040844
 20
424.00695
 30
105.0
 70
    64
  0
VERTEX
  5
FE
  8
TEAM-NET
 10
344.945281
 20
372.864408
 30
105.0
 70
    64
  0
VERTEX
  5
FF
  8
TEAM-NET
 10
345.0
 20
315.435022
 30
105.0
 70
    64
  0
VERTEX
  5
100
  8
TEAM-NET
 10
345.0
 20
258.004938
 30
105.0
 70
    64
  0
VERTEX
  5
101
  8
TEAM-NET
 10
345.0
 20
200.574854
 30
105.0
 70
    64
  0
VERTEX
  5
102
  8
TEAM-NET
 10
345.0
 20
143.144771
 30
105.0
 70
    64
  0
VERTEX
  5
103
  8
TEAM-NET
 10
345.0
 20
85.714687
 30
105.0
 70
    64
  0
VERTEX
  5
104
  8
TEAM-NET
 10
345.0
 20
28.284604
 30
105.0
 70
    64
  0
VERTEX
  5
105
  8
TEAM-NET
 10
345.0
 20
-29.14548
 30
105.0
 70
    64
  0
VERTEX
  5
106
  8
TEAM-NET
 10
343.307828
 20
-86.523319
 30
105.0
 70
    64
  0
VERTEX
  5
107
  8
TEAM-NET
 10
333.866544
 20
-143.120763
 30
105.0
 70
    64
  0
VERTEX
  5
108
  8
TEAM-NET
 10
316.324985
 20
-197.753191
 30
105.0
 70
    64
  0
VERTEX
  5
109
  8
TEAM-NET
 10
291.053309
 20
-249.267761
 30
105.0
 70
    64
  0
VERTEX
  5
10A
  8
TEAM-NET
 10
258.584794
 20
-296.577422
 30
105.0
 70
    64
  0
VERTEX
  5
10B
  8
TEAM-NET
 10
219.604584
 20
-338.683856
 30
105.0
 70
    64
  0
VERTEX
  5
10C
  8
TEAM-NET
 10
174.935231
 20
-374.69854
 30
105.0
 70
    64
  0
VERTEX
  5
10D
  8
TEAM-NET
 10
125.519341
 20
-403.8615
 30
105.0
 70
    64
  0
VERTEX
  5
10E
  8
TEAM-NET
 10
72.399676
 20
-425.557345
 30
105.0
 70
    64
  0
VERTEX
  5
10F
  8
TEAM-NET
 10
16.697157
 20
-439.328254
 30
105.0
 70
    64
  0
VERTEX
  5
110
  8
TEAM-NET
 10
-40.412792
 20
-444.883635
 30
105.0
 70
    64
  0
VERTEX
  5
111
  8
TEAM-NET
 10
-97.841934
 20
-445.0
 30
105.0
 70
    64
  0
VERTEX
  5
112
  8
TEAM-NET
 10
-155.272017
 20
-445.0
 30
105.0
 70
    64
  0
VERTEX
  5
113
  8
TEAM-NET
 10
-212.702101
 20
-445.0
 30
105.0
 70
    64
  0
VERTEX
  5
114
  8
TEAM-NET
 10
-270.132185
 20
-444.999884
 30
105.0
 70
    64
  0
VERTEX
  5
115
  8
TEAM-NET
 10
-322.075205
 20
-423.973818
 30
105.0
 70
    64
  0
VERTEX
  5
116
  8
TEAM-NET
 10
400.0
 20
500.0
 30
105.0
 70
    64
  0
VERTEX
  5
117
  8
TEAM-NET
 10
400.0
 20
433.047569
 30
105.0
 70
    64
  0
VERTEX
  5
118
  8
TEAM-NET
 10
400.0
 20
366.095138
 30
105.0
 70
    64
  0
VERTEX
  5
119
  8
TEAM-NET
 10
400.0
 20
299.142707
 30
105.0
 70
    64
  0
VERTEX
  5
11A
  8
TEAM-NET
 10
400.0
 20
232.190275
 30
105.0
 70
    64
  0
VERTEX
  5
11B
  8
TEAM-NET
 10
400.0
 20
165.237844
 30
105.0
 70
    64
  0
VERTEX
  5
11C
  8
TEAM-NET
 10
400.0
 20
98.285413
 30
105.0
 70
    64
  0
VERTEX
  5
11D
  8
TEAM-NET
 10
400.0
 20
31.332982
 30
105.0
 70
    64
  0
VERTEX
  5
11E
  8
TEAM-NET
 10
400.0
 20
-35.619449
 30
105.0
 70
    64
  0
VERTEX
  5
11F
  8
TEAM-NET
 10
396.932599
 20
-102.452375
 30
105.0
 70
    64
  0
VERTEX
  5
120
  8
TEAM-NET
 10
384.2197
 20
-168.123885
 30
105.0
 70
    64
  0
VERTEX
  5
121
  8
TEAM-NET
 10
361.912443
 20
-231.185373
 30
105.0
 70
    64
  0
VERTEX
  5
122
  8
TEAM-NET
 10
330.503721
 20
-290.243456
 30
105.0
 70
    64
  0
VERTEX
  5
123
  8
TEAM-NET
 10
290.68753
 20
-343.993209
 30
105.0
 70
    64
  0
VERTEX
  5
124
  8
TEAM-NET
 10
243.343633
 20
-391.246997
 30
105.0
 70
    64
  0
VERTEX
  5
125
  8
TEAM-NET
 10
189.518124
 20
-430.960717
 30
105.0
 70
    64
  0
VERTEX
  5
126
  8
TEAM-NET
 10
130.400312
 20
-462.256871
 30
105.0
 70
    64
  0
VERTEX
  5
127
  8
TEAM-NET
 10
67.29644
 20
-484.443949
 30
105.0
 70
    64
  0
VERTEX
  5
128
  8
TEAM-NET
 10
1.60083
 20
-497.031715
 30
105.0
 70
    64
  0
VERTEX
  5
129
  8
TEAM-NET
 10
-65.237844
 20
-500.0
 30
105.0
 70
    64
  0
VERTEX
  5
12A
  8
TEAM-NET
 10
-132.190275
 20
-500.0
 30
105.0
 70
    64
  0
VERTEX
  5
12B
  8
TEAM-NET
 10
-199.142707
 20
-500.0
 30
105.0
 70
    64
  0
VERTEX
  5
12C
  8
TEAM-NET
 10
-266.095138
 20
-500.0
 30
105.0
 70
    64
  0
VERTEX
  5
12D
  8
TEAM-NET
 10
-333.047569
 20
-500.0
 30
105.0
 70
    64
  0
VERTEX
  5
12E
  8
TEAM-NET
 10
-400.0
 20
-500.0
 30
105.0
 70
    64
  0
SEQEND
  5
12F
  8
TEAM-NET
  0
POLYLINE
  5
130
  8
TEAM-DET1
 66
     1
 10
0.0
 20
0.0
 30
105.0
  0
VERTEX
  5
2B2
  8
TEAM-DET1
 10
322.040844
 20
424.00695
 30
105.0
 42
-0.203735
  0
VERTEX
  5
2B3
  8
TEAM-DET1
 10
345.0
 20
370.0
 30
105.0
  0
VERTEX
  5
2B4
  8
TEAM-DET1
 10
345.0
 20
-50.0
 30
105.0
 42
-0.414214
  0
VERTEX
  5
2B5
  8
TEAM-DET1
 10
-50.0
 20
-445.0
 30
105.0
  0
VERTEX
  5
2B6
  8
TEAM-DET1
 10
-270.0
 20
-445.0
 30
105.0
 42
-0.194264
  0
VERTEX
  5
2B7
  8
TEAM-DET1
 10
-322.075205
 20
-423.973818
 30
105.0
 42
-0.194264
  0
SEQEND
  5
2B8
  8
TEAM-DET1
  0
POLYLINE
  5
132
  8
TEAM-DET1
 66
     1
 10
0.0
 20
0.0
 30
105.0
  0
VERTEX
  5
2B9
  8
TEAM-DET1
 10
-322.088522
 20
-423.960966
 30
105.0
 42
-0.203505
  0
VERTEX
  5
2BA
  8
TEAM-DET1
 10
-345.0
 20
-370.0
 30
105.0
  0
VERTEX
  5
2BB
  8
TEAM-DET1
 10
-345.0
 20
370.0
 30
105.0
 42
-0.414214
  0
VERTEX
  5
2BC
  8
TEAM-DET1
 10
-270.0
 20
445.0
 30
105.0
  0
VERTEX
  5
2BD
  8
TEAM-DET1
 10
270.0
 20
445.0
 30
105.0
 42
-0.194025
  0
VERTEX
  5
2BE
  8
TEAM-DET1
 10
322.025348
 20
424.021877
 30
105.0
  0
SEQEND
  5
2BF
  8
TEAM-DET1
  0
POLYLINE
  5
133
  8
TEAM-BODY
 66
     1
 10
0.0
 20
0.0
 30
105.0
 39
-10.0
  0
VERTEX
  5
2C0
  8
TEAM-BODY
 10
400.0
 20
500.0
 30
105.0
  0
VERTEX
  5
2C1
  8
TEAM-BODY
 10
400.0
 20
-50.0
 30
105.0
 42
-0.414214
  0
VERTEX
  5
2C2
  8
TEAM-BODY
 10
-50.0
 20
-500.0
 30
105.0
  0
VERTEX
  5
2C3
  8
TEAM-BODY
 10
-400.0
 20
-500.0
 30
105.0
  0
SEQEND
  5
2C4
  8
TEAM-BODY
  0
POLYLINE
  5
134
  8
TEAM-BODY
 66
     1
 10
0.0
 20
0.0
 30
105.0
 39
-10.0
  0
VERTEX
  5
2C5
  8
TEAM-BODY
 10
-400.0
 20
-500.0
 30
105.0
  0
VERTEX
  5
2C6
  8
TEAM-BODY
 10
-400.0
 20
500.0
 30
105.0
  0
VERTEX
  5
2C7
  8
TEAM-BODY
 10
400.0
 20
500.0
 30
105.0
  0
SEQEND
  5
2C8
  8
TEAM-BODY
  0
ENDSEC
  0
EOF
