  0
SECTION
  2
HEADER
  9
$ACADVER
  1
AC1009
  9
$INSBASE
 10
0.0
 20
0.0
 30
0.0
  9
$EXTMIN
 10
-404.191033
 20
-404.150497
 30
-0.010811
  9
$EXTMAX
 10
404.180757
 20
404.153934
 30
150.002891
  9
$LIMMIN
 10
-404.191033
 20
-404.150497
  9
$LIMMAX
 10
404.180757
 20
404.153934
  9
$ORTHOMODE
 70
     1
  9
$REGENMODE
 70
     1
  9
$FILLMODE
 70
     1
  9
$QTEXTMODE
 70
     0
  9
$MIRRTEXT
 70
     0
  9
$DRAGMODE
 70
     2
  9
$LTSCALE
 40
25.0
  9
$OSMODE
 70
     0
  9
$ATTMODE
 70
     1
  9
$TEXTSIZE
 40
200.0
  9
$TRACEWID
 40
1.0
  9
$TEXTSTYLE
  7
STANDARD
  9
$CLAYER
  8
TEAM-MAS
  9
$CELTYPE
  6
BYLAYER
  9
$CECOLOR
 62
   256
  9
$DIMSCALE
 40
0.0
  9
$DIMASZ
 40
20.0
  9
$DIMEXO
 40
10.0
  9
$DIMDLI
 40
1.0
  9
$DIMRND
 40
0.0
  9
$DIMDLE
 40
0.0
  9
$DIMEXE
 40
1.0
  9
$DIMTP
 40
0.0
  9
$DIMTM
 40
0.0
  9
$DIMTXT
 40
35.0
  9
$DIMCEN
 40
1.0
  9
$DIMTSZ
 40
0.0
  9
$DIMTOL
 70
     0
  9
$DIMLIM
 70
     0
  9
$DIMTIH
 70
     0
  9
$DIMTOH
 70
     0
  9
$DIMSE1
 70
     0
  9
$DIMSE2
 70
     0
  9
$DIMTAD
 70
     0
  9
$DIMZIN
 70
     0
  9
$DIMBLK
  1

  9
$DIMASO
 70
     1
  9
$DIMSHO
 70
     0
  9
$DIMPOST
  1

  9
$DIMAPOST
  1

  9
$DIMALT
 70
     0
  9
$DIMALTD
 70
     2
  9
$DIMALTF
 40
25.4
  9
$DIMLFAC
 40
1.0
  9
$DIMTOFL
 70
     0
  9
$DIMTVP
 40
0.0
  9
$DIMTIX
 70
     0
  9
$DIMSOXD
 70
     0
  9
$DIMSAH
 70
     0
  9
$DIMBLK1
  1

  9
$DIMBLK2
  1

  9
$DIMSTYLE
  2
TEAM
  9
$DIMCLRD
 70
     9
  9
$DIMCLRE
 70
     9
  9
$DIMCLRT
 70
    11
  9
$DIMTFAC
 40
1.0
  9
$DIMGAP
 40
15.0
  9
$LUNITS
 70
     2
  9
$LUPREC
 70
     1
  9
$SKETCHINC
 40
1.0
  9
$FILLETRAD
 40
50.0
  9
$AUNITS
 70
     0
  9
$AUPREC
 70
     0
  9
$MENU
  1
ROPLANS
  9
$ELEVATION
 40
0.0
  9
$PELEVATION
 40
0.0
  9
$THICKNESS
 40
0.0
  9
$LIMCHECK
 70
     0
  9
$BLIPMODE
 70
     1
  9
$CHAMFERA
 40
0.0
  9
$CHAMFERB
 40
0.0
  9
$SKPOLY
 70
     0
  9
$TDCREATE
 40
2450392.957851
  9
$TDUPDATE
 40
2455624.975275
  9
$TDINDWG
 40
1.977011
  9
$TDUSRTIMER
 40
1.977011
  9
$USRTIMER
 70
     1
  9
$ANGBASE
 50
0.0
  9
$ANGDIR
 70
     0
  9
$PDMODE
 70
     0
  9
$PDSIZE
 40
0.0
  9
$PLINEWID
 40
0.0
  9
$COORDS
 70
     2
  9
$SPLFRAME
 70
     0
  9
$SPLINETYPE
 70
     6
  9
$SPLINESEGS
 70
     8
  9
$ATTDIA
 70
     0
  9
$ATTREQ
 70
     0
  9
$HANDLING
 70
     1
  9
$HANDSEED
  5
324
  9
$SURFTAB1
 70
    36
  9
$SURFTAB2
 70
    36
  9
$SURFTYPE
 70
     6
  9
$SURFU
 70
     6
  9
$SURFV
 70
     6
  9
$UCSNAME
  2

  9
$UCSORG
 10
0.0
 20
0.0
 30
0.0
  9
$UCSXDIR
 10
1.0
 20
0.0
 30
0.0
  9
$UCSYDIR
 10
0.0
 20
1.0
 30
0.0
  9
$PUCSNAME
  2

  9
$PUCSORG
 10
0.0
 20
0.0
 30
0.0
  9
$PUCSXDIR
 10
1.0
 20
0.0
 30
0.0
  9
$PUCSYDIR
 10
0.0
 20
1.0
 30
0.0
  9
$USERI1
 70
     0
  9
$USERI2
 70
     0
  9
$USERI3
 70
     0
  9
$USERI4
 70
     0
  9
$USERI5
 70
     0
  9
$USERR1
 40
0.0
  9
$USERR2
 40
0.0
  9
$USERR3
 40
0.0
  9
$USERR4
 40
0.0
  9
$USERR5
 40
0.0
  9
$WORLDVIEW
 70
     1
  9
$SHADEDGE
 70
     0
  9
$SHADEDIF
 70
    70
  9
$TILEMODE
 70
     1
  9
$MAXACTVP
 70
    16
  9
$PLIMCHECK
 70
     0
  9
$PEXTMIN
 10
-0.805942
 20
0.005011
 30
0.0
  9
$PEXTMAX
 10
20.250094
 20
11.356329
 30
0.0
  9
$PLIMMIN
 10
0.0
 20
0.0
  9
$PLIMMAX
 10
12.0
 20
9.0
  9
$UNITMODE
 70
     0
  9
$VISRETAIN
 70
     0
  9
$PLINEGEN
 70
     0
  9
$PSLTSCALE
 70
     0
  0
ENDSEC
  0
SECTION
  2
TABLES
  0
TABLE
  2
VPORT
 70
     2
  0
VPORT
  2
*ACTIVE
 70
     0
 10
0.0
 20
0.0
 11
1.0
 21
1.0
 12
-0.005138
 22
0.001719
 13
0.0
 23
0.0
 14
1.0
 24
1.0
 15
50.0
 25
50.0
 16
0.0
 26
0.0
 36
1.0
 17
0.0
 27
0.0
 37
0.0
 40
813.268429
 41
1.865779
 42
50.0
 43
0.0
 44
0.0
 50
0.0
 51
0.0
 71
     0
 72
   100
 73
     1
 74
     1
 75
     0
 76
     0
 77
     0
 78
     0
  0
ENDTAB
  0
TABLE
  2
LTYPE
 70
     2
  0
LTYPE
  2
CONTINUOUS
 70
     0
  3
Solid Line
 72
    65
 73
     0
 40
0.0
  0
LTYPE
  2
31
 70
     0
  3

 72
    65
 73
     4
 40
2.1
 49
1.5
 49
-0.3
 49
0.0
 49
-0.3
  0
ENDTAB
  0
TABLE
  2
LAYER
 70
     9
  0
LAYER
  2
0
 70
     0
 62
     7
  6
CONTINUOUS
  0
LAYER
  2
TEAM-BODY
 70
     0
 62
     2
  6
CONTINUOUS
  0
LAYER
  2
TEAM-AXE
 70
     0
 62
    10
  6
31
  0
LAYER
  2
TEAM-MAS
 70
     0
 62
     9
  6
CONTINUOUS
  0
LAYER
  2
TEAM-TXT
 70
     0
 62
    11
  6
CONTINUOUS
  0
LAYER
  2
TEAM-DET1
 70
     0
 62
     4
  6
CONTINUOUS
  0
LAYER
  2
TEAM-KAN
 70
     0
 62
     6
  6
CONTINUOUS
  0
LAYER
  2
TEAM-NET
 70
     0
 62
    15
  6
CONTINUOUS
  0
LAYER
  2
TEAM-INSP
 70
     0
 62
     5
  6
CONTINUOUS
  0
ENDTAB
  0
TABLE
  2
STYLE
 70
     2
  0
STYLE
  2
STANDARD
 70
     0
 40
0.0
 41
1.0
 50
0.0
 71
     0
 42
200.0
  3
txt
  4

  0
STYLE
  2
TEAM
 70
     0
 40
0.0
 41
0.8
 50
15.0
 71
     0
 42
7.0
  3
ROMANS.shx
  4

  0
ENDTAB
  0
TABLE
  2
VIEW
 70
     0
  0
ENDTAB
  0
TABLE
  2
UCS
 70
     0
  0
ENDTAB
  0
TABLE
  2
APPID
 70
     1
  0
APPID
  2
ACAD
 70
     0
  0
ENDTAB
  0
TABLE
  2
DIMSTYLE
 70
     1
  0
DIMSTYLE
  2
TEAM
 70
     0
  3

  4

  5

  6

  7

 40
0.0
 41
20.0
 42
10.0
 43
1.0
 44
1.0
 45
0.0
 46
0.0
 47
0.0
 48
0.0
140
35.0
141
1.0
142
0.0
143
25.4
144
1.0
145
0.0
146
1.0
147
15.0
 71
     0
 72
     0
 73
     0
 74
     0
 75
     0
 76
     0
 77
     0
 78
     0
170
     0
171
     2
172
     0
173
     0
174
     0
175
     0
176
     9
177
     9
178
    11
  0
ENDTAB
  0
ENDSEC
  0
SECTION
  2
BLOCKS
  0
BLOCK
  8
0
  2
$MODEL_SPACE
 70
     0
 10
0.0
 20
0.0
 30
0.0
  3
$MODEL_SPACE
  1

  0
ENDBLK
  5
2F5
  8
0
  0
BLOCK
 67
     1
  8
0
  2
$PAPER_SPACE
 70
     0
 10
0.0
 20
0.0
 30
0.0
  3
$PAPER_SPACE
  1

  0
ENDBLK
  5
2F3
 67
     1
  8
0
  0
ENDSEC
  0
SECTION
  2
ENTITIES
  0
POLYLINE
  5
20
  8
TEAM-NET
 66
     1
 10
0.0
 20
0.0
 30
0.0
 70
    16
 71
     2
 72
    37
  0
VERTEX
  5
21
  8
TEAM-NET
 10
-329.863824
 20
-313.370632
 30
85.0
 70
    64
  0
VERTEX
  5
22
  8
TEAM-NET
 10
-301.989334
 20
-335.825345
 30
85.0
 70
    64
  0
VERTEX
  5
23
  8
TEAM-NET
 10
-266.166854
 20
-340.0
 30
85.0
 70
    64
  0
VERTEX
  5
24
  8
TEAM-NET
 10
-229.819755
 20
-340.0
 30
85.0
 70
    64
  0
VERTEX
  5
25
  8
TEAM-NET
 10
-193.472656
 20
-340.0
 30
85.0
 70
    64
  0
VERTEX
  5
26
  8
TEAM-NET
 10
-157.125557
 20
-340.0
 30
85.0
 70
    64
  0
VERTEX
  5
27
  8
TEAM-NET
 10
-120.778458
 20
-340.0
 30
85.0
 70
    64
  0
VERTEX
  5
28
  8
TEAM-NET
 10
-84.431359
 20
-340.0
 30
85.0
 70
    64
  0
VERTEX
  5
29
  8
TEAM-NET
 10
-48.084261
 20
-340.0
 30
85.0
 70
    64
  0
VERTEX
  5
2A
  8
TEAM-NET
 10
-11.737162
 20
-340.0
 30
85.0
 70
    64
  0
VERTEX
  5
2B
  8
TEAM-NET
 10
24.609937
 20
-340.0
 30
85.0
 70
    64
  0
VERTEX
  5
2C
  8
TEAM-NET
 10
60.957036
 20
-340.0
 30
85.0
 70
    64
  0
VERTEX
  5
2D
  8
TEAM-NET
 10
97.304135
 20
-340.0
 30
85.0
 70
    64
  0
VERTEX
  5
2E
  8
TEAM-NET
 10
133.651234
 20
-340.0
 30
85.0
 70
    64
  0
VERTEX
  5
2F
  8
TEAM-NET
 10
169.998333
 20
-340.0
 30
85.0
 70
    64
  0
VERTEX
  5
30
  8
TEAM-NET
 10
206.345431
 20
-340.0
 30
85.0
 70
    64
  0
VERTEX
  5
31
  8
TEAM-NET
 10
242.69253
 20
-340.0
 30
85.0
 70
    64
  0
VERTEX
  5
32
  8
TEAM-NET
 10
279.039629
 20
-340.0
 30
85.0
 70
    64
  0
VERTEX
  5
33
  8
TEAM-NET
 10
313.370632
 20
-329.863824
 30
85.0
 70
    64
  0
VERTEX
  5
34
  8
TEAM-NET
 10
335.825345
 20
-301.989334
 30
85.0
 70
    64
  0
VERTEX
  5
35
  8
TEAM-NET
 10
340.0
 20
-266.166854
 30
85.0
 70
    64
  0
VERTEX
  5
36
  8
TEAM-NET
 10
340.0
 20
-229.819755
 30
85.0
 70
    64
  0
VERTEX
  5
37
  8
TEAM-NET
 10
340.0
 20
-193.472656
 30
85.0
 70
    64
  0
VERTEX
  5
38
  8
TEAM-NET
 10
340.0
 20
-157.125557
 30
85.0
 70
    64
  0
VERTEX
  5
39
  8
TEAM-NET
 10
340.0
 20
-120.778458
 30
85.0
 70
    64
  0
VERTEX
  5
3A
  8
TEAM-NET
 10
340.0
 20
-84.431359
 30
85.0
 70
    64
  0
VERTEX
  5
3B
  8
TEAM-NET
 10
340.0
 20
-48.084261
 30
85.0
 70
    64
  0
VERTEX
  5
3C
  8
TEAM-NET
 10
340.0
 20
-11.737162
 30
85.0
 70
    64
  0
VERTEX
  5
3D
  8
TEAM-NET
 10
340.0
 20
24.609937
 30
85.0
 70
    64
  0
VERTEX
  5
3E
  8
TEAM-NET
 10
340.0
 20
60.957036
 30
85.0
 70
    64
  0
VERTEX
  5
3F
  8
TEAM-NET
 10
340.0
 20
97.304135
 30
85.0
 70
    64
  0
VERTEX
  5
40
  8
TEAM-NET
 10
340.0
 20
133.651234
 30
85.0
 70
    64
  0
VERTEX
  5
41
  8
TEAM-NET
 10
340.0
 20
169.998333
 30
85.0
 70
    64
  0
VERTEX
  5
42
  8
TEAM-NET
 10
340.0
 20
206.345431
 30
85.0
 70
    64
  0
VERTEX
  5
43
  8
TEAM-NET
 10
340.0
 20
242.69253
 30
85.0
 70
    64
  0
VERTEX
  5
44
  8
TEAM-NET
 10
340.0
 20
279.039629
 30
85.0
 70
    64
  0
VERTEX
  5
45
  8
TEAM-NET
 10
329.863824
 20
313.370632
 30
85.0
 70
    64
  0
VERTEX
  5
46
  8
TEAM-NET
 10
-344.522043
 20
-327.295941
 30
150.0
 70
    64
  0
VERTEX
  5
47
  8
TEAM-NET
 10
-315.666021
 20
-351.609601
 30
150.0
 70
    64
  0
VERTEX
  5
48
  8
TEAM-NET
 10
-278.875252
 20
-360.0
 30
150.0
 70
    64
  0
VERTEX
  5
49
  8
TEAM-NET
 10
-240.782824
 20
-360.0
 30
150.0
 70
    64
  0
VERTEX
  5
4A
  8
TEAM-NET
 10
-202.690396
 20
-360.0
 30
150.0
 70
    64
  0
VERTEX
  5
4B
  8
TEAM-NET
 10
-164.597968
 20
-360.0
 30
150.0
 70
    64
  0
VERTEX
  5
4C
  8
TEAM-NET
 10
-126.505539
 20
-360.0
 30
150.0
 70
    64
  0
VERTEX
  5
4D
  8
TEAM-NET
 10
-88.413111
 20
-360.0
 30
150.0
 70
    64
  0
VERTEX
  5
4E
  8
TEAM-NET
 10
-50.320683
 20
-360.0
 30
150.0
 70
    64
  0
VERTEX
  5
4F
  8
TEAM-NET
 10
-12.228255
 20
-360.0
 30
150.0
 70
    64
  0
VERTEX
  5
50
  8
TEAM-NET
 10
25.864173
 20
-360.0
 30
150.0
 70
    64
  0
VERTEX
  5
51
  8
TEAM-NET
 10
63.956601
 20
-360.0
 30
150.0
 70
    64
  0
VERTEX
  5
52
  8
TEAM-NET
 10
102.049029
 20
-360.0
 30
150.0
 70
    64
  0
VERTEX
  5
53
  8
TEAM-NET
 10
140.141457
 20
-360.0
 30
150.0
 70
    64
  0
VERTEX
  5
54
  8
TEAM-NET
 10
178.233886
 20
-360.0
 30
150.0
 70
    64
  0
VERTEX
  5
55
  8
TEAM-NET
 10
216.326314
 20
-360.0
 30
150.0
 70
    64
  0
VERTEX
  5
56
  8
TEAM-NET
 10
254.418742
 20
-360.0
 30
150.0
 70
    64
  0
VERTEX
  5
57
  8
TEAM-NET
 10
292.460233
 20
-359.023684
 30
150.0
 70
    64
  0
VERTEX
  5
58
  8
TEAM-NET
 10
327.295941
 20
-344.522043
 30
150.0
 70
    64
  0
VERTEX
  5
59
  8
TEAM-NET
 10
351.609601
 20
-315.666021
 30
150.0
 70
    64
  0
VERTEX
  5
5A
  8
TEAM-NET
 10
360.0
 20
-278.875252
 30
150.0
 70
    64
  0
VERTEX
  5
5B
  8
TEAM-NET
 10
360.0
 20
-240.782824
 30
150.0
 70
    64
  0
VERTEX
  5
5C
  8
TEAM-NET
 10
360.0
 20
-202.690396
 30
150.0
 70
    64
  0
VERTEX
  5
5D
  8
TEAM-NET
 10
360.0
 20
-164.597968
 30
150.0
 70
    64
  0
VERTEX
  5
5E
  8
TEAM-NET
 10
360.0
 20
-126.505539
 30
150.0
 70
    64
  0
VERTEX
  5
5F
  8
TEAM-NET
 10
360.0
 20
-88.413111
 30
150.0
 70
    64
  0
VERTEX
  5
60
  8
TEAM-NET
 10
360.0
 20
-50.320683
 30
150.0
 70
    64
  0
VERTEX
  5
61
  8
TEAM-NET
 10
360.0
 20
-12.228255
 30
150.0
 70
    64
  0
VERTEX
  5
62
  8
TEAM-NET
 10
360.0
 20
25.864173
 30
150.0
 70
    64
  0
VERTEX
  5
63
  8
TEAM-NET
 10
360.0
 20
63.956601
 30
150.0
 70
    64
  0
VERTEX
  5
64
  8
TEAM-NET
 10
360.0
 20
102.049029
 30
150.0
 70
    64
  0
VERTEX
  5
65
  8
TEAM-NET
 10
360.0
 20
140.141457
 30
150.0
 70
    64
  0
VERTEX
  5
66
  8
TEAM-NET
 10
360.0
 20
178.233886
 30
150.0
 70
    64
  0
VERTEX
  5
67
  8
TEAM-NET
 10
360.0
 20
216.326314
 30
150.0
 70
    64
  0
VERTEX
  5
68
  8
TEAM-NET
 10
360.0
 20
254.418742
 30
150.0
 70
    64
  0
VERTEX
  5
69
  8
TEAM-NET
 10
359.023684
 20
292.460233
 30
150.0
 70
    64
  0
VERTEX
  5
6A
  8
TEAM-NET
 10
344.522043
 20
327.295941
 30
150.0
 70
    64
  0
SEQEND
  5
6C
  8
TEAM-NET
  0
POLYLINE
  5
6D
  8
TEAM-NET
 66
     1
 10
0.0
 20
0.0
 30
0.0
 70
    16
 71
     2
 72
    37
  0
VERTEX
  5
6E
  8
TEAM-NET
 10
-329.863824
 20
-313.370632
 30
85.0
 70
    64
  0
VERTEX
  5
6F
  8
TEAM-NET
 10
-340.0
 20
-279.039629
 30
85.0
 70
    64
  0
VERTEX
  5
70
  8
TEAM-NET
 10
-340.0
 20
-242.69253
 30
85.0
 70
    64
  0
VERTEX
  5
71
  8
TEAM-NET
 10
-340.0
 20
-206.345431
 30
85.0
 70
    64
  0
VERTEX
  5
72
  8
TEAM-NET
 10
-340.0
 20
-169.998333
 30
85.0
 70
    64
  0
VERTEX
  5
73
  8
TEAM-NET
 10
-340.0
 20
-133.651234
 30
85.0
 70
    64
  0
VERTEX
  5
74
  8
TEAM-NET
 10
-340.0
 20
-97.304135
 30
85.0
 70
    64
  0
VERTEX
  5
75
  8
TEAM-NET
 10
-340.0
 20
-60.957036
 30
85.0
 70
    64
  0
VERTEX
  5
76
  8
TEAM-NET
 10
-340.0
 20
-24.609937
 30
85.0
 70
    64
  0
VERTEX
  5
77
  8
TEAM-NET
 10
-340.0
 20
11.737162
 30
85.0
 70
    64
  0
VERTEX
  5
78
  8
TEAM-NET
 10
-340.0
 20
48.084261
 30
85.0
 70
    64
  0
VERTEX
  5
79
  8
TEAM-NET
 10
-340.0
 20
84.431359
 30
85.0
 70
    64
  0
VERTEX
  5
7A
  8
TEAM-NET
 10
-340.0
 20
120.778458
 30
85.0
 70
    64
  0
VERTEX
  5
7B
  8
TEAM-NET
 10
-340.0
 20
157.125557
 30
85.0
 70
    64
  0
VERTEX
  5
7C
  8
TEAM-NET
 10
-340.0
 20
193.472656
 30
85.0
 70
    64
  0
VERTEX
  5
7D
  8
TEAM-NET
 10
-340.0
 20
229.819755
 30
85.0
 70
    64
  0
VERTEX
  5
7E
  8
TEAM-NET
 10
-340.0
 20
266.166854
 30
85.0
 70
    64
  0
VERTEX
  5
7F
  8
TEAM-NET
 10
-335.825345
 20
301.989334
 30
85.0
 70
    64
  0
VERTEX
  5
80
  8
TEAM-NET
 10
-313.370632
 20
329.863824
 30
85.0
 70
    64
  0
VERTEX
  5
81
  8
TEAM-NET
 10
-279.039629
 20
340.0
 30
85.0
 70
    64
  0
VERTEX
  5
82
  8
TEAM-NET
 10
-242.69253
 20
340.0
 30
85.0
 70
    64
  0
VERTEX
  5
83
  8
TEAM-NET
 10
-206.345431
 20
340.0
 30
85.0
 70
    64
  0
VERTEX
  5
84
  8
TEAM-NET
 10
-169.998333
 20
340.0
 30
85.0
 70
    64
  0
VERTEX
  5
85
  8
TEAM-NET
 10
-133.651234
 20
340.0
 30
85.0
 70
    64
  0
VERTEX
  5
86
  8
TEAM-NET
 10
-97.304135
 20
340.0
 30
85.0
 70
    64
  0
VERTEX
  5
87
  8
TEAM-NET
 10
-60.957036
 20
340.0
 30
85.0
 70
    64
  0
VERTEX
  5
88
  8
TEAM-NET
 10
-24.609937
 20
340.0
 30
85.0
 70
    64
  0
VERTEX
  5
89
  8
TEAM-NET
 10
11.737162
 20
340.0
 30
85.0
 70
    64
  0
VERTEX
  5
8A
  8
TEAM-NET
 10
48.084261
 20
340.0
 30
85.0
 70
    64
  0
VERTEX
  5
8B
  8
TEAM-NET
 10
84.431359
 20
340.0
 30
85.0
 70
    64
  0
VERTEX
  5
8C
  8
TEAM-NET
 10
120.778458
 20
340.0
 30
85.0
 70
    64
  0
VERTEX
  5
8D
  8
TEAM-NET
 10
157.125557
 20
340.0
 30
85.0
 70
    64
  0
VERTEX
  5
8E
  8
TEAM-NET
 10
193.472656
 20
340.0
 30
85.0
 70
    64
  0
VERTEX
  5
8F
  8
TEAM-NET
 10
229.819755
 20
340.0
 30
85.0
 70
    64
  0
VERTEX
  5
90
  8
TEAM-NET
 10
266.166854
 20
340.0
 30
85.0
 70
    64
  0
VERTEX
  5
91
  8
TEAM-NET
 10
301.989334
 20
335.825345
 30
85.0
 70
    64
  0
VERTEX
  5
92
  8
TEAM-NET
 10
329.863824
 20
313.370632
 30
85.0
 70
    64
  0
VERTEX
  5
93
  8
TEAM-NET
 10
-344.522043
 20
-327.295941
 30
150.0
 70
    64
  0
VERTEX
  5
94
  8
TEAM-NET
 10
-359.023684
 20
-292.460233
 30
150.0
 70
    64
  0
VERTEX
  5
95
  8
TEAM-NET
 10
-360.0
 20
-254.418742
 30
150.0
 70
    64
  0
VERTEX
  5
96
  8
TEAM-NET
 10
-360.0
 20
-216.326314
 30
150.0
 70
    64
  0
VERTEX
  5
97
  8
TEAM-NET
 10
-360.0
 20
-178.233886
 30
150.0
 70
    64
  0
VERTEX
  5
98
  8
TEAM-NET
 10
-360.0
 20
-140.141457
 30
150.0
 70
    64
  0
VERTEX
  5
99
  8
TEAM-NET
 10
-360.0
 20
-102.049029
 30
150.0
 70
    64
  0
VERTEX
  5
9A
  8
TEAM-NET
 10
-360.0
 20
-63.956601
 30
150.0
 70
    64
  0
VERTEX
  5
9B
  8
TEAM-NET
 10
-360.0
 20
-25.864173
 30
150.0
 70
    64
  0
VERTEX
  5
9C
  8
TEAM-NET
 10
-360.0
 20
12.228255
 30
150.0
 70
    64
  0
VERTEX
  5
9D
  8
TEAM-NET
 10
-360.0
 20
50.320683
 30
150.0
 70
    64
  0
VERTEX
  5
9E
  8
TEAM-NET
 10
-360.0
 20
88.413111
 30
150.0
 70
    64
  0
VERTEX
  5
9F
  8
TEAM-NET
 10
-360.0
 20
126.505539
 30
150.0
 70
    64
  0
VERTEX
  5
A0
  8
TEAM-NET
 10
-360.0
 20
164.597968
 30
150.0
 70
    64
  0
VERTEX
  5
A1
  8
TEAM-NET
 10
-360.0
 20
202.690396
 30
150.0
 70
    64
  0
VERTEX
  5
A2
  8
TEAM-NET
 10
-360.0
 20
240.782824
 30
150.0
 70
    64
  0
VERTEX
  5
A3
  8
TEAM-NET
 10
-360.0
 20
278.875252
 30
150.0
 70
    64
  0
VERTEX
  5
A4
  8
TEAM-NET
 10
-351.609601
 20
315.666021
 30
150.0
 70
    64
  0
VERTEX
  5
A5
  8
TEAM-NET
 10
-327.295941
 20
344.522043
 30
150.0
 70
    64
  0
VERTEX
  5
A6
  8
TEAM-NET
 10
-292.460233
 20
359.023684
 30
150.0
 70
    64
  0
VERTEX
  5
A7
  8
TEAM-NET
 10
-254.418742
 20
360.0
 30
150.0
 70
    64
  0
VERTEX
  5
A8
  8
TEAM-NET
 10
-216.326314
 20
360.0
 30
150.0
 70
    64
  0
VERTEX
  5
A9
  8
TEAM-NET
 10
-178.233886
 20
360.0
 30
150.0
 70
    64
  0
VERTEX
  5
AA
  8
TEAM-NET
 10
-140.141457
 20
360.0
 30
150.0
 70
    64
  0
VERTEX
  5
AB
  8
TEAM-NET
 10
-102.049029
 20
360.0
 30
150.0
 70
    64
  0
VERTEX
  5
AC
  8
TEAM-NET
 10
-63.956601
 20
360.0
 30
150.0
 70
    64
  0
VERTEX
  5
AD
  8
TEAM-NET
 10
-25.864173
 20
360.0
 30
150.0
 70
    64
  0
VERTEX
  5
AE
  8
TEAM-NET
 10
12.228255
 20
360.0
 30
150.0
 70
    64
  0
VERTEX
  5
AF
  8
TEAM-NET
 10
50.320683
 20
360.0
 30
150.0
 70
    64
  0
VERTEX
  5
B0
  8
TEAM-NET
 10
88.413111
 20
360.0
 30
150.0
 70
    64
  0
VERTEX
  5
B1
  8
TEAM-NET
 10
126.505539
 20
360.0
 30
150.0
 70
    64
  0
VERTEX
  5
B2
  8
TEAM-NET
 10
164.597968
 20
360.0
 30
150.0
 70
    64
  0
VERTEX
  5
B3
  8
TEAM-NET
 10
202.690396
 20
360.0
 30
150.0
 70
    64
  0
VERTEX
  5
B4
  8
TEAM-NET
 10
240.782824
 20
360.0
 30
150.0
 70
    64
  0
VERTEX
  5
B5
  8
TEAM-NET
 10
278.875252
 20
360.0
 30
150.0
 70
    64
  0
VERTEX
  5
B6
  8
TEAM-NET
 10
315.666021
 20
351.609601
 30
150.0
 70
    64
  0
VERTEX
  5
B7
  8
TEAM-NET
 10
344.522043
 20
327.295941
 30
150.0
 70
    64
  0
SEQEND
  5
B8
  8
TEAM-NET
  0
POLYLINE
  5
B9
  8
TEAM-BODY
 66
     1
 10
0.0
 20
0.0
 30
150.0
 39
-10.0
  0
VERTEX
  5
2FB
  8
TEAM-BODY
 10
400.0
 20
380.0
 30
150.0
 42
0.414214
  0
VERTEX
  5
2FC
  8
TEAM-BODY
 10
380.0
 20
400.0
 30
150.0
  0
VERTEX
  5
2FD
  8
TEAM-BODY
 10
-380.0
 20
400.0
 30
150.0
 42
0.414214
  0
VERTEX
  5
2FE
  8
TEAM-BODY
 10
-400.0
 20
380.0
 30
150.0
  0
VERTEX
  5
2FF
  8
TEAM-BODY
 10
-400.0
 20
-380.0
 30
150.0
  0
SEQEND
  5
300
  8
TEAM-BODY
  0
POLYLINE
  5
BB
  8
TEAM-BODY
 66
     1
 10
0.0
 20
0.0
 30
150.0
 39
-10.0
  0
VERTEX
  5
301
  8
TEAM-BODY
 10
400.0
 20
380.0
 30
150.0
  0
VERTEX
  5
302
  8
TEAM-BODY
 10
400.0
 20
-380.0
 30
150.0
 42
-0.414214
  0
VERTEX
  5
303
  8
TEAM-BODY
 10
380.0
 20
-400.0
 30
150.0
  0
VERTEX
  5
304
  8
TEAM-BODY
 10
-380.0
 20
-400.0
 30
150.0
 42
-0.414214
  0
VERTEX
  5
305
  8
TEAM-BODY
 10
-400.0
 20
-380.0
 30
150.0
  0
SEQEND
  5
306
  8
TEAM-BODY
  0
CIRCLE
  5
BC
  8
TEAM-INSP
 10
0.0
 20
0.0
 30
0.0
 40
7.1
  0
POLYLINE
  5
BE
  8
TEAM-KAN
 66
     1
 10
0.0
 20
0.0
 30
0.0
 70
    48
 71
     2
 72
    32
  0
VERTEX
  5
BF
  8
TEAM-KAN
 10
185.0
 20
-235.0
 30
85.0
 70
    64
  0
VERTEX
  5
C0
  8
TEAM-KAN
 10
194.754516
 20
-234.039264
 30
85.0
 70
    64
  0
VERTEX
  5
C1
  8
TEAM-KAN
 10
204.134172
 20
-231.193977
 30
85.0
 70
    64
  0
VERTEX
  5
C2
  8
TEAM-KAN
 10
212.778512
 20
-226.573481
 30
85.0
 70
    64
  0
VERTEX
  5
C3
  8
TEAM-KAN
 10
220.355339
 20
-220.355339
 30
85.0
 70
    64
  0
VERTEX
  5
C4
  8
TEAM-KAN
 10
226.573481
 20
-212.778512
 30
85.0
 70
    64
  0
VERTEX
  5
C5
  8
TEAM-KAN
 10
231.193977
 20
-204.134172
 30
85.0
 70
    64
  0
VERTEX
  5
C6
  8
TEAM-KAN
 10
234.039264
 20
-194.754516
 30
85.0
 70
    64
  0
VERTEX
  5
C7
  8
TEAM-KAN
 10
235.0
 20
-185.0
 30
85.0
 70
    64
  0
VERTEX
  5
C8
  8
TEAM-KAN
 10
234.039264
 20
-175.245484
 30
85.0
 70
    64
  0
VERTEX
  5
C9
  8
TEAM-KAN
 10
231.193977
 20
-165.865828
 30
85.0
 70
    64
  0
VERTEX
  5
CA
  8
TEAM-KAN
 10
226.573481
 20
-157.221488
 30
85.0
 70
    64
  0
VERTEX
  5
CB
  8
TEAM-KAN
 10
220.355339
 20
-149.644661
 30
85.0
 70
    64
  0
VERTEX
  5
CC
  8
TEAM-KAN
 10
212.778512
 20
-143.426519
 30
85.0
 70
    64
  0
VERTEX
  5
CD
  8
TEAM-KAN
 10
204.134172
 20
-138.806023
 30
85.0
 70
    64
  0
VERTEX
  5
CE
  8
TEAM-KAN
 10
194.754516
 20
-135.960736
 30
85.0
 70
    64
  0
VERTEX
  5
CF
  8
TEAM-KAN
 10
185.0
 20
-135.0
 30
85.0
 70
    64
  0
VERTEX
  5
D0
  8
TEAM-KAN
 10
175.245484
 20
-135.960736
 30
85.0
 70
    64
  0
VERTEX
  5
D1
  8
TEAM-KAN
 10
165.865828
 20
-138.806023
 30
85.0
 70
    64
  0
VERTEX
  5
D2
  8
TEAM-KAN
 10
157.221488
 20
-143.426519
 30
85.0
 70
    64
  0
VERTEX
  5
D3
  8
TEAM-KAN
 10
149.644661
 20
-149.644661
 30
85.0
 70
    64
  0
VERTEX
  5
D4
  8
TEAM-KAN
 10
143.426519
 20
-157.221488
 30
85.0
 70
    64
  0
VERTEX
  5
D5
  8
TEAM-KAN
 10
138.806023
 20
-165.865828
 30
85.0
 70
    64
  0
VERTEX
  5
D6
  8
TEAM-KAN
 10
135.960736
 20
-175.245484
 30
85.0
 70
    64
  0
VERTEX
  5
D7
  8
TEAM-KAN
 10
135.0
 20
-185.0
 30
85.0
 70
    64
  0
VERTEX
  5
D8
  8
TEAM-KAN
 10
135.960736
 20
-194.754516
 30
85.0
 70
    64
  0
VERTEX
  5
D9
  8
TEAM-KAN
 10
138.806023
 20
-204.134172
 30
85.0
 70
    64
  0
VERTEX
  5
DA
  8
TEAM-KAN
 10
143.426519
 20
-212.778512
 30
85.0
 70
    64
  0
VERTEX
  5
DB
  8
TEAM-KAN
 10
149.644661
 20
-220.355339
 30
85.0
 70
    64
  0
VERTEX
  5
DC
  8
TEAM-KAN
 10
157.221488
 20
-226.573481
 30
85.0
 70
    64
  0
VERTEX
  5
DD
  8
TEAM-KAN
 10
165.865828
 20
-231.193977
 30
85.0
 70
    64
  0
VERTEX
  5
DE
  8
TEAM-KAN
 10
175.245484
 20
-234.039264
 30
85.0
 70
    64
  0
VERTEX
  5
DF
  8
TEAM-KAN
 10
185.0
 20
-235.0
 30
75.0
 70
    64
  0
VERTEX
  5
E0
  8
TEAM-KAN
 10
194.754516
 20
-234.039264
 30
75.0
 70
    64
  0
VERTEX
  5
E1
  8
TEAM-KAN
 10
204.134172
 20
-231.193977
 30
75.0
 70
    64
  0
VERTEX
  5
E2
  8
TEAM-KAN
 10
212.778512
 20
-226.573481
 30
75.0
 70
    64
  0
VERTEX
  5
E3
  8
TEAM-KAN
 10
220.355339
 20
-220.355339
 30
75.0
 70
    64
  0
VERTEX
  5
E4
  8
TEAM-KAN
 10
226.573481
 20
-212.778512
 30
75.0
 70
    64
  0
VERTEX
  5
E5
  8
TEAM-KAN
 10
231.193977
 20
-204.134172
 30
75.0
 70
    64
  0
VERTEX
  5
E6
  8
TEAM-KAN
 10
234.039264
 20
-194.754516
 30
75.0
 70
    64
  0
VERTEX
  5
E7
  8
TEAM-KAN
 10
235.0
 20
-185.0
 30
75.0
 70
    64
  0
VERTEX
  5
E8
  8
TEAM-KAN
 10
234.039264
 20
-175.245484
 30
75.0
 70
    64
  0
VERTEX
  5
E9
  8
TEAM-KAN
 10
231.193977
 20
-165.865828
 30
75.0
 70
    64
  0
VERTEX
  5
EA
  8
TEAM-KAN
 10
226.573481
 20
-157.221488
 30
75.0
 70
    64
  0
VERTEX
  5
EB
  8
TEAM-KAN
 10
220.355339
 20
-149.644661
 30
75.0
 70
    64
  0
VERTEX
  5
EC
  8
TEAM-KAN
 10
212.778512
 20
-143.426519
 30
75.0
 70
    64
  0
VERTEX
  5
ED
  8
TEAM-KAN
 10
204.134172
 20
-138.806023
 30
75.0
 70
    64
  0
VERTEX
  5
EE
  8
TEAM-KAN
 10
194.754516
 20
-135.960736
 30
75.0
 70
    64
  0
VERTEX
  5
EF
  8
TEAM-KAN
 10
185.0
 20
-135.0
 30
75.0
 70
    64
  0
VERTEX
  5
F0
  8
TEAM-KAN
 10
175.245484
 20
-135.960736
 30
75.0
 70
    64
  0
VERTEX
  5
F1
  8
TEAM-KAN
 10
165.865828
 20
-138.806023
 30
75.0
 70
    64
  0
VERTEX
  5
F2
  8
TEAM-KAN
 10
157.221488
 20
-143.426519
 30
75.0
 70
    64
  0
VERTEX
  5
F3
  8
TEAM-KAN
 10
149.644661
 20
-149.644661
 30
75.0
 70
    64
  0
VERTEX
  5
F4
  8
TEAM-KAN
 10
143.426519
 20
-157.221488
 30
75.0
 70
    64
  0
VERTEX
  5
F5
  8
TEAM-KAN
 10
138.806023
 20
-165.865828
 30
75.0
 70
    64
  0
VERTEX
  5
F6
  8
TEAM-KAN
 10
135.960736
 20
-175.245484
 30
75.0
 70
    64
  0
VERTEX
  5
F7
  8
TEAM-KAN
 10
135.0
 20
-185.0
 30
75.0
 70
    64
  0
VERTEX
  5
F8
  8
TEAM-KAN
 10
135.960736
 20
-194.754516
 30
75.0
 70
    64
  0
VERTEX
  5
F9
  8
TEAM-KAN
 10
138.806023
 20
-204.134172
 30
75.0
 70
    64
  0
VERTEX
  5
FA
  8
TEAM-KAN
 10
143.426519
 20
-212.778512
 30
75.0
 70
    64
  0
VERTEX
  5
FB
  8
TEAM-KAN
 10
149.644661
 20
-220.355339
 30
75.0
 70
    64
  0
VERTEX
  5
FC
  8
TEAM-KAN
 10
157.221488
 20
-226.573481
 30
75.0
 70
    64
  0
VERTEX
  5
FD
  8
TEAM-KAN
 10
165.865828
 20
-231.193977
 30
75.0
 70
    64
  0
VERTEX
  5
FE
  8
TEAM-KAN
 10
175.245484
 20
-234.039264
 30
75.0
 70
    64
  0
SEQEND
  5
100
  8
TEAM-KAN
  0
CIRCLE
  5
101
  8
TEAM-KAN
 10
185.0
 20
-185.0
 30
75.0
 40
40.0
  0
CIRCLE
  5
102
  8
TEAM-KAN
 10
185.0
 20
-185.0
 30
75.0
 40
50.0
  0
POLYLINE
  5
103
  8
TEAM-NET
 66
     1
 10
0.0
 20
0.0
 30
0.0
 70
    16
 71
     2
 72
    37
  0
VERTEX
  5
104
  8
TEAM-NET
 10
-329.863824
 20
-313.370632
 30
85.0
 70
    64
  0
VERTEX
  5
105
  8
TEAM-NET
 10
-301.989334
 20
-335.825345
 30
85.0
 70
    64
  0
VERTEX
  5
106
  8
TEAM-NET
 10
-266.166854
 20
-340.0
 30
85.0
 70
    64
  0
VERTEX
  5
107
  8
TEAM-NET
 10
-229.819755
 20
-340.0
 30
85.0
 70
    64
  0
VERTEX
  5
108
  8
TEAM-NET
 10
-193.472656
 20
-340.0
 30
85.0
 70
    64
  0
VERTEX
  5
109
  8
TEAM-NET
 10
-157.125557
 20
-340.0
 30
85.0
 70
    64
  0
VERTEX
  5
10A
  8
TEAM-NET
 10
-120.778458
 20
-340.0
 30
85.0
 70
    64
  0
VERTEX
  5
10B
  8
TEAM-NET
 10
-84.431359
 20
-340.0
 30
85.0
 70
    64
  0
VERTEX
  5
10C
  8
TEAM-NET
 10
-48.084261
 20
-340.0
 30
85.0
 70
    64
  0
VERTEX
  5
10D
  8
TEAM-NET
 10
-11.737162
 20
-340.0
 30
85.0
 70
    64
  0
VERTEX
  5
10E
  8
TEAM-NET
 10
24.609937
 20
-340.0
 30
85.0
 70
    64
  0
VERTEX
  5
10F
  8
TEAM-NET
 10
60.957036
 20
-340.0
 30
85.0
 70
    64
  0
VERTEX
  5
110
  8
TEAM-NET
 10
97.304135
 20
-340.0
 30
85.0
 70
    64
  0
VERTEX
  5
111
  8
TEAM-NET
 10
133.651234
 20
-340.0
 30
85.0
 70
    64
  0
VERTEX
  5
112
  8
TEAM-NET
 10
169.998333
 20
-340.0
 30
85.0
 70
    64
  0
VERTEX
  5
113
  8
TEAM-NET
 10
206.345431
 20
-340.0
 30
85.0
 70
    64
  0
VERTEX
  5
114
  8
TEAM-NET
 10
242.69253
 20
-340.0
 30
85.0
 70
    64
  0
VERTEX
  5
115
  8
TEAM-NET
 10
279.039629
 20
-340.0
 30
85.0
 70
    64
  0
VERTEX
  5
116
  8
TEAM-NET
 10
313.370632
 20
-329.863824
 30
85.0
 70
    64
  0
VERTEX
  5
117
  8
TEAM-NET
 10
335.825345
 20
-301.989334
 30
85.0
 70
    64
  0
VERTEX
  5
118
  8
TEAM-NET
 10
340.0
 20
-266.166854
 30
85.0
 70
    64
  0
VERTEX
  5
119
  8
TEAM-NET
 10
340.0
 20
-229.819755
 30
85.0
 70
    64
  0
VERTEX
  5
11A
  8
TEAM-NET
 10
340.0
 20
-193.472656
 30
85.0
 70
    64
  0
VERTEX
  5
11B
  8
TEAM-NET
 10
340.0
 20
-157.125557
 30
85.0
 70
    64
  0
VERTEX
  5
11C
  8
TEAM-NET
 10
340.0
 20
-120.778458
 30
85.0
 70
    64
  0
VERTEX
  5
11D
  8
TEAM-NET
 10
340.0
 20
-84.431359
 30
85.0
 70
    64
  0
VERTEX
  5
11E
  8
TEAM-NET
 10
340.0
 20
-48.084261
 30
85.0
 70
    64
  0
VERTEX
  5
11F
  8
TEAM-NET
 10
340.0
 20
-11.737162
 30
85.0
 70
    64
  0
VERTEX
  5
120
  8
TEAM-NET
 10
340.0
 20
24.609937
 30
85.0
 70
    64
  0
VERTEX
  5
121
  8
TEAM-NET
 10
340.0
 20
60.957036
 30
85.0
 70
    64
  0
VERTEX
  5
122
  8
TEAM-NET
 10
340.0
 20
97.304135
 30
85.0
 70
    64
  0
VERTEX
  5
123
  8
TEAM-NET
 10
340.0
 20
133.651234
 30
85.0
 70
    64
  0
VERTEX
  5
124
  8
TEAM-NET
 10
340.0
 20
169.998333
 30
85.0
 70
    64
  0
VERTEX
  5
125
  8
TEAM-NET
 10
340.0
 20
206.345431
 30
85.0
 70
    64
  0
VERTEX
  5
126
  8
TEAM-NET
 10
340.0
 20
242.69253
 30
85.0
 70
    64
  0
VERTEX
  5
127
  8
TEAM-NET
 10
340.0
 20
279.039629
 30
85.0
 70
    64
  0
VERTEX
  5
128
  8
TEAM-NET
 10
329.863824
 20
313.370632
 30
85.0
 70
    64
  0
VERTEX
  5
129
  8
TEAM-NET
 10
-329.863824
 20
-313.370632
 30
85.0
 70
    64
  0
VERTEX
  5
12A
  8
TEAM-NET
 10
-340.0
 20
-279.039629
 30
85.0
 70
    64
  0
VERTEX
  5
12B
  8
TEAM-NET
 10
-340.0
 20
-242.69253
 30
85.0
 70
    64
  0
VERTEX
  5
12C
  8
TEAM-NET
 10
-340.0
 20
-206.345431
 30
85.0
 70
    64
  0
VERTEX
  5
12D
  8
TEAM-NET
 10
-340.0
 20
-169.998333
 30
85.0
 70
    64
  0
VERTEX
  5
12E
  8
TEAM-NET
 10
-340.0
 20
-133.651234
 30
85.0
 70
    64
  0
VERTEX
  5
12F
  8
TEAM-NET
 10
-340.0
 20
-97.304135
 30
85.0
 70
    64
  0
VERTEX
  5
130
  8
TEAM-NET
 10
-340.0
 20
-60.957036
 30
85.0
 70
    64
  0
VERTEX
  5
131
  8
TEAM-NET
 10
-340.0
 20
-24.609937
 30
85.0
 70
    64
  0
VERTEX
  5
132
  8
TEAM-NET
 10
-340.0
 20
11.737162
 30
85.0
 70
    64
  0
VERTEX
  5
133
  8
TEAM-NET
 10
-340.0
 20
48.084261
 30
85.0
 70
    64
  0
VERTEX
  5
134
  8
TEAM-NET
 10
-340.0
 20
84.431359
 30
85.0
 70
    64
  0
VERTEX
  5
135
  8
TEAM-NET
 10
-340.0
 20
120.778458
 30
85.0
 70
    64
  0
VERTEX
  5
136
  8
TEAM-NET
 10
-340.0
 20
157.125557
 30
85.0
 70
    64
  0
VERTEX
  5
137
  8
TEAM-NET
 10
-340.0
 20
193.472656
 30
85.0
 70
    64
  0
VERTEX
  5
138
  8
TEAM-NET
 10
-340.0
 20
229.819755
 30
85.0
 70
    64
  0
VERTEX
  5
139
  8
TEAM-NET
 10
-340.0
 20
266.166854
 30
85.0
 70
    64
  0
VERTEX
  5
13A
  8
TEAM-NET
 10
-335.825345
 20
301.989334
 30
85.0
 70
    64
  0
VERTEX
  5
13B
  8
TEAM-NET
 10
-313.370632
 20
329.863824
 30
85.0
 70
    64
  0
VERTEX
  5
13C
  8
TEAM-NET
 10
-279.039629
 20
340.0
 30
85.0
 70
    64
  0
VERTEX
  5
13D
  8
TEAM-NET
 10
-242.69253
 20
340.0
 30
85.0
 70
    64
  0
VERTEX
  5
13E
  8
TEAM-NET
 10
-206.345431
 20
340.0
 30
85.0
 70
    64
  0
VERTEX
  5
13F
  8
TEAM-NET
 10
-169.998333
 20
340.0
 30
85.0
 70
    64
  0
VERTEX
  5
140
  8
TEAM-NET
 10
-133.651234
 20
340.0
 30
85.0
 70
    64
  0
VERTEX
  5
141
  8
TEAM-NET
 10
-97.304135
 20
340.0
 30
85.0
 70
    64
  0
VERTEX
  5
142
  8
TEAM-NET
 10
-60.957036
 20
340.0
 30
85.0
 70
    64
  0
VERTEX
  5
143
  8
TEAM-NET
 10
-24.609937
 20
340.0
 30
85.0
 70
    64
  0
VERTEX
  5
144
  8
TEAM-NET
 10
11.737162
 20
340.0
 30
85.0
 70
    64
  0
VERTEX
  5
145
  8
TEAM-NET
 10
48.084261
 20
340.0
 30
85.0
 70
    64
  0
VERTEX
  5
146
  8
TEAM-NET
 10
84.431359
 20
340.0
 30
85.0
 70
    64
  0
VERTEX
  5
147
  8
TEAM-NET
 10
120.778458
 20
340.0
 30
85.0
 70
    64
  0
VERTEX
  5
148
  8
TEAM-NET
 10
157.125557
 20
340.0
 30
85.0
 70
    64
  0
VERTEX
  5
149
  8
TEAM-NET
 10
193.472656
 20
340.0
 30
85.0
 70
    64
  0
VERTEX
  5
14A
  8
TEAM-NET
 10
229.819755
 20
340.0
 30
85.0
 70
    64
  0
VERTEX
  5
14B
  8
TEAM-NET
 10
266.166854
 20
340.0
 30
85.0
 70
    64
  0
VERTEX
  5
14C
  8
TEAM-NET
 10
301.989334
 20
335.825345
 30
85.0
 70
    64
  0
VERTEX
  5
14D
  8
TEAM-NET
 10
329.863824
 20
313.370632
 30
85.0
 70
    64
  0
SEQEND
  5
14E
  8
TEAM-NET
  0
POLYLINE
  5
14F
  8
TEAM-DET1
 66
     1
 10
0.0
 20
0.0
 30
85.0
  0
VERTEX
  5
307
  8
TEAM-DET1
 10
-329.863824
 20
-313.370632
 30
85.0
 42
0.250293
  0
VERTEX
  5
308
  8
TEAM-DET1
 10
-280.0
 20
-340.0
 30
85.0
  0
VERTEX
  5
309
  8
TEAM-DET1
 10
280.0
 20
-340.0
 30
85.0
 42
0.414214
  0
VERTEX
  5
30A
  8
TEAM-DET1
 10
340.0
 20
-280.0
 30
85.0
  0
VERTEX
  5
30B
  8
TEAM-DET1
 10
340.0
 20
280.0
 30
85.0
 42
0.148523
  0
VERTEX
  5
30C
  8
TEAM-DET1
 10
329.863824
 20
313.370632
 30
85.0
 42
0.148523
  0
SEQEND
  5
30D
  8
TEAM-DET1
  0
POLYLINE
  5
151
  8
TEAM-DET1
 66
     1
 10
0.0
 20
0.0
 30
85.0
  0
VERTEX
  5
30E
  8
TEAM-DET1
 10
329.863824
 20
313.370632
 30
85.0
 42
0.250293
  0
VERTEX
  5
30F
  8
TEAM-DET1
 10
280.0
 20
340.0
 30
85.0
  0
VERTEX
  5
310
  8
TEAM-DET1
 10
-280.0
 20
340.0
 30
85.0
 42
0.414214
  0
VERTEX
  5
311
  8
TEAM-DET1
 10
-340.0
 20
280.0
 30
85.0
  0
VERTEX
  5
312
  8
TEAM-DET1
 10
-340.0
 20
-280.0
 30
85.0
 42
0.148523
  0
VERTEX
  5
313
  8
TEAM-DET1
 10
-329.863824
 20
-313.370632
 30
85.0
  0
SEQEND
  5
314
  8
TEAM-DET1
  0
LINE
  5
152
  8
TEAM-AXE
 10
185.0
 20
-115.0
 30
85.0
 11
185.0
 21
-255.0
 31
85.0
  0
CIRCLE
  5
155
  8
TEAM-KAN
 10
185.0
 20
-185.0
 30
85.0
 40
40.0
  0
CIRCLE
  5
156
  8
TEAM-KAN
 10
185.0
 20
-185.0
 30
85.0
 40
50.0
  0
LINE
  5
157
  8
TEAM-AXE
 10
115.0
 20
-185.0
 30
85.0
 11
255.0
 21
-185.0
 31
85.0
  0
POLYLINE
  5
158
  8
TEAM-NET
 66
     1
 10
0.0
 20
0.0
 30
0.0
 70
    16
 71
     2
 72
    37
  0
VERTEX
  5
159
  8
TEAM-NET
 10
-344.522043
 20
-327.295941
 30
150.0
 70
    64
  0
VERTEX
  5
15A
  8
TEAM-NET
 10
-315.666021
 20
-351.609601
 30
150.0
 70
    64
  0
VERTEX
  5
15B
  8
TEAM-NET
 10
-278.875252
 20
-360.0
 30
150.0
 70
    64
  0
VERTEX
  5
15C
  8
TEAM-NET
 10
-240.782824
 20
-360.0
 30
150.0
 70
    64
  0
VERTEX
  5
15D
  8
TEAM-NET
 10
-202.690396
 20
-360.0
 30
150.0
 70
    64
  0
VERTEX
  5
15E
  8
TEAM-NET
 10
-164.597968
 20
-360.0
 30
150.0
 70
    64
  0
VERTEX
  5
15F
  8
TEAM-NET
 10
-126.505539
 20
-360.0
 30
150.0
 70
    64
  0
VERTEX
  5
160
  8
TEAM-NET
 10
-88.413111
 20
-360.0
 30
150.0
 70
    64
  0
VERTEX
  5
161
  8
TEAM-NET
 10
-50.320683
 20
-360.0
 30
150.0
 70
    64
  0
VERTEX
  5
162
  8
TEAM-NET
 10
-12.228255
 20
-360.0
 30
150.0
 70
    64
  0
VERTEX
  5
163
  8
TEAM-NET
 10
25.864173
 20
-360.0
 30
150.0
 70
    64
  0
VERTEX
  5
164
  8
TEAM-NET
 10
63.956601
 20
-360.0
 30
150.0
 70
    64
  0
VERTEX
  5
165
  8
TEAM-NET
 10
102.049029
 20
-360.0
 30
150.0
 70
    64
  0
VERTEX
  5
166
  8
TEAM-NET
 10
140.141457
 20
-360.0
 30
150.0
 70
    64
  0
VERTEX
  5
167
  8
TEAM-NET
 10
178.233886
 20
-360.0
 30
150.0
 70
    64
  0
VERTEX
  5
168
  8
TEAM-NET
 10
216.326314
 20
-360.0
 30
150.0
 70
    64
  0
VERTEX
  5
169
  8
TEAM-NET
 10
254.418742
 20
-360.0
 30
150.0
 70
    64
  0
VERTEX
  5
16A
  8
TEAM-NET
 10
292.460233
 20
-359.023684
 30
150.0
 70
    64
  0
VERTEX
  5
16B
  8
TEAM-NET
 10
327.295941
 20
-344.522043
 30
150.0
 70
    64
  0
VERTEX
  5
16C
  8
TEAM-NET
 10
351.609601
 20
-315.666021
 30
150.0
 70
    64
  0
VERTEX
  5
16D
  8
TEAM-NET
 10
360.0
 20
-278.875252
 30
150.0
 70
    64
  0
VERTEX
  5
16E
  8
TEAM-NET
 10
360.0
 20
-240.782824
 30
150.0
 70
    64
  0
VERTEX
  5
16F
  8
TEAM-NET
 10
360.0
 20
-202.690396
 30
150.0
 70
    64
  0
VERTEX
  5
170
  8
TEAM-NET
 10
360.0
 20
-164.597968
 30
150.0
 70
    64
  0
VERTEX
  5
171
  8
TEAM-NET
 10
360.0
 20
-126.505539
 30
150.0
 70
    64
  0
VERTEX
  5
172
  8
TEAM-NET
 10
360.0
 20
-88.413111
 30
150.0
 70
    64
  0
VERTEX
  5
173
  8
TEAM-NET
 10
360.0
 20
-50.320683
 30
150.0
 70
    64
  0
VERTEX
  5
174
  8
TEAM-NET
 10
360.0
 20
-12.228255
 30
150.0
 70
    64
  0
VERTEX
  5
175
  8
TEAM-NET
 10
360.0
 20
25.864173
 30
150.0
 70
    64
  0
VERTEX
  5
176
  8
TEAM-NET
 10
360.0
 20
63.956601
 30
150.0
 70
    64
  0
VERTEX
  5
177
  8
TEAM-NET
 10
360.0
 20
102.049029
 30
150.0
 70
    64
  0
VERTEX
  5
178
  8
TEAM-NET
 10
360.0
 20
140.141457
 30
150.0
 70
    64
  0
VERTEX
  5
179
  8
TEAM-NET
 10
360.0
 20
178.233886
 30
150.0
 70
    64
  0
VERTEX
  5
17A
  8
TEAM-NET
 10
360.0
 20
216.326314
 30
150.0
 70
    64
  0
VERTEX
  5
17B
  8
TEAM-NET
 10
360.0
 20
254.418742
 30
150.0
 70
    64
  0
VERTEX
  5
17C
  8
TEAM-NET
 10
359.023684
 20
292.460233
 30
150.0
 70
    64
  0
VERTEX
  5
17D
  8
TEAM-NET
 10
344.522043
 20
327.295941
 30
150.0
 70
    64
  0
VERTEX
  5
17E
  8
TEAM-NET
 10
-400.0
 20
-380.0
 30
150.0
 70
    64
  0
VERTEX
  5
17F
  8
TEAM-NET
 10
-367.448375
 20
-400.0
 30
150.0
 70
    64
  0
VERTEX
  5
180
  8
TEAM-NET
 10
-323.480824
 20
-400.0
 30
150.0
 70
    64
  0
VERTEX
  5
181
  8
TEAM-NET
 10
-279.513272
 20
-400.0
 30
150.0
 70
    64
  0
VERTEX
  5
182
  8
TEAM-NET
 10
-235.545721
 20
-400.0
 30
150.0
 70
    64
  0
VERTEX
  5
183
  8
TEAM-NET
 10
-191.578169
 20
-400.0
 30
150.0
 70
    64
  0
VERTEX
  5
184
  8
TEAM-NET
 10
-147.610618
 20
-400.0
 30
150.0
 70
    64
  0
VERTEX
  5
185
  8
TEAM-NET
 10
-103.643066
 20
-400.0
 30
150.0
 70
    64
  0
VERTEX
  5
186
  8
TEAM-NET
 10
-59.675515
 20
-400.0
 30
150.0
 70
    64
  0
VERTEX
  5
187
  8
TEAM-NET
 10
-15.707963
 20
-400.0
 30
150.0
 70
    64
  0
VERTEX
  5
188
  8
TEAM-NET
 10
28.259588
 20
-400.0
 30
150.0
 70
    64
  0
VERTEX
  5
189
  8
TEAM-NET
 10
72.22714
 20
-400.0
 30
150.0
 70
    64
  0
VERTEX
  5
18A
  8
TEAM-NET
 10
116.194691
 20
-400.0
 30
150.0
 70
    64
  0
VERTEX
  5
18B
  8
TEAM-NET
 10
160.162243
 20
-400.0
 30
150.0
 70
    64
  0
VERTEX
  5
18C
  8
TEAM-NET
 10
204.129794
 20
-400.0
 30
150.0
 70
    64
  0
VERTEX
  5
18D
  8
TEAM-NET
 10
248.097346
 20
-400.0
 30
150.0
 70
    64
  0
VERTEX
  5
18E
  8
TEAM-NET
 10
292.064897
 20
-400.0
 30
150.0
 70
    64
  0
VERTEX
  5
18F
  8
TEAM-NET
 10
336.032449
 20
-400.0
 30
150.0
 70
    64
  0
VERTEX
  5
190
  8
TEAM-NET
 10
380.0
 20
-400.0
 30
150.0
 70
    64
  0
VERTEX
  5
191
  8
TEAM-NET
 10
400.0
 20
-367.448375
 30
150.0
 70
    64
  0
VERTEX
  5
192
  8
TEAM-NET
 10
400.0
 20
-323.480824
 30
150.0
 70
    64
  0
VERTEX
  5
193
  8
TEAM-NET
 10
400.0
 20
-279.513272
 30
150.0
 70
    64
  0
VERTEX
  5
194
  8
TEAM-NET
 10
400.0
 20
-235.545721
 30
150.0
 70
    64
  0
VERTEX
  5
195
  8
TEAM-NET
 10
400.0
 20
-191.578169
 30
150.0
 70
    64
  0
VERTEX
  5
196
  8
TEAM-NET
 10
400.0
 20
-147.610618
 30
150.0
 70
    64
  0
VERTEX
  5
197
  8
TEAM-NET
 10
400.0
 20
-103.643066
 30
150.0
 70
    64
  0
VERTEX
  5
198
  8
TEAM-NET
 10
400.0
 20
-59.675515
 30
150.0
 70
    64
  0
VERTEX
  5
199
  8
TEAM-NET
 10
400.0
 20
-15.707963
 30
150.0
 70
    64
  0
VERTEX
  5
19A
  8
TEAM-NET
 10
400.0
 20
28.259588
 30
150.0
 70
    64
  0
VERTEX
  5
19B
  8
TEAM-NET
 10
400.0
 20
72.22714
 30
150.0
 70
    64
  0
VERTEX
  5
19C
  8
TEAM-NET
 10
400.0
 20
116.194691
 30
150.0
 70
    64
  0
VERTEX
  5
19D
  8
TEAM-NET
 10
400.0
 20
160.162243
 30
150.0
 70
    64
  0
VERTEX
  5
19E
  8
TEAM-NET
 10
400.0
 20
204.129794
 30
150.0
 70
    64
  0
VERTEX
  5
19F
  8
TEAM-NET
 10
400.0
 20
248.097346
 30
150.0
 70
    64
  0
VERTEX
  5
1A0
  8
TEAM-NET
 10
400.0
 20
292.064897
 30
150.0
 70
    64
  0
VERTEX
  5
1A1
  8
TEAM-NET
 10
400.0
 20
336.032449
 30
150.0
 70
    64
  0
VERTEX
  5
1A2
  8
TEAM-NET
 10
400.0
 20
380.0
 30
150.0
 70
    64
  0
SEQEND
  5
1A3
  8
TEAM-NET
  0
POLYLINE
  5
1A4
  8
TEAM-NET
 66
     1
 10
0.0
 20
0.0
 30
0.0
 70
    16
 71
     2
 72
    37
  0
VERTEX
  5
1A5
  8
TEAM-NET
 10
-344.522043
 20
-327.295941
 30
150.0
 70
    64
  0
VERTEX
  5
1A6
  8
TEAM-NET
 10
-359.023684
 20
-292.460233
 30
150.0
 70
    64
  0
VERTEX
  5
1A7
  8
TEAM-NET
 10
-360.0
 20
-254.418742
 30
150.0
 70
    64
  0
VERTEX
  5
1A8
  8
TEAM-NET
 10
-360.0
 20
-216.326314
 30
150.0
 70
    64
  0
VERTEX
  5
1A9
  8
TEAM-NET
 10
-360.0
 20
-178.233886
 30
150.0
 70
    64
  0
VERTEX
  5
1AA
  8
TEAM-NET
 10
-360.0
 20
-140.141457
 30
150.0
 70
    64
  0
VERTEX
  5
1AB
  8
TEAM-NET
 10
-360.0
 20
-102.049029
 30
150.0
 70
    64
  0
VERTEX
  5
1AC
  8
TEAM-NET
 10
-360.0
 20
-63.956601
 30
150.0
 70
    64
  0
VERTEX
  5
1AD
  8
TEAM-NET
 10
-360.0
 20
-25.864173
 30
150.0
 70
    64
  0
VERTEX
  5
1AE
  8
TEAM-NET
 10
-360.0
 20
12.228255
 30
150.0
 70
    64
  0
VERTEX
  5
1AF
  8
TEAM-NET
 10
-360.0
 20
50.320683
 30
150.0
 70
    64
  0
VERTEX
  5
1B0
  8
TEAM-NET
 10
-360.0
 20
88.413111
 30
150.0
 70
    64
  0
VERTEX
  5
1B1
  8
TEAM-NET
 10
-360.0
 20
126.505539
 30
150.0
 70
    64
  0
VERTEX
  5
1B2
  8
TEAM-NET
 10
-360.0
 20
164.597968
 30
150.0
 70
    64
  0
VERTEX
  5
1B3
  8
TEAM-NET
 10
-360.0
 20
202.690396
 30
150.0
 70
    64
  0
VERTEX
  5
1B4
  8
TEAM-NET
 10
-360.0
 20
240.782824
 30
150.0
 70
    64
  0
VERTEX
  5
1B5
  8
TEAM-NET
 10
-360.0
 20
278.875252
 30
150.0
 70
    64
  0
VERTEX
  5
1B6
  8
TEAM-NET
 10
-351.609601
 20
315.666021
 30
150.0
 70
    64
  0
VERTEX
  5
1B7
  8
TEAM-NET
 10
-327.295941
 20
344.522043
 30
150.0
 70
    64
  0
VERTEX
  5
1B8
  8
TEAM-NET
 10
-292.460233
 20
359.023684
 30
150.0
 70
    64
  0
VERTEX
  5
1B9
  8
TEAM-NET
 10
-254.418742
 20
360.0
 30
150.0
 70
    64
  0
VERTEX
  5
1BA
  8
TEAM-NET
 10
-216.326314
 20
360.0
 30
150.0
 70
    64
  0
VERTEX
  5
1BB
  8
TEAM-NET
 10
-178.233886
 20
360.0
 30
150.0
 70
    64
  0
VERTEX
  5
1BC
  8
TEAM-NET
 10
-140.141457
 20
360.0
 30
150.0
 70
    64
  0
VERTEX
  5
1BD
  8
TEAM-NET
 10
-102.049029
 20
360.0
 30
150.0
 70
    64
  0
VERTEX
  5
1BE
  8
TEAM-NET
 10
-63.956601
 20
360.0
 30
150.0
 70
    64
  0
VERTEX
  5
1BF
  8
TEAM-NET
 10
-25.864173
 20
360.0
 30
150.0
 70
    64
  0
VERTEX
  5
1C0
  8
TEAM-NET
 10
12.228255
 20
360.0
 30
150.0
 70
    64
  0
VERTEX
  5
1C1
  8
TEAM-NET
 10
50.320683
 20
360.0
 30
150.0
 70
    64
  0
VERTEX
  5
1C2
  8
TEAM-NET
 10
88.413111
 20
360.0
 30
150.0
 70
    64
  0
VERTEX
  5
1C3
  8
TEAM-NET
 10
126.505539
 20
360.0
 30
150.0
 70
    64
  0
VERTEX
  5
1C4
  8
TEAM-NET
 10
164.597968
 20
360.0
 30
150.0
 70
    64
  0
VERTEX
  5
1C5
  8
TEAM-NET
 10
202.690396
 20
360.0
 30
150.0
 70
    64
  0
VERTEX
  5
1C6
  8
TEAM-NET
 10
240.782824
 20
360.0
 30
150.0
 70
    64
  0
VERTEX
  5
1C7
  8
TEAM-NET
 10
278.875252
 20
360.0
 30
150.0
 70
    64
  0
VERTEX
  5
1C8
  8
TEAM-NET
 10
315.666021
 20
351.609601
 30
150.0
 70
    64
  0
VERTEX
  5
1C9
  8
TEAM-NET
 10
344.522043
 20
327.295941
 30
150.0
 70
    64
  0
VERTEX
  5
1CA
  8
TEAM-NET
 10
-400.0
 20
-380.0
 30
150.0
 70
    64
  0
VERTEX
  5
1CB
  8
TEAM-NET
 10
-400.0
 20
-336.032449
 30
150.0
 70
    64
  0
VERTEX
  5
1CC
  8
TEAM-NET
 10
-400.0
 20
-292.064897
 30
150.0
 70
    64
  0
VERTEX
  5
1CD
  8
TEAM-NET
 10
-400.0
 20
-248.097346
 30
150.0
 70
    64
  0
VERTEX
  5
1CE
  8
TEAM-NET
 10
-400.0
 20
-204.129794
 30
150.0
 70
    64
  0
VERTEX
  5
1CF
  8
TEAM-NET
 10
-400.0
 20
-160.162243
 30
150.0
 70
    64
  0
VERTEX
  5
1D0
  8
TEAM-NET
 10
-400.0
 20
-116.194691
 30
150.0
 70
    64
  0
VERTEX
  5
1D1
  8
TEAM-NET
 10
-400.0
 20
-72.22714
 30
150.0
 70
    64
  0
VERTEX
  5
1D2
  8
TEAM-NET
 10
-400.0
 20
-28.259588
 30
150.0
 70
    64
  0
VERTEX
  5
1D3
  8
TEAM-NET
 10
-400.0
 20
15.707963
 30
150.0
 70
    64
  0
VERTEX
  5
1D4
  8
TEAM-NET
 10
-400.0
 20
59.675515
 30
150.0
 70
    64
  0
VERTEX
  5
1D5
  8
TEAM-NET
 10
-400.0
 20
103.643066
 30
150.0
 70
    64
  0
VERTEX
  5
1D6
  8
TEAM-NET
 10
-400.0
 20
147.610618
 30
150.0
 70
    64
  0
VERTEX
  5
1D7
  8
TEAM-NET
 10
-400.0
 20
191.578169
 30
150.0
 70
    64
  0
VERTEX
  5
1D8
  8
TEAM-NET
 10
-400.0
 20
235.545721
 30
150.0
 70
    64
  0
VERTEX
  5
1D9
  8
TEAM-NET
 10
-400.0
 20
279.513272
 30
150.0
 70
    64
  0
VERTEX
  5
1DA
  8
TEAM-NET
 10
-400.0
 20
323.480824
 30
150.0
 70
    64
  0
VERTEX
  5
1DB
  8
TEAM-NET
 10
-400.0
 20
367.448375
 30
150.0
 70
    64
  0
VERTEX
  5
1DC
  8
TEAM-NET
 10
-380.0
 20
400.0
 30
150.0
 70
    64
  0
VERTEX
  5
1DD
  8
TEAM-NET
 10
-336.032449
 20
400.0
 30
150.0
 70
    64
  0
VERTEX
  5
1DE
  8
TEAM-NET
 10
-292.064897
 20
400.0
 30
150.0
 70
    64
  0
VERTEX
  5
1DF
  8
TEAM-NET
 10
-248.097346
 20
400.0
 30
150.0
 70
    64
  0
VERTEX
  5
1E0
  8
TEAM-NET
 10
-204.129794
 20
400.0
 30
150.0
 70
    64
  0
VERTEX
  5
1E1
  8
TEAM-NET
 10
-160.162243
 20
400.0
 30
150.0
 70
    64
  0
VERTEX
  5
1E2
  8
TEAM-NET
 10
-116.194691
 20
400.0
 30
150.0
 70
    64
  0
VERTEX
  5
1E3
  8
TEAM-NET
 10
-72.22714
 20
400.0
 30
150.0
 70
    64
  0
VERTEX
  5
1E4
  8
TEAM-NET
 10
-28.259588
 20
400.0
 30
150.0
 70
    64
  0
VERTEX
  5
1E5
  8
TEAM-NET
 10
15.707963
 20
400.0
 30
150.0
 70
    64
  0
VERTEX
  5
1E6
  8
TEAM-NET
 10
59.675515
 20
400.0
 30
150.0
 70
    64
  0
VERTEX
  5
1E7
  8
TEAM-NET
 10
103.643066
 20
400.0
 30
150.0
 70
    64
  0
VERTEX
  5
1E8
  8
TEAM-NET
 10
147.610618
 20
400.0
 30
150.0
 70
    64
  0
VERTEX
  5
1E9
  8
TEAM-NET
 10
191.578169
 20
400.0
 30
150.0
 70
    64
  0
VERTEX
  5
1EA
  8
TEAM-NET
 10
235.545721
 20
400.0
 30
150.0
 70
    64
  0
VERTEX
  5
1EB
  8
TEAM-NET
 10
279.513272
 20
400.0
 30
150.0
 70
    64
  0
VERTEX
  5
1EC
  8
TEAM-NET
 10
323.480824
 20
400.0
 30
150.0
 70
    64
  0
VERTEX
  5
1ED
  8
TEAM-NET
 10
367.448375
 20
400.0
 30
150.0
 70
    64
  0
VERTEX
  5
1EE
  8
TEAM-NET
 10
400.0
 20
380.0
 30
150.0
 70
    64
  0
SEQEND
  5
1EF
  8
TEAM-NET
  0
POLYLINE
  5
1F0
  8
TEAM-DET1
 66
     1
 10
0.0
 20
0.0
 30
150.0
  0
VERTEX
  5
315
  8
TEAM-DET1
 10
-344.522043
 20
-327.295941
 30
150.0
 42
0.238962
  0
VERTEX
  5
316
  8
TEAM-DET1
 10
-280.0
 20
-360.0
 30
150.0
  0
VERTEX
  5
317
  8
TEAM-DET1
 10
280.0
 20
-360.0
 30
150.0
 42
0.414214
  0
VERTEX
  5
318
  8
TEAM-DET1
 10
360.0
 20
-280.0
 30
150.0
  0
VERTEX
  5
319
  8
TEAM-DET1
 10
360.0
 20
280.0
 30
150.0
 42
0.159468
  0
VERTEX
  5
31A
  8
TEAM-DET1
 10
344.522043
 20
327.295941
 30
150.0
  0
SEQEND
  5
31B
  8
TEAM-DET1
  0
POLYLINE
  5
1F1
  8
TEAM-DET1
 66
     1
 10
0.0
 20
0.0
 30
150.0
  0
VERTEX
  5
31C
  8
TEAM-DET1
 10
344.522043
 20
327.295941
 30
150.0
 42
0.238962
  0
VERTEX
  5
31D
  8
TEAM-DET1
 10
280.0
 20
360.0
 30
150.0
  0
VERTEX
  5
31E
  8
TEAM-DET1
 10
-280.0
 20
360.0
 30
150.0
 42
0.414214
  0
VERTEX
  5
31F
  8
TEAM-DET1
 10
-360.0
 20
280.0
 30
150.0
  0
VERTEX
  5
320
  8
TEAM-DET1
 10
-360.0
 20
-280.0
 30
150.0
 42
0.159468
  0
VERTEX
  5
321
  8
TEAM-DET1
 10
-344.522043
 20
-327.295941
 30
150.0
  0
SEQEND
  5
322
  8
TEAM-DET1
  0
TEXT
  5
1F2
  8
TEAM-TXT
 10
-281.93636
 20
270.329047
 30
150.0
 40
35.0
  1
team 141290
 41
0.8
 51
15.0
  7
TEAM
  0
ENDSEC
  0
EOF
