  0
SECTION
  2
HEADER
  9
$ACADVER
  1
AC1009
  9
$INSBASE
 10
0.0
 20
0.0
 30
0.0
  9
$EXTMIN
 10
-600.062533
 20
-600.059265
 30
-0.016537
  9
$EXTMAX
 10
600.02032
 20
600.048012
 30
225.001747
  9
$LIMMIN
 10
-600.062533
 20
-600.059265
  9
$LIMMAX
 10
600.02032
 20
600.048012
  9
$ORTHOMODE
 70
     1
  9
$REGENMODE
 70
     1
  9
$FILLMODE
 70
     1
  9
$QTEXTMODE
 70
     0
  9
$MIRRTEXT
 70
     0
  9
$DRAGMODE
 70
     2
  9
$LTSCALE
 40
25.0
  9
$OSMODE
 70
     0
  9
$ATTMODE
 70
     1
  9
$TEXTSIZE
 40
200.0
  9
$TRACEWID
 40
1.0
  9
$TEXTSTYLE
  7
STANDARD
  9
$CLAYER
  8
TEAM-MAS
  9
$CELTYPE
  6
BYLAYER
  9
$CECOLOR
 62
   256
  9
$DIMSCALE
 40
0.0
  9
$DIMASZ
 40
20.0
  9
$DIMEXO
 40
10.0
  9
$DIMDLI
 40
1.0
  9
$DIMRND
 40
0.0
  9
$DIMDLE
 40
0.0
  9
$DIMEXE
 40
1.0
  9
$DIMTP
 40
0.0
  9
$DIMTM
 40
0.0
  9
$DIMTXT
 40
35.0
  9
$DIMCEN
 40
1.0
  9
$DIMTSZ
 40
0.0
  9
$DIMTOL
 70
     0
  9
$DIMLIM
 70
     0
  9
$DIMTIH
 70
     0
  9
$DIMTOH
 70
     0
  9
$DIMSE1
 70
     0
  9
$DIMSE2
 70
     0
  9
$DIMTAD
 70
     0
  9
$DIMZIN
 70
     0
  9
$DIMBLK
  1

  9
$DIMASO
 70
     1
  9
$DIMSHO
 70
     0
  9
$DIMPOST
  1

  9
$DIMAPOST
  1

  9
$DIMALT
 70
     0
  9
$DIMALTD
 70
     2
  9
$DIMALTF
 40
25.4
  9
$DIMLFAC
 40
1.0
  9
$DIMTOFL
 70
     0
  9
$DIMTVP
 40
0.0
  9
$DIMTIX
 70
     0
  9
$DIMSOXD
 70
     0
  9
$DIMSAH
 70
     0
  9
$DIMBLK1
  1

  9
$DIMBLK2
  1

  9
$DIMSTYLE
  2
TEAM
  9
$DIMCLRD
 70
     9
  9
$DIMCLRE
 70
     9
  9
$DIMCLRT
 70
    11
  9
$DIMTFAC
 40
1.0
  9
$DIMGAP
 40
15.0
  9
$LUNITS
 70
     2
  9
$LUPREC
 70
     1
  9
$SKETCHINC
 40
1.0
  9
$FILLETRAD
 40
50.0
  9
$AUNITS
 70
     0
  9
$AUPREC
 70
     0
  9
$MENU
  1
ROPLANS
  9
$ELEVATION
 40
0.0
  9
$PELEVATION
 40
0.0
  9
$THICKNESS
 40
0.0
  9
$LIMCHECK
 70
     0
  9
$BLIPMODE
 70
     1
  9
$CHAMFERA
 40
0.0
  9
$CHAMFERB
 40
0.0
  9
$SKPOLY
 70
     0
  9
$TDCREATE
 40
2450392.957851
  9
$TDUPDATE
 40
2455493.97462
  9
$TDINDWG
 40
1.964495
  9
$TDUSRTIMER
 40
1.964495
  9
$USRTIMER
 70
     1
  9
$ANGBASE
 50
0.0
  9
$ANGDIR
 70
     0
  9
$PDMODE
 70
     0
  9
$PDSIZE
 40
0.0
  9
$PLINEWID
 40
0.0
  9
$COORDS
 70
     2
  9
$SPLFRAME
 70
     0
  9
$SPLINETYPE
 70
     6
  9
$SPLINESEGS
 70
     8
  9
$ATTDIA
 70
     0
  9
$ATTREQ
 70
     0
  9
$HANDLING
 70
     1
  9
$HANDSEED
  5
1AB
  9
$SURFTAB1
 70
    24
  9
$SURFTAB2
 70
    24
  9
$SURFTYPE
 70
     6
  9
$SURFU
 70
     6
  9
$SURFV
 70
     6
  9
$UCSNAME
  2

  9
$UCSORG
 10
0.0
 20
0.0
 30
0.0
  9
$UCSXDIR
 10
1.0
 20
0.0
 30
0.0
  9
$UCSYDIR
 10
0.0
 20
1.0
 30
0.0
  9
$PUCSNAME
  2

  9
$PUCSORG
 10
0.0
 20
0.0
 30
0.0
  9
$PUCSXDIR
 10
1.0
 20
0.0
 30
0.0
  9
$PUCSYDIR
 10
0.0
 20
1.0
 30
0.0
  9
$USERI1
 70
     0
  9
$USERI2
 70
     0
  9
$USERI3
 70
     0
  9
$USERI4
 70
     0
  9
$USERI5
 70
     0
  9
$USERR1
 40
0.0
  9
$USERR2
 40
0.0
  9
$USERR3
 40
0.0
  9
$USERR4
 40
0.0
  9
$USERR5
 40
0.0
  9
$WORLDVIEW
 70
     1
  9
$SHADEDGE
 70
     0
  9
$SHADEDIF
 70
    70
  9
$TILEMODE
 70
     1
  9
$MAXACTVP
 70
    16
  9
$PLIMCHECK
 70
     0
  9
$PEXTMIN
 10
-0.805942
 20
0.005011
 30
0.0
  9
$PEXTMAX
 10
20.250094
 20
11.356329
 30
0.0
  9
$PLIMMIN
 10
0.0
 20
0.0
  9
$PLIMMAX
 10
12.0
 20
9.0
  9
$UNITMODE
 70
     0
  9
$VISRETAIN
 70
     0
  9
$PLINEGEN
 70
     0
  9
$PSLTSCALE
 70
     0
  0
ENDSEC
  0
SECTION
  2
TABLES
  0
TABLE
  2
VPORT
 70
     2
  0
VPORT
  2
*ACTIVE
 70
     0
 10
0.0
 20
0.0
 11
1.0
 21
1.0
 12
-0.021107
 22
-0.005627
 13
0.0
 23
0.0
 14
1.0
 24
1.0
 15
50.0
 25
50.0
 16
0.0
 26
0.0
 36
1.0
 17
0.0
 27
0.0
 37
0.0
 40
1207.477435
 41
1.865779
 42
50.0
 43
0.0
 44
0.0
 50
0.0
 51
0.0
 71
     0
 72
   100
 73
     1
 74
     1
 75
     0
 76
     0
 77
     0
 78
     0
  0
ENDTAB
  0
TABLE
  2
LTYPE
 70
     2
  0
LTYPE
  2
CONTINUOUS
 70
     0
  3
Solid Line
 72
    65
 73
     0
 40
0.0
  0
LTYPE
  2
31
 70
     0
  3

 72
    65
 73
     4
 40
2.1
 49
1.5
 49
-0.3
 49
0.0
 49
-0.3
  0
ENDTAB
  0
TABLE
  2
LAYER
 70
     9
  0
LAYER
  2
0
 70
     0
 62
     7
  6
CONTINUOUS
  0
LAYER
  2
TEAM-BODY
 70
     0
 62
     2
  6
CONTINUOUS
  0
LAYER
  2
TEAM-AXE
 70
     0
 62
    10
  6
31
  0
LAYER
  2
TEAM-MAS
 70
     0
 62
     9
  6
CONTINUOUS
  0
LAYER
  2
TEAM-TXT
 70
     0
 62
    11
  6
CONTINUOUS
  0
LAYER
  2
TEAM-DET1
 70
     0
 62
     4
  6
CONTINUOUS
  0
LAYER
  2
TEAM-DET3
 70
     0
 62
    14
  6
CONTINUOUS
  0
LAYER
  2
TEAM-NET
 70
     0
 62
    15
  6
CONTINUOUS
  0
LAYER
  2
TEAM-INSP
 70
     0
 62
     5
  6
CONTINUOUS
  0
ENDTAB
  0
TABLE
  2
STYLE
 70
     2
  0
STYLE
  2
STANDARD
 70
     0
 40
0.0
 41
1.0
 50
0.0
 71
     0
 42
200.0
  3
txt
  4

  0
STYLE
  2
TEAM
 70
     0
 40
0.0
 41
0.8
 50
15.0
 71
     0
 42
7.0
  3
ROMANS.shx
  4

  0
ENDTAB
  0
TABLE
  2
VIEW
 70
     0
  0
ENDTAB
  0
TABLE
  2
UCS
 70
     0
  0
ENDTAB
  0
TABLE
  2
APPID
 70
     1
  0
APPID
  2
ACAD
 70
     0
  0
ENDTAB
  0
TABLE
  2
DIMSTYLE
 70
     1
  0
DIMSTYLE
  2
TEAM
 70
     0
  3

  4

  5

  6

  7

 40
0.0
 41
20.0
 42
10.0
 43
1.0
 44
1.0
 45
0.0
 46
0.0
 47
0.0
 48
0.0
140
35.0
141
1.0
142
0.0
143
25.4
144
1.0
145
0.0
146
1.0
147
15.0
 71
     0
 72
     0
 73
     0
 74
     0
 75
     0
 76
     0
 77
     0
 78
     0
170
     0
171
     2
172
     0
173
     0
174
     0
175
     0
176
     9
177
     9
178
    11
  0
ENDTAB
  0
ENDSEC
  0
SECTION
  2
BLOCKS
  0
BLOCK
  8
0
  2
$MODEL_SPACE
 70
     0
 10
0.0
 20
0.0
 30
0.0
  3
$MODEL_SPACE
  1

  0
ENDBLK
  5
1A4
  8
0
  0
BLOCK
 67
     1
  8
0
  2
$PAPER_SPACE
 70
     0
 10
0.0
 20
0.0
 30
0.0
  3
$PAPER_SPACE
  1

  0
ENDBLK
  5
1A2
 67
     1
  8
0
  0
ENDSEC
  0
SECTION
  2
ENTITIES
  0
LINE
  5
20
  8
TEAM-BODY
 39
-32.0
 10
600.0
 20
600.0
 30
150.0
 11
-600.0
 21
600.0
 31
150.0
  0
LINE
  5
22
  8
TEAM-BODY
 39
-32.0
 10
-600.0
 20
600.0
 30
150.0
 11
-600.0
 21
-600.0
 31
150.0
  0
LINE
  5
23
  8
TEAM-BODY
 39
-10.0
 10
-600.0
 20
-600.0
 30
150.0
 11
600.0
 21
-600.0
 31
150.0
  0
LINE
  5
24
  8
TEAM-BODY
 39
-10.0
 10
600.0
 20
-600.0
 30
150.0
 11
600.0
 21
600.0
 31
150.0
  0
POLYLINE
  5
25
  8
TEAM-NET
 66
     1
 10
0.0
 20
0.0
 30
0.0
 70
    16
 71
     2
 72
    25
  0
VERTEX
  5
26
  8
TEAM-NET
 10
60.0
 20
60.0
 30
125.0
 70
    64
  0
VERTEX
  5
27
  8
TEAM-NET
 10
55.0
 20
60.0
 30
125.0
 70
    64
  0
VERTEX
  5
28
  8
TEAM-NET
 10
50.0
 20
60.0
 30
125.0
 70
    64
  0
VERTEX
  5
29
  8
TEAM-NET
 10
45.0
 20
60.0
 30
125.0
 70
    64
  0
VERTEX
  5
2A
  8
TEAM-NET
 10
40.0
 20
60.0
 30
125.0
 70
    64
  0
VERTEX
  5
2B
  8
TEAM-NET
 10
35.0
 20
60.0
 30
125.0
 70
    64
  0
VERTEX
  5
2C
  8
TEAM-NET
 10
30.0
 20
60.0
 30
125.0
 70
    64
  0
VERTEX
  5
2D
  8
TEAM-NET
 10
25.0
 20
60.0
 30
125.0
 70
    64
  0
VERTEX
  5
2E
  8
TEAM-NET
 10
20.0
 20
60.0
 30
125.0
 70
    64
  0
VERTEX
  5
2F
  8
TEAM-NET
 10
15.0
 20
60.0
 30
125.0
 70
    64
  0
VERTEX
  5
30
  8
TEAM-NET
 10
10.0
 20
60.0
 30
125.0
 70
    64
  0
VERTEX
  5
31
  8
TEAM-NET
 10
5.0
 20
60.0
 30
125.0
 70
    64
  0
VERTEX
  5
32
  8
TEAM-NET
 10
0.0
 20
60.0
 30
125.0
 70
    64
  0
VERTEX
  5
33
  8
TEAM-NET
 10
-5.0
 20
60.0
 30
125.0
 70
    64
  0
VERTEX
  5
34
  8
TEAM-NET
 10
-10.0
 20
60.0
 30
125.0
 70
    64
  0
VERTEX
  5
35
  8
TEAM-NET
 10
-15.0
 20
60.0
 30
125.0
 70
    64
  0
VERTEX
  5
36
  8
TEAM-NET
 10
-20.0
 20
60.0
 30
125.0
 70
    64
  0
VERTEX
  5
37
  8
TEAM-NET
 10
-25.0
 20
60.0
 30
125.0
 70
    64
  0
VERTEX
  5
38
  8
TEAM-NET
 10
-30.0
 20
60.0
 30
125.0
 70
    64
  0
VERTEX
  5
39
  8
TEAM-NET
 10
-35.0
 20
60.0
 30
125.0
 70
    64
  0
VERTEX
  5
3A
  8
TEAM-NET
 10
-40.0
 20
60.0
 30
125.0
 70
    64
  0
VERTEX
  5
3B
  8
TEAM-NET
 10
-45.0
 20
60.0
 30
125.0
 70
    64
  0
VERTEX
  5
3C
  8
TEAM-NET
 10
-50.0
 20
60.0
 30
125.0
 70
    64
  0
VERTEX
  5
3D
  8
TEAM-NET
 10
-55.0
 20
60.0
 30
125.0
 70
    64
  0
VERTEX
  5
3E
  8
TEAM-NET
 10
-60.0
 20
60.0
 30
125.0
 70
    64
  0
VERTEX
  5
3F
  8
TEAM-NET
 10
600.0
 20
600.0
 30
150.0
 70
    64
  0
VERTEX
  5
40
  8
TEAM-NET
 10
550.0
 20
600.0
 30
150.0
 70
    64
  0
VERTEX
  5
41
  8
TEAM-NET
 10
500.0
 20
600.0
 30
150.0
 70
    64
  0
VERTEX
  5
42
  8
TEAM-NET
 10
450.0
 20
600.0
 30
150.0
 70
    64
  0
VERTEX
  5
43
  8
TEAM-NET
 10
400.0
 20
600.0
 30
150.0
 70
    64
  0
VERTEX
  5
44
  8
TEAM-NET
 10
350.0
 20
600.0
 30
150.0
 70
    64
  0
VERTEX
  5
45
  8
TEAM-NET
 10
300.0
 20
600.0
 30
150.0
 70
    64
  0
VERTEX
  5
46
  8
TEAM-NET
 10
250.0
 20
600.0
 30
150.0
 70
    64
  0
VERTEX
  5
47
  8
TEAM-NET
 10
200.0
 20
600.0
 30
150.0
 70
    64
  0
VERTEX
  5
48
  8
TEAM-NET
 10
150.0
 20
600.0
 30
150.0
 70
    64
  0
VERTEX
  5
49
  8
TEAM-NET
 10
100.0
 20
600.0
 30
150.0
 70
    64
  0
VERTEX
  5
4A
  8
TEAM-NET
 10
50.0
 20
600.0
 30
150.0
 70
    64
  0
VERTEX
  5
4B
  8
TEAM-NET
 10
0.0
 20
600.0
 30
150.0
 70
    64
  0
VERTEX
  5
4C
  8
TEAM-NET
 10
-50.0
 20
600.0
 30
150.0
 70
    64
  0
VERTEX
  5
4D
  8
TEAM-NET
 10
-100.0
 20
600.0
 30
150.0
 70
    64
  0
VERTEX
  5
4E
  8
TEAM-NET
 10
-150.0
 20
600.0
 30
150.0
 70
    64
  0
VERTEX
  5
4F
  8
TEAM-NET
 10
-200.0
 20
600.0
 30
150.0
 70
    64
  0
VERTEX
  5
50
  8
TEAM-NET
 10
-250.0
 20
600.0
 30
150.0
 70
    64
  0
VERTEX
  5
51
  8
TEAM-NET
 10
-300.0
 20
600.0
 30
150.0
 70
    64
  0
VERTEX
  5
52
  8
TEAM-NET
 10
-350.0
 20
600.0
 30
150.0
 70
    64
  0
VERTEX
  5
53
  8
TEAM-NET
 10
-400.0
 20
600.0
 30
150.0
 70
    64
  0
VERTEX
  5
54
  8
TEAM-NET
 10
-450.0
 20
600.0
 30
150.0
 70
    64
  0
VERTEX
  5
55
  8
TEAM-NET
 10
-500.0
 20
600.0
 30
150.0
 70
    64
  0
VERTEX
  5
56
  8
TEAM-NET
 10
-550.0
 20
600.0
 30
150.0
 70
    64
  0
VERTEX
  5
57
  8
TEAM-NET
 10
-600.0
 20
600.0
 30
150.0
 70
    64
  0
SEQEND
  5
59
  8
TEAM-NET
  0
POLYLINE
  5
5A
  8
TEAM-NET
 66
     1
 10
0.0
 20
0.0
 30
0.0
 70
    16
 71
     2
 72
    25
  0
VERTEX
  5
5B
  8
TEAM-NET
 10
60.0
 20
60.0
 30
125.0
 70
    64
  0
VERTEX
  5
5C
  8
TEAM-NET
 10
60.0
 20
55.0
 30
125.0
 70
    64
  0
VERTEX
  5
5D
  8
TEAM-NET
 10
60.0
 20
50.0
 30
125.0
 70
    64
  0
VERTEX
  5
5E
  8
TEAM-NET
 10
60.0
 20
45.0
 30
125.0
 70
    64
  0
VERTEX
  5
5F
  8
TEAM-NET
 10
60.0
 20
40.0
 30
125.0
 70
    64
  0
VERTEX
  5
60
  8
TEAM-NET
 10
60.0
 20
35.0
 30
125.0
 70
    64
  0
VERTEX
  5
61
  8
TEAM-NET
 10
60.0
 20
30.0
 30
125.0
 70
    64
  0
VERTEX
  5
62
  8
TEAM-NET
 10
60.0
 20
25.0
 30
125.0
 70
    64
  0
VERTEX
  5
63
  8
TEAM-NET
 10
60.0
 20
20.0
 30
125.0
 70
    64
  0
VERTEX
  5
64
  8
TEAM-NET
 10
60.0
 20
15.0
 30
125.0
 70
    64
  0
VERTEX
  5
65
  8
TEAM-NET
 10
60.0
 20
10.0
 30
125.0
 70
    64
  0
VERTEX
  5
66
  8
TEAM-NET
 10
60.0
 20
5.0
 30
125.0
 70
    64
  0
VERTEX
  5
67
  8
TEAM-NET
 10
60.0
 20
0.0
 30
125.0
 70
    64
  0
VERTEX
  5
68
  8
TEAM-NET
 10
60.0
 20
-5.0
 30
125.0
 70
    64
  0
VERTEX
  5
69
  8
TEAM-NET
 10
60.0
 20
-10.0
 30
125.0
 70
    64
  0
VERTEX
  5
6A
  8
TEAM-NET
 10
60.0
 20
-15.0
 30
125.0
 70
    64
  0
VERTEX
  5
6B
  8
TEAM-NET
 10
60.0
 20
-20.0
 30
125.0
 70
    64
  0
VERTEX
  5
6C
  8
TEAM-NET
 10
60.0
 20
-25.0
 30
125.0
 70
    64
  0
VERTEX
  5
6D
  8
TEAM-NET
 10
60.0
 20
-30.0
 30
125.0
 70
    64
  0
VERTEX
  5
6E
  8
TEAM-NET
 10
60.0
 20
-35.0
 30
125.0
 70
    64
  0
VERTEX
  5
6F
  8
TEAM-NET
 10
60.0
 20
-40.0
 30
125.0
 70
    64
  0
VERTEX
  5
70
  8
TEAM-NET
 10
60.0
 20
-45.0
 30
125.0
 70
    64
  0
VERTEX
  5
71
  8
TEAM-NET
 10
60.0
 20
-50.0
 30
125.0
 70
    64
  0
VERTEX
  5
72
  8
TEAM-NET
 10
60.0
 20
-55.0
 30
125.0
 70
    64
  0
VERTEX
  5
73
  8
TEAM-NET
 10
60.0
 20
-60.0
 30
125.0
 70
    64
  0
VERTEX
  5
74
  8
TEAM-NET
 10
600.0
 20
600.0
 30
150.0
 70
    64
  0
VERTEX
  5
75
  8
TEAM-NET
 10
600.0
 20
550.0
 30
150.0
 70
    64
  0
VERTEX
  5
76
  8
TEAM-NET
 10
600.0
 20
500.0
 30
150.0
 70
    64
  0
VERTEX
  5
77
  8
TEAM-NET
 10
600.0
 20
450.0
 30
150.0
 70
    64
  0
VERTEX
  5
78
  8
TEAM-NET
 10
600.0
 20
400.0
 30
150.0
 70
    64
  0
VERTEX
  5
79
  8
TEAM-NET
 10
600.0
 20
350.0
 30
150.0
 70
    64
  0
VERTEX
  5
7A
  8
TEAM-NET
 10
600.0
 20
300.0
 30
150.0
 70
    64
  0
VERTEX
  5
7B
  8
TEAM-NET
 10
600.0
 20
250.0
 30
150.0
 70
    64
  0
VERTEX
  5
7C
  8
TEAM-NET
 10
600.0
 20
200.0
 30
150.0
 70
    64
  0
VERTEX
  5
7D
  8
TEAM-NET
 10
600.0
 20
150.0
 30
150.0
 70
    64
  0
VERTEX
  5
7E
  8
TEAM-NET
 10
600.0
 20
100.0
 30
150.0
 70
    64
  0
VERTEX
  5
7F
  8
TEAM-NET
 10
600.0
 20
50.0
 30
150.0
 70
    64
  0
VERTEX
  5
80
  8
TEAM-NET
 10
600.0
 20
0.0
 30
150.0
 70
    64
  0
VERTEX
  5
81
  8
TEAM-NET
 10
600.0
 20
-50.0
 30
150.0
 70
    64
  0
VERTEX
  5
82
  8
TEAM-NET
 10
600.0
 20
-100.0
 30
150.0
 70
    64
  0
VERTEX
  5
83
  8
TEAM-NET
 10
600.0
 20
-150.0
 30
150.0
 70
    64
  0
VERTEX
  5
84
  8
TEAM-NET
 10
600.0
 20
-200.0
 30
150.0
 70
    64
  0
VERTEX
  5
85
  8
TEAM-NET
 10
600.0
 20
-250.0
 30
150.0
 70
    64
  0
VERTEX
  5
86
  8
TEAM-NET
 10
600.0
 20
-300.0
 30
150.0
 70
    64
  0
VERTEX
  5
87
  8
TEAM-NET
 10
600.0
 20
-350.0
 30
150.0
 70
    64
  0
VERTEX
  5
88
  8
TEAM-NET
 10
600.0
 20
-400.0
 30
150.0
 70
    64
  0
VERTEX
  5
89
  8
TEAM-NET
 10
600.0
 20
-450.0
 30
150.0
 70
    64
  0
VERTEX
  5
8A
  8
TEAM-NET
 10
600.0
 20
-500.0
 30
150.0
 70
    64
  0
VERTEX
  5
8B
  8
TEAM-NET
 10
600.0
 20
-550.0
 30
150.0
 70
    64
  0
VERTEX
  5
8C
  8
TEAM-NET
 10
600.0
 20
-600.0
 30
150.0
 70
    64
  0
SEQEND
  5
8D
  8
TEAM-NET
  0
POLYLINE
  5
8E
  8
TEAM-NET
 66
     1
 10
0.0
 20
0.0
 30
0.0
 70
    16
 71
     2
 72
    25
  0
VERTEX
  5
8F
  8
TEAM-NET
 10
60.0
 20
-60.0
 30
125.0
 70
    64
  0
VERTEX
  5
90
  8
TEAM-NET
 10
55.0
 20
-60.0
 30
125.0
 70
    64
  0
VERTEX
  5
91
  8
TEAM-NET
 10
50.0
 20
-60.0
 30
125.0
 70
    64
  0
VERTEX
  5
92
  8
TEAM-NET
 10
45.0
 20
-60.0
 30
125.0
 70
    64
  0
VERTEX
  5
93
  8
TEAM-NET
 10
40.0
 20
-60.0
 30
125.0
 70
    64
  0
VERTEX
  5
94
  8
TEAM-NET
 10
35.0
 20
-60.0
 30
125.0
 70
    64
  0
VERTEX
  5
95
  8
TEAM-NET
 10
30.0
 20
-60.0
 30
125.0
 70
    64
  0
VERTEX
  5
96
  8
TEAM-NET
 10
25.0
 20
-60.0
 30
125.0
 70
    64
  0
VERTEX
  5
97
  8
TEAM-NET
 10
20.0
 20
-60.0
 30
125.0
 70
    64
  0
VERTEX
  5
98
  8
TEAM-NET
 10
15.0
 20
-60.0
 30
125.0
 70
    64
  0
VERTEX
  5
99
  8
TEAM-NET
 10
10.0
 20
-60.0
 30
125.0
 70
    64
  0
VERTEX
  5
9A
  8
TEAM-NET
 10
5.0
 20
-60.0
 30
125.0
 70
    64
  0
VERTEX
  5
9B
  8
TEAM-NET
 10
0.0
 20
-60.0
 30
125.0
 70
    64
  0
VERTEX
  5
9C
  8
TEAM-NET
 10
-5.0
 20
-60.0
 30
125.0
 70
    64
  0
VERTEX
  5
9D
  8
TEAM-NET
 10
-10.0
 20
-60.0
 30
125.0
 70
    64
  0
VERTEX
  5
9E
  8
TEAM-NET
 10
-15.0
 20
-60.0
 30
125.0
 70
    64
  0
VERTEX
  5
9F
  8
TEAM-NET
 10
-20.0
 20
-60.0
 30
125.0
 70
    64
  0
VERTEX
  5
A0
  8
TEAM-NET
 10
-25.0
 20
-60.0
 30
125.0
 70
    64
  0
VERTEX
  5
A1
  8
TEAM-NET
 10
-30.0
 20
-60.0
 30
125.0
 70
    64
  0
VERTEX
  5
A2
  8
TEAM-NET
 10
-35.0
 20
-60.0
 30
125.0
 70
    64
  0
VERTEX
  5
A3
  8
TEAM-NET
 10
-40.0
 20
-60.0
 30
125.0
 70
    64
  0
VERTEX
  5
A4
  8
TEAM-NET
 10
-45.0
 20
-60.0
 30
125.0
 70
    64
  0
VERTEX
  5
A5
  8
TEAM-NET
 10
-50.0
 20
-60.0
 30
125.0
 70
    64
  0
VERTEX
  5
A6
  8
TEAM-NET
 10
-55.0
 20
-60.0
 30
125.0
 70
    64
  0
VERTEX
  5
A7
  8
TEAM-NET
 10
-60.0
 20
-60.0
 30
125.0
 70
    64
  0
VERTEX
  5
A8
  8
TEAM-NET
 10
600.0
 20
-600.0
 30
150.0
 70
    64
  0
VERTEX
  5
A9
  8
TEAM-NET
 10
550.0
 20
-600.0
 30
150.0
 70
    64
  0
VERTEX
  5
AA
  8
TEAM-NET
 10
500.0
 20
-600.0
 30
150.0
 70
    64
  0
VERTEX
  5
AB
  8
TEAM-NET
 10
450.0
 20
-600.0
 30
150.0
 70
    64
  0
VERTEX
  5
AC
  8
TEAM-NET
 10
400.0
 20
-600.0
 30
150.0
 70
    64
  0
VERTEX
  5
AD
  8
TEAM-NET
 10
350.0
 20
-600.0
 30
150.0
 70
    64
  0
VERTEX
  5
AE
  8
TEAM-NET
 10
300.0
 20
-600.0
 30
150.0
 70
    64
  0
VERTEX
  5
AF
  8
TEAM-NET
 10
250.0
 20
-600.0
 30
150.0
 70
    64
  0
VERTEX
  5
B0
  8
TEAM-NET
 10
200.0
 20
-600.0
 30
150.0
 70
    64
  0
VERTEX
  5
B1
  8
TEAM-NET
 10
150.0
 20
-600.0
 30
150.0
 70
    64
  0
VERTEX
  5
B2
  8
TEAM-NET
 10
100.0
 20
-600.0
 30
150.0
 70
    64
  0
VERTEX
  5
B3
  8
TEAM-NET
 10
50.0
 20
-600.0
 30
150.0
 70
    64
  0
VERTEX
  5
B4
  8
TEAM-NET
 10
0.0
 20
-600.0
 30
150.0
 70
    64
  0
VERTEX
  5
B5
  8
TEAM-NET
 10
-50.0
 20
-600.0
 30
150.0
 70
    64
  0
VERTEX
  5
B6
  8
TEAM-NET
 10
-100.0
 20
-600.0
 30
150.0
 70
    64
  0
VERTEX
  5
B7
  8
TEAM-NET
 10
-150.0
 20
-600.0
 30
150.0
 70
    64
  0
VERTEX
  5
B8
  8
TEAM-NET
 10
-200.0
 20
-600.0
 30
150.0
 70
    64
  0
VERTEX
  5
B9
  8
TEAM-NET
 10
-250.0
 20
-600.0
 30
150.0
 70
    64
  0
VERTEX
  5
BA
  8
TEAM-NET
 10
-300.0
 20
-600.0
 30
150.0
 70
    64
  0
VERTEX
  5
BB
  8
TEAM-NET
 10
-350.0
 20
-600.0
 30
150.0
 70
    64
  0
VERTEX
  5
BC
  8
TEAM-NET
 10
-400.0
 20
-600.0
 30
150.0
 70
    64
  0
VERTEX
  5
BD
  8
TEAM-NET
 10
-450.0
 20
-600.0
 30
150.0
 70
    64
  0
VERTEX
  5
BE
  8
TEAM-NET
 10
-500.0
 20
-600.0
 30
150.0
 70
    64
  0
VERTEX
  5
BF
  8
TEAM-NET
 10
-550.0
 20
-600.0
 30
150.0
 70
    64
  0
VERTEX
  5
C0
  8
TEAM-NET
 10
-600.0
 20
-600.0
 30
150.0
 70
    64
  0
SEQEND
  5
C1
  8
TEAM-NET
  0
POLYLINE
  5
C2
  8
TEAM-NET
 66
     1
 10
0.0
 20
0.0
 30
0.0
 70
    16
 71
     2
 72
    25
  0
VERTEX
  5
C3
  8
TEAM-NET
 10
-60.0
 20
-60.0
 30
125.0
 70
    64
  0
VERTEX
  5
C4
  8
TEAM-NET
 10
-60.0
 20
-55.0
 30
125.0
 70
    64
  0
VERTEX
  5
C5
  8
TEAM-NET
 10
-60.0
 20
-50.0
 30
125.0
 70
    64
  0
VERTEX
  5
C6
  8
TEAM-NET
 10
-60.0
 20
-45.0
 30
125.0
 70
    64
  0
VERTEX
  5
C7
  8
TEAM-NET
 10
-60.0
 20
-40.0
 30
125.0
 70
    64
  0
VERTEX
  5
C8
  8
TEAM-NET
 10
-60.0
 20
-35.0
 30
125.0
 70
    64
  0
VERTEX
  5
C9
  8
TEAM-NET
 10
-60.0
 20
-30.0
 30
125.0
 70
    64
  0
VERTEX
  5
CA
  8
TEAM-NET
 10
-60.0
 20
-25.0
 30
125.0
 70
    64
  0
VERTEX
  5
CB
  8
TEAM-NET
 10
-60.0
 20
-20.0
 30
125.0
 70
    64
  0
VERTEX
  5
CC
  8
TEAM-NET
 10
-60.0
 20
-15.0
 30
125.0
 70
    64
  0
VERTEX
  5
CD
  8
TEAM-NET
 10
-60.0
 20
-10.0
 30
125.0
 70
    64
  0
VERTEX
  5
CE
  8
TEAM-NET
 10
-60.0
 20
-5.0
 30
125.0
 70
    64
  0
VERTEX
  5
CF
  8
TEAM-NET
 10
-60.0
 20
0.0
 30
125.0
 70
    64
  0
VERTEX
  5
D0
  8
TEAM-NET
 10
-60.0
 20
5.0
 30
125.0
 70
    64
  0
VERTEX
  5
D1
  8
TEAM-NET
 10
-60.0
 20
10.0
 30
125.0
 70
    64
  0
VERTEX
  5
D2
  8
TEAM-NET
 10
-60.0
 20
15.0
 30
125.0
 70
    64
  0
VERTEX
  5
D3
  8
TEAM-NET
 10
-60.0
 20
20.0
 30
125.0
 70
    64
  0
VERTEX
  5
D4
  8
TEAM-NET
 10
-60.0
 20
25.0
 30
125.0
 70
    64
  0
VERTEX
  5
D5
  8
TEAM-NET
 10
-60.0
 20
30.0
 30
125.0
 70
    64
  0
VERTEX
  5
D6
  8
TEAM-NET
 10
-60.0
 20
35.0
 30
125.0
 70
    64
  0
VERTEX
  5
D7
  8
TEAM-NET
 10
-60.0
 20
40.0
 30
125.0
 70
    64
  0
VERTEX
  5
D8
  8
TEAM-NET
 10
-60.0
 20
45.0
 30
125.0
 70
    64
  0
VERTEX
  5
D9
  8
TEAM-NET
 10
-60.0
 20
50.0
 30
125.0
 70
    64
  0
VERTEX
  5
DA
  8
TEAM-NET
 10
-60.0
 20
55.0
 30
125.0
 70
    64
  0
VERTEX
  5
DB
  8
TEAM-NET
 10
-60.0
 20
60.0
 30
125.0
 70
    64
  0
VERTEX
  5
DC
  8
TEAM-NET
 10
-600.0
 20
-600.0
 30
150.0
 70
    64
  0
VERTEX
  5
DD
  8
TEAM-NET
 10
-600.0
 20
-550.0
 30
150.0
 70
    64
  0
VERTEX
  5
DE
  8
TEAM-NET
 10
-600.0
 20
-500.0
 30
150.0
 70
    64
  0
VERTEX
  5
DF
  8
TEAM-NET
 10
-600.0
 20
-450.0
 30
150.0
 70
    64
  0
VERTEX
  5
E0
  8
TEAM-NET
 10
-600.0
 20
-400.0
 30
150.0
 70
    64
  0
VERTEX
  5
E1
  8
TEAM-NET
 10
-600.0
 20
-350.0
 30
150.0
 70
    64
  0
VERTEX
  5
E2
  8
TEAM-NET
 10
-600.0
 20
-300.0
 30
150.0
 70
    64
  0
VERTEX
  5
E3
  8
TEAM-NET
 10
-600.0
 20
-250.0
 30
150.0
 70
    64
  0
VERTEX
  5
E4
  8
TEAM-NET
 10
-600.0
 20
-200.0
 30
150.0
 70
    64
  0
VERTEX
  5
E5
  8
TEAM-NET
 10
-600.0
 20
-150.0
 30
150.0
 70
    64
  0
VERTEX
  5
E6
  8
TEAM-NET
 10
-600.0
 20
-100.0
 30
150.0
 70
    64
  0
VERTEX
  5
E7
  8
TEAM-NET
 10
-600.0
 20
-50.0
 30
150.0
 70
    64
  0
VERTEX
  5
E8
  8
TEAM-NET
 10
-600.0
 20
0.0
 30
150.0
 70
    64
  0
VERTEX
  5
E9
  8
TEAM-NET
 10
-600.0
 20
50.0
 30
150.0
 70
    64
  0
VERTEX
  5
EA
  8
TEAM-NET
 10
-600.0
 20
100.0
 30
150.0
 70
    64
  0
VERTEX
  5
EB
  8
TEAM-NET
 10
-600.0
 20
150.0
 30
150.0
 70
    64
  0
VERTEX
  5
EC
  8
TEAM-NET
 10
-600.0
 20
200.0
 30
150.0
 70
    64
  0
VERTEX
  5
ED
  8
TEAM-NET
 10
-600.0
 20
250.0
 30
150.0
 70
    64
  0
VERTEX
  5
EE
  8
TEAM-NET
 10
-600.0
 20
300.0
 30
150.0
 70
    64
  0
VERTEX
  5
EF
  8
TEAM-NET
 10
-600.0
 20
350.0
 30
150.0
 70
    64
  0
VERTEX
  5
F0
  8
TEAM-NET
 10
-600.0
 20
400.0
 30
150.0
 70
    64
  0
VERTEX
  5
F1
  8
TEAM-NET
 10
-600.0
 20
450.0
 30
150.0
 70
    64
  0
VERTEX
  5
F2
  8
TEAM-NET
 10
-600.0
 20
500.0
 30
150.0
 70
    64
  0
VERTEX
  5
F3
  8
TEAM-NET
 10
-600.0
 20
550.0
 30
150.0
 70
    64
  0
VERTEX
  5
F4
  8
TEAM-NET
 10
-600.0
 20
600.0
 30
150.0
 70
    64
  0
SEQEND
  5
F5
  8
TEAM-NET
  0
CIRCLE
  5
F6
  8
TEAM-INSP
 10
0.0
 20
0.0
 30
0.0
 40
7.1
  0
CIRCLE
  5
F8
  8
TEAM-DET3
 10
0.0
 20
0.0
 30
125.0
 40
52.0
  0
CIRCLE
  5
FA
  8
TEAM-DET3
 10
0.0
 20
0.0
 30
125.0
 40
52.0
  0
LINE
  5
FB
  8
TEAM-DET3
 10
60.0
 20
60.0
 30
125.0
 11
60.0
 21
-60.0
 31
125.0
  0
LINE
  5
FC
  8
TEAM-AXE
 10
0.0
 20
-60.0
 30
125.0
 11
0.0
 21
60.0
 31
125.0
  0
LINE
  5
FF
  8
TEAM-AXE
 10
-60.0
 20
0.0
 30
125.0
 11
60.0
 21
0.0
 31
125.0
  0
LINE
  5
100
  8
TEAM-DET3
 10
60.0
 20
-60.0
 30
125.0
 11
-60.0
 21
-60.0
 31
125.0
  0
LINE
  5
101
  8
TEAM-DET3
 10
-60.0
 20
-60.0
 30
125.0
 11
-60.0
 21
60.0
 31
125.0
  0
CIRCLE
  5
102
  8
TEAM-DET3
 10
0.0
 20
0.0
 30
125.0
 40
45.0
  0
CIRCLE
  5
103
  8
TEAM-DET3
 10
0.0
 20
0.0
 30
125.0
 40
60.0
  0
LINE
  5
104
  8
TEAM-DET3
 10
-60.0
 20
60.0
 30
125.0
 11
60.0
 21
60.0
 31
125.0
  0
CIRCLE
  5
105
  8
TEAM-DET1
 10
0.0
 20
0.0
 30
125.0
 40
40.0
  0
LINE
  5
107
  8
TEAM-AXE
 10
0.0
 20
-60.0
 30
125.0
 11
0.0
 21
60.0
 31
125.0
  0
LINE
  5
108
  8
TEAM-AXE
 10
-60.0
 20
0.0
 30
125.0
 11
60.0
 21
0.0
 31
125.0
  0
LINE
  5
109
  8
TEAM-DET3
 10
60.0
 20
-60.0
 30
125.0
 11
-60.0
 21
-60.0
 31
125.0
  0
LINE
  5
10A
  8
TEAM-DET3
 10
-60.0
 20
-60.0
 30
125.0
 11
-60.0
 21
60.0
 31
125.0
  0
CIRCLE
  5
10B
  8
TEAM-DET3
 10
0.0
 20
0.0
 30
125.0
 40
45.0
  0
LINE
  5
10C
  8
TEAM-DET3
 10
-60.0
 20
60.0
 30
125.0
 11
60.0
 21
60.0
 31
125.0
  0
LINE
  5
10D
  8
TEAM-DET3
 10
60.0
 20
60.0
 30
125.0
 11
60.0
 21
-60.0
 31
125.0
  0
CIRCLE
  5
10E
  8
TEAM-DET1
 10
0.0
 20
0.0
 30
125.0
 40
40.0
  0
CIRCLE
  5
10F
  8
TEAM-DET3
 10
0.0
 20
0.0
 30
125.0
 40
60.0
  0
TEXT
  5
110
  8
TEAM-TXT
 10
-517.024229
 20
473.702191
 30
225.0
 40
30.0
  1
team 141339
 41
0.8
 51
15.0
  7
TEAM
  0
ENDSEC
  0
EOF
