  0
SECTION
  2
HEADER
  9
$ACADVER
  1
AC1009
  9
$INSBASE
 10
0.0
 20
0.0
 30
0.0
  9
$EXTMIN
 10
-323.411098
 20
-471.839771
 30
-0.024905
  9
$EXTMAX
 10
320.525365
 20
10.001621
 30
850.056981
  9
$LIMMIN
 10
-323.411098
 20
-471.839771
  9
$LIMMAX
 10
320.525365
 20
10.001621
  9
$ORTHOMODE
 70
     1
  9
$REGENMODE
 70
     1
  9
$FILLMODE
 70
     1
  9
$QTEXTMODE
 70
     0
  9
$MIRRTEXT
 70
     0
  9
$DRAGMODE
 70
     2
  9
$LTSCALE
 40
25.0
  9
$OSMODE
 70
     0
  9
$ATTMODE
 70
     1
  9
$TEXTSIZE
 40
200.0
  9
$TRACEWID
 40
1.0
  9
$TEXTSTYLE
  7
STANDARD
  9
$CLAYER
  8
TEAM-MAS
  9
$CELTYPE
  6
BYLAYER
  9
$CECOLOR
 62
   256
  9
$DIMSCALE
 40
0.0
  9
$DIMASZ
 40
20.0
  9
$DIMEXO
 40
10.0
  9
$DIMDLI
 40
1.0
  9
$DIMRND
 40
0.0
  9
$DIMDLE
 40
0.0
  9
$DIMEXE
 40
1.0
  9
$DIMTP
 40
0.0
  9
$DIMTM
 40
0.0
  9
$DIMTXT
 40
35.0
  9
$DIMCEN
 40
1.0
  9
$DIMTSZ
 40
0.0
  9
$DIMTOL
 70
     0
  9
$DIMLIM
 70
     0
  9
$DIMTIH
 70
     0
  9
$DIMTOH
 70
     0
  9
$DIMSE1
 70
     0
  9
$DIMSE2
 70
     0
  9
$DIMTAD
 70
     0
  9
$DIMZIN
 70
     0
  9
$DIMBLK
  1

  9
$DIMASO
 70
     1
  9
$DIMSHO
 70
     0
  9
$DIMPOST
  1

  9
$DIMAPOST
  1

  9
$DIMALT
 70
     0
  9
$DIMALTD
 70
     2
  9
$DIMALTF
 40
25.4
  9
$DIMLFAC
 40
1.0
  9
$DIMTOFL
 70
     0
  9
$DIMTVP
 40
0.0
  9
$DIMTIX
 70
     0
  9
$DIMSOXD
 70
     0
  9
$DIMSAH
 70
     0
  9
$DIMBLK1
  1

  9
$DIMBLK2
  1

  9
$DIMSTYLE
  2
TEAM
  9
$DIMCLRD
 70
     9
  9
$DIMCLRE
 70
     9
  9
$DIMCLRT
 70
    11
  9
$DIMTFAC
 40
1.0
  9
$DIMGAP
 40
15.0
  9
$LUNITS
 70
     2
  9
$LUPREC
 70
     1
  9
$SKETCHINC
 40
1.0
  9
$FILLETRAD
 40
50.0
  9
$AUNITS
 70
     0
  9
$AUPREC
 70
     0
  9
$MENU
  1
ROPLANS
  9
$ELEVATION
 40
0.0
  9
$PELEVATION
 40
0.0
  9
$THICKNESS
 40
0.0
  9
$LIMCHECK
 70
     0
  9
$BLIPMODE
 70
     1
  9
$CHAMFERA
 40
0.0
  9
$CHAMFERB
 40
0.0
  9
$SKPOLY
 70
     0
  9
$TDCREATE
 40
2450392.957851
  9
$TDUPDATE
 40
2455498.624065
  9
$TDINDWG
 40
1.987034
  9
$TDUSRTIMER
 40
1.987034
  9
$USRTIMER
 70
     1
  9
$ANGBASE
 50
0.0
  9
$ANGDIR
 70
     0
  9
$PDMODE
 70
     0
  9
$PDSIZE
 40
0.0
  9
$PLINEWID
 40
0.0
  9
$COORDS
 70
     2
  9
$SPLFRAME
 70
     0
  9
$SPLINETYPE
 70
     6
  9
$SPLINESEGS
 70
     8
  9
$ATTDIA
 70
     0
  9
$ATTREQ
 70
     0
  9
$HANDLING
 70
     1
  9
$HANDSEED
  5
37B
  9
$SURFTAB1
 70
    24
  9
$SURFTAB2
 70
    24
  9
$SURFTYPE
 70
     6
  9
$SURFU
 70
     6
  9
$SURFV
 70
     6
  9
$UCSNAME
  2

  9
$UCSORG
 10
0.0
 20
0.0
 30
0.0
  9
$UCSXDIR
 10
1.0
 20
0.0
 30
0.0
  9
$UCSYDIR
 10
0.0
 20
1.0
 30
0.0
  9
$PUCSNAME
  2

  9
$PUCSORG
 10
0.0
 20
0.0
 30
0.0
  9
$PUCSXDIR
 10
1.0
 20
0.0
 30
0.0
  9
$PUCSYDIR
 10
0.0
 20
1.0
 30
0.0
  9
$USERI1
 70
     0
  9
$USERI2
 70
     0
  9
$USERI3
 70
     0
  9
$USERI4
 70
     0
  9
$USERI5
 70
     0
  9
$USERR1
 40
0.0
  9
$USERR2
 40
0.0
  9
$USERR3
 40
0.0
  9
$USERR4
 40
0.0
  9
$USERR5
 40
0.0
  9
$WORLDVIEW
 70
     1
  9
$SHADEDGE
 70
     0
  9
$SHADEDIF
 70
    70
  9
$TILEMODE
 70
     1
  9
$MAXACTVP
 70
    16
  9
$PLIMCHECK
 70
     0
  9
$PEXTMIN
 10
-0.805942
 20
0.005011
 30
0.0
  9
$PEXTMAX
 10
20.250094
 20
11.356329
 30
0.0
  9
$PLIMMIN
 10
0.0
 20
0.0
  9
$PLIMMAX
 10
12.0
 20
9.0
  9
$UNITMODE
 70
     0
  9
$VISRETAIN
 70
     0
  9
$PLINEGEN
 70
     0
  9
$PSLTSCALE
 70
     0
  0
ENDSEC
  0
SECTION
  2
TABLES
  0
TABLE
  2
VPORT
 70
     2
  0
VPORT
  2
*ACTIVE
 70
     0
 10
0.0
 20
0.0
 11
1.0
 21
1.0
 12
-1.442867
 22
-230.919075
 13
0.0
 23
0.0
 14
1.0
 24
1.0
 15
50.0
 25
50.0
 16
0.0
 26
0.0
 36
1.0
 17
0.0
 27
0.0
 37
0.0
 40
484.800499
 41
1.865779
 42
50.0
 43
0.0
 44
0.0
 50
0.0
 51
0.0
 71
     0
 72
   100
 73
     1
 74
     1
 75
     0
 76
     0
 77
     0
 78
     0
  0
ENDTAB
  0
TABLE
  2
LTYPE
 70
     1
  0
LTYPE
  2
CONTINUOUS
 70
     0
  3
Solid Line
 72
    65
 73
     0
 40
0.0
  0
ENDTAB
  0
TABLE
  2
LAYER
 70
     7
  0
LAYER
  2
0
 70
     0
 62
     7
  6
CONTINUOUS
  0
LAYER
  2
TEAM-BODY
 70
     0
 62
     2
  6
CONTINUOUS
  0
LAYER
  2
TEAM-MAS
 70
     0
 62
     9
  6
CONTINUOUS
  0
LAYER
  2
TEAM-TXT
 70
     0
 62
    11
  6
CONTINUOUS
  0
LAYER
  2
TEAM-KAN
 70
     0
 62
     6
  6
CONTINUOUS
  0
LAYER
  2
TEAM-NET
 70
     0
 62
    15
  6
CONTINUOUS
  0
LAYER
  2
TEAM-INSP
 70
     0
 62
     5
  6
CONTINUOUS
  0
ENDTAB
  0
TABLE
  2
STYLE
 70
     2
  0
STYLE
  2
STANDARD
 70
     0
 40
0.0
 41
1.0
 50
0.0
 71
     0
 42
200.0
  3
txt
  4

  0
STYLE
  2
TEAM
 70
     0
 40
0.0
 41
0.8
 50
15.0
 71
     0
 42
7.0
  3
ROMANS.shx
  4

  0
ENDTAB
  0
TABLE
  2
VIEW
 70
     0
  0
ENDTAB
  0
TABLE
  2
UCS
 70
     0
  0
ENDTAB
  0
TABLE
  2
APPID
 70
     1
  0
APPID
  2
ACAD
 70
     0
  0
ENDTAB
  0
TABLE
  2
DIMSTYLE
 70
     1
  0
DIMSTYLE
  2
TEAM
 70
     0
  3

  4

  5

  6

  7

 40
0.0
 41
20.0
 42
10.0
 43
1.0
 44
1.0
 45
0.0
 46
0.0
 47
0.0
 48
0.0
140
35.0
141
1.0
142
0.0
143
25.4
144
1.0
145
0.0
146
1.0
147
15.0
 71
     0
 72
     0
 73
     0
 74
     0
 75
     0
 76
     0
 77
     0
 78
     0
170
     0
171
     2
172
     0
173
     0
174
     0
175
     0
176
     9
177
     9
178
    11
  0
ENDTAB
  0
ENDSEC
  0
SECTION
  2
BLOCKS
  0
BLOCK
  8
0
  2
$MODEL_SPACE
 70
     0
 10
0.0
 20
0.0
 30
0.0
  3
$MODEL_SPACE
  1

  0
ENDBLK
  5
350
  8
0
  0
BLOCK
 67
     1
  8
0
  2
$PAPER_SPACE
 70
     0
 10
0.0
 20
0.0
 30
0.0
  3
$PAPER_SPACE
  1

  0
ENDBLK
  5
34E
 67
     1
  8
0
  0
ENDSEC
  0
SECTION
  2
ENTITIES
  0
CIRCLE
  5
20
  8
TEAM-INSP
 10
-1.442592
 20
0.0
 30
0.0
 40
10.0
  0
ARC
  5
22
  8
TEAM-BODY
 10
-2.885184
 20
962.4
 30
0.0
 40
295.744162
210
0.0
220
-1.0
230
0.0
 50
202.33882
 51
270.279481
  0
ARC
  5
24
  8
TEAM-BODY
 10
0.0
 20
962.4
 30
0.0
 40
295.744162
210
0.0
220
-1.0
230
0.0
 50
269.720519
 51
337.66118
  0
POLYLINE
  5
25
  8
TEAM-NET
 66
     1
 10
0.0
 20
0.0
 30
0.0
 70
    16
 71
     2
 72
    25
  0
VERTEX
  5
26
  8
TEAM-NET
 10
-1.442592
 20
0.0
 30
849.992689
 70
    64
  0
VERTEX
  5
27
  8
TEAM-NET
 10
-12.900587
 20
0.0
 30
849.992689
 70
    64
  0
VERTEX
  5
28
  8
TEAM-NET
 10
-24.358581
 20
0.0
 30
849.992689
 70
    64
  0
VERTEX
  5
29
  8
TEAM-NET
 10
-35.816576
 20
0.0
 30
849.992689
 70
    64
  0
VERTEX
  5
2A
  8
TEAM-NET
 10
-47.27457
 20
0.0
 30
849.992689
 70
    64
  0
VERTEX
  5
2B
  8
TEAM-NET
 10
-58.732565
 20
0.0
 30
849.992689
 70
    64
  0
VERTEX
  5
2C
  8
TEAM-NET
 10
-70.190559
 20
0.0
 30
849.992689
 70
    64
  0
VERTEX
  5
2D
  8
TEAM-NET
 10
-81.648554
 20
0.0
 30
849.992689
 70
    64
  0
VERTEX
  5
2E
  8
TEAM-NET
 10
-93.106548
 20
0.0
 30
849.992689
 70
    64
  0
VERTEX
  5
2F
  8
TEAM-NET
 10
-104.564543
 20
0.0
 30
849.992689
 70
    64
  0
VERTEX
  5
30
  8
TEAM-NET
 10
-116.022537
 20
0.0
 30
849.992689
 70
    64
  0
VERTEX
  5
31
  8
TEAM-NET
 10
-127.480531
 20
0.0
 30
849.992689
 70
    64
  0
VERTEX
  5
32
  8
TEAM-NET
 10
-138.938526
 20
0.0
 30
849.992689
 70
    64
  0
VERTEX
  5
33
  8
TEAM-NET
 10
-150.39652
 20
0.0
 30
849.992689
 70
    64
  0
VERTEX
  5
34
  8
TEAM-NET
 10
-161.854515
 20
0.0
 30
849.992689
 70
    64
  0
VERTEX
  5
35
  8
TEAM-NET
 10
-173.312509
 20
0.0
 30
849.992689
 70
    64
  0
VERTEX
  5
36
  8
TEAM-NET
 10
-184.770504
 20
0.0
 30
849.992689
 70
    64
  0
VERTEX
  5
37
  8
TEAM-NET
 10
-196.228498
 20
0.0
 30
849.992689
 70
    64
  0
VERTEX
  5
38
  8
TEAM-NET
 10
-207.686493
 20
0.0
 30
849.992689
 70
    64
  0
VERTEX
  5
39
  8
TEAM-NET
 10
-219.144487
 20
0.0
 30
849.992689
 70
    64
  0
VERTEX
  5
3A
  8
TEAM-NET
 10
-230.602482
 20
0.0
 30
849.992689
 70
    64
  0
VERTEX
  5
3B
  8
TEAM-NET
 10
-242.060476
 20
0.0
 30
849.992689
 70
    64
  0
VERTEX
  5
3C
  8
TEAM-NET
 10
-253.518471
 20
0.0
 30
849.992689
 70
    64
  0
VERTEX
  5
3D
  8
TEAM-NET
 10
-264.976465
 20
0.0
 30
849.992689
 70
    64
  0
VERTEX
  5
3E
  8
TEAM-NET
 10
-276.43446
 20
0.0
 30
849.992689
 70
    64
  0
VERTEX
  5
3F
  8
TEAM-NET
 10
-1.442592
 20
0.0
 30
666.659356
 70
    64
  0
VERTEX
  5
40
  8
TEAM-NET
 10
-16.050316
 20
0.0
 30
666.949008
 70
    64
  0
VERTEX
  5
41
  8
TEAM-NET
 10
-30.625908
 20
0.0
 30
667.959748
 70
    64
  0
VERTEX
  5
42
  8
TEAM-NET
 10
-45.133795
 20
0.0
 30
669.689111
 70
    64
  0
VERTEX
  5
43
  8
TEAM-NET
 10
-59.538568
 20
0.0
 30
672.132875
 70
    64
  0
VERTEX
  5
44
  8
TEAM-NET
 10
-73.805071
 20
0.0
 30
675.285077
 70
    64
  0
VERTEX
  5
45
  8
TEAM-NET
 10
-87.898484
 20
0.0
 30
679.138022
 70
    64
  0
VERTEX
  5
46
  8
TEAM-NET
 10
-101.784411
 20
0.0
 30
683.682307
 70
    64
  0
VERTEX
  5
47
  8
TEAM-NET
 10
-115.42896
 20
0.0
 30
688.906841
 70
    64
  0
VERTEX
  5
48
  8
TEAM-NET
 10
-128.79883
 20
0.0
 30
694.798873
 70
    64
  0
VERTEX
  5
49
  8
TEAM-NET
 10
-141.861391
 20
0.0
 30
701.344022
 70
    64
  0
VERTEX
  5
4A
  8
TEAM-NET
 10
-154.584761
 20
0.0
 30
708.526315
 70
    64
  0
VERTEX
  5
4B
  8
TEAM-NET
 10
-166.937888
 20
0.0
 30
716.328222
 70
    64
  0
VERTEX
  5
4C
  8
TEAM-NET
 10
-178.890621
 20
0.0
 30
724.730701
 70
    64
  0
VERTEX
  5
4D
  8
TEAM-NET
 10
-190.413788
 20
0.0
 30
733.713244
 70
    64
  0
VERTEX
  5
4E
  8
TEAM-NET
 10
-201.479266
 20
0.0
 30
743.25393
 70
    64
  0
VERTEX
  5
4F
  8
TEAM-NET
 10
-212.060048
 20
0.0
 30
753.329471
 70
    64
  0
VERTEX
  5
50
  8
TEAM-NET
 10
-222.13031
 20
0.0
 30
763.915279
 70
    64
  0
VERTEX
  5
51
  8
TEAM-NET
 10
-231.665473
 20
0.0
 30
774.985515
 70
    64
  0
VERTEX
  5
52
  8
TEAM-NET
 10
-240.642266
 20
0.0
 30
786.513163
 70
    64
  0
VERTEX
  5
53
  8
TEAM-NET
 10
-249.038781
 20
0.0
 30
798.470087
 70
    64
  0
VERTEX
  5
54
  8
TEAM-NET
 10
-256.834523
 20
0.0
 30
810.827104
 70
    64
  0
VERTEX
  5
55
  8
TEAM-NET
 10
-264.010467
 20
0.0
 30
823.554056
 70
    64
  0
VERTEX
  5
56
  8
TEAM-NET
 10
-270.549099
 20
0.0
 30
836.619881
 70
    64
  0
VERTEX
  5
57
  8
TEAM-NET
 10
-276.43446
 20
0.0
 30
849.992689
 70
    64
  0
SEQEND
  5
59
  8
TEAM-NET
  0
POLYLINE
  5
5A
  8
TEAM-NET
 66
     1
 10
0.0
 20
0.0
 30
0.0
 70
    16
 71
     2
 72
    25
  0
VERTEX
  5
5B
  8
TEAM-NET
 10
273.549275
 20
0.0
 30
849.992689
 70
    64
  0
VERTEX
  5
5C
  8
TEAM-NET
 10
262.091281
 20
0.0
 30
849.992689
 70
    64
  0
VERTEX
  5
5D
  8
TEAM-NET
 10
250.633286
 20
0.0
 30
849.992689
 70
    64
  0
VERTEX
  5
5E
  8
TEAM-NET
 10
239.175292
 20
0.0
 30
849.992689
 70
    64
  0
VERTEX
  5
5F
  8
TEAM-NET
 10
227.717297
 20
0.0
 30
849.992689
 70
    64
  0
VERTEX
  5
60
  8
TEAM-NET
 10
216.259303
 20
0.0
 30
849.992689
 70
    64
  0
VERTEX
  5
61
  8
TEAM-NET
 10
204.801308
 20
0.0
 30
849.992689
 70
    64
  0
VERTEX
  5
62
  8
TEAM-NET
 10
193.343314
 20
0.0
 30
849.992689
 70
    64
  0
VERTEX
  5
63
  8
TEAM-NET
 10
181.88532
 20
0.0
 30
849.992689
 70
    64
  0
VERTEX
  5
64
  8
TEAM-NET
 10
170.427325
 20
0.0
 30
849.992689
 70
    64
  0
VERTEX
  5
65
  8
TEAM-NET
 10
158.969331
 20
0.0
 30
849.992689
 70
    64
  0
VERTEX
  5
66
  8
TEAM-NET
 10
147.511336
 20
0.0
 30
849.992689
 70
    64
  0
VERTEX
  5
67
  8
TEAM-NET
 10
136.053342
 20
0.0
 30
849.992689
 70
    64
  0
VERTEX
  5
68
  8
TEAM-NET
 10
124.595347
 20
0.0
 30
849.992689
 70
    64
  0
VERTEX
  5
69
  8
TEAM-NET
 10
113.137353
 20
0.0
 30
849.992689
 70
    64
  0
VERTEX
  5
6A
  8
TEAM-NET
 10
101.679358
 20
0.0
 30
849.992689
 70
    64
  0
VERTEX
  5
6B
  8
TEAM-NET
 10
90.221364
 20
0.0
 30
849.992689
 70
    64
  0
VERTEX
  5
6C
  8
TEAM-NET
 10
78.763369
 20
0.0
 30
849.992689
 70
    64
  0
VERTEX
  5
6D
  8
TEAM-NET
 10
67.305375
 20
0.0
 30
849.992689
 70
    64
  0
VERTEX
  5
6E
  8
TEAM-NET
 10
55.84738
 20
0.0
 30
849.992689
 70
    64
  0
VERTEX
  5
6F
  8
TEAM-NET
 10
44.389386
 20
0.0
 30
849.992689
 70
    64
  0
VERTEX
  5
70
  8
TEAM-NET
 10
32.931391
 20
0.0
 30
849.992689
 70
    64
  0
VERTEX
  5
71
  8
TEAM-NET
 10
21.473397
 20
0.0
 30
849.992689
 70
    64
  0
VERTEX
  5
72
  8
TEAM-NET
 10
10.015402
 20
0.0
 30
849.992689
 70
    64
  0
VERTEX
  5
73
  8
TEAM-NET
 10
-1.442592
 20
0.0
 30
849.992689
 70
    64
  0
VERTEX
  5
74
  8
TEAM-NET
 10
273.549275
 20
0.0
 30
849.992689
 70
    64
  0
VERTEX
  5
75
  8
TEAM-NET
 10
267.663915
 20
0.0
 30
836.619881
 70
    64
  0
VERTEX
  5
76
  8
TEAM-NET
 10
261.125283
 20
0.0
 30
823.554056
 70
    64
  0
VERTEX
  5
77
  8
TEAM-NET
 10
253.949339
 20
0.0
 30
810.827104
 70
    64
  0
VERTEX
  5
78
  8
TEAM-NET
 10
246.153596
 20
0.0
 30
798.470087
 70
    64
  0
VERTEX
  5
79
  8
TEAM-NET
 10
237.757082
 20
0.0
 30
786.513163
 70
    64
  0
VERTEX
  5
7A
  8
TEAM-NET
 10
228.780289
 20
0.0
 30
774.985515
 70
    64
  0
VERTEX
  5
7B
  8
TEAM-NET
 10
219.245125
 20
0.0
 30
763.915279
 70
    64
  0
VERTEX
  5
7C
  8
TEAM-NET
 10
209.174864
 20
0.0
 30
753.329471
 70
    64
  0
VERTEX
  5
7D
  8
TEAM-NET
 10
198.594082
 20
0.0
 30
743.25393
 70
    64
  0
VERTEX
  5
7E
  8
TEAM-NET
 10
187.528604
 20
0.0
 30
733.713244
 70
    64
  0
VERTEX
  5
7F
  8
TEAM-NET
 10
176.005437
 20
0.0
 30
724.730701
 70
    64
  0
VERTEX
  5
80
  8
TEAM-NET
 10
164.052704
 20
0.0
 30
716.328222
 70
    64
  0
VERTEX
  5
81
  8
TEAM-NET
 10
151.699577
 20
0.0
 30
708.526315
 70
    64
  0
VERTEX
  5
82
  8
TEAM-NET
 10
138.976207
 20
0.0
 30
701.344022
 70
    64
  0
VERTEX
  5
83
  8
TEAM-NET
 10
125.913646
 20
0.0
 30
694.798873
 70
    64
  0
VERTEX
  5
84
  8
TEAM-NET
 10
112.543775
 20
0.0
 30
688.906841
 70
    64
  0
VERTEX
  5
85
  8
TEAM-NET
 10
98.899226
 20
0.0
 30
683.682307
 70
    64
  0
VERTEX
  5
86
  8
TEAM-NET
 10
85.0133
 20
0.0
 30
679.138022
 70
    64
  0
VERTEX
  5
87
  8
TEAM-NET
 10
70.919887
 20
0.0
 30
675.285077
 70
    64
  0
VERTEX
  5
88
  8
TEAM-NET
 10
56.653384
 20
0.0
 30
672.132875
 70
    64
  0
VERTEX
  5
89
  8
TEAM-NET
 10
42.24861
 20
0.0
 30
669.689111
 70
    64
  0
VERTEX
  5
8A
  8
TEAM-NET
 10
27.740723
 20
0.0
 30
667.959748
 70
    64
  0
VERTEX
  5
8B
  8
TEAM-NET
 10
13.165131
 20
0.0
 30
666.949008
 70
    64
  0
VERTEX
  5
8C
  8
TEAM-NET
 10
-1.442592
 20
0.0
 30
666.659356
 70
    64
  0
SEQEND
  5
8D
  8
TEAM-NET
  0
POLYLINE
  5
8E
  8
TEAM-NET
 66
     1
 10
0.0
 20
0.0
 30
0.0
 70
    16
 71
     2
 72
    25
  0
VERTEX
  5
8F
  8
TEAM-NET
 10
273.549275
 20
0.0
 30
849.992689
 70
    64
  0
VERTEX
  5
90
  8
TEAM-NET
 10
273.46521
 20
-25.536518
 30
849.992689
 70
    64
  0
VERTEX
  5
91
  8
TEAM-NET
 10
273.381145
 20
-51.073036
 30
849.992689
 70
    64
  0
VERTEX
  5
92
  8
TEAM-NET
 10
273.297079
 20
-76.609554
 30
849.992689
 70
    64
  0
VERTEX
  5
93
  8
TEAM-NET
 10
273.213014
 20
-102.146072
 30
849.992689
 70
    64
  0
VERTEX
  5
94
  8
TEAM-NET
 10
273.128949
 20
-127.68259
 30
849.992689
 70
    64
  0
VERTEX
  5
95
  8
TEAM-NET
 10
273.044884
 20
-153.219109
 30
849.992689
 70
    64
  0
VERTEX
  5
96
  8
TEAM-NET
 10
272.960818
 20
-178.755627
 30
849.992689
 70
    64
  0
VERTEX
  5
97
  8
TEAM-NET
 10
273.479239
 20
-204.278748
 30
849.992689
 70
    64
  0
VERTEX
  5
98
  8
TEAM-NET
 10
272.355504
 20
-229.777445
 30
849.992689
 70
    64
  0
VERTEX
  5
99
  8
TEAM-NET
 10
268.403228
 20
-254.993032
 30
849.992689
 70
    64
  0
VERTEX
  5
9A
  8
TEAM-NET
 10
261.671435
 20
-279.612725
 30
849.992689
 70
    64
  0
VERTEX
  5
9B
  8
TEAM-NET
 10
252.24363
 20
-303.331131
 30
849.992689
 70
    64
  0
VERTEX
  5
9C
  8
TEAM-NET
 10
240.236759
 20
-325.854038
 30
849.992689
 70
    64
  0
VERTEX
  5
9D
  8
TEAM-NET
 10
225.79976
 20
-346.902063
 30
849.992689
 70
    64
  0
VERTEX
  5
9E
  8
TEAM-NET
 10
209.111715
 20
-366.214118
 30
849.992689
 70
    64
  0
VERTEX
  5
9F
  8
TEAM-NET
 10
190.379629
 20
-383.550648
 30
849.992689
 70
    64
  0
VERTEX
  5
A0
  8
TEAM-NET
 10
169.835863
 20
-398.696605
 30
849.992689
 70
    64
  0
VERTEX
  5
A1
  8
TEAM-NET
 10
147.73525
 20
-411.46411
 30
849.992689
 70
    64
  0
VERTEX
  5
A2
  8
TEAM-NET
 10
124.351935
 20
-421.694792
 30
849.992689
 70
    64
  0
VERTEX
  5
A3
  8
TEAM-NET
 10
99.975972
 20
-429.261745
 30
849.992689
 70
    64
  0
VERTEX
  5
A4
  8
TEAM-NET
 10
74.911435
 20
-434.0831
 30
849.992689
 70
    64
  0
VERTEX
  5
A5
  8
TEAM-NET
 10
49.554844
 20
-437.090251
 30
849.992689
 70
    64
  0
VERTEX
  5
A6
  8
TEAM-NET
 10
24.084576
 20
-438.897227
 30
849.992689
 70
    64
  0
VERTEX
  5
A7
  8
TEAM-NET
 10
-1.442592
 20
-439.5
 30
849.992689
 70
    64
  0
VERTEX
  5
A8
  8
TEAM-NET
 10
273.549275
 20
0.0
 30
849.992689
 70
    64
  0
VERTEX
  5
A9
  8
TEAM-NET
 10
267.663915
 20
0.0
 30
836.619881
 70
    64
  0
VERTEX
  5
AA
  8
TEAM-NET
 10
261.125283
 20
0.0
 30
823.554056
 70
    64
  0
VERTEX
  5
AB
  8
TEAM-NET
 10
253.949339
 20
0.0
 30
810.827104
 70
    64
  0
VERTEX
  5
AC
  8
TEAM-NET
 10
246.153596
 20
0.0
 30
798.470087
 70
    64
  0
VERTEX
  5
AD
  8
TEAM-NET
 10
237.757082
 20
0.0
 30
786.513163
 70
    64
  0
VERTEX
  5
AE
  8
TEAM-NET
 10
228.780289
 20
0.0
 30
774.985515
 70
    64
  0
VERTEX
  5
AF
  8
TEAM-NET
 10
219.245125
 20
0.0
 30
763.915279
 70
    64
  0
VERTEX
  5
B0
  8
TEAM-NET
 10
209.174864
 20
0.0
 30
753.329471
 70
    64
  0
VERTEX
  5
B1
  8
TEAM-NET
 10
198.594082
 20
0.0
 30
743.25393
 70
    64
  0
VERTEX
  5
B2
  8
TEAM-NET
 10
187.528604
 20
0.0
 30
733.713244
 70
    64
  0
VERTEX
  5
B3
  8
TEAM-NET
 10
176.005437
 20
0.0
 30
724.730701
 70
    64
  0
VERTEX
  5
B4
  8
TEAM-NET
 10
164.052704
 20
0.0
 30
716.328222
 70
    64
  0
VERTEX
  5
B5
  8
TEAM-NET
 10
151.699577
 20
0.0
 30
708.526315
 70
    64
  0
VERTEX
  5
B6
  8
TEAM-NET
 10
138.976207
 20
0.0
 30
701.344022
 70
    64
  0
VERTEX
  5
B7
  8
TEAM-NET
 10
125.913646
 20
0.0
 30
694.798873
 70
    64
  0
VERTEX
  5
B8
  8
TEAM-NET
 10
112.543775
 20
0.0
 30
688.906841
 70
    64
  0
VERTEX
  5
B9
  8
TEAM-NET
 10
98.899226
 20
0.0
 30
683.682307
 70
    64
  0
VERTEX
  5
BA
  8
TEAM-NET
 10
85.0133
 20
0.0
 30
679.138022
 70
    64
  0
VERTEX
  5
BB
  8
TEAM-NET
 10
70.919887
 20
0.0
 30
675.285077
 70
    64
  0
VERTEX
  5
BC
  8
TEAM-NET
 10
56.653384
 20
0.0
 30
672.132875
 70
    64
  0
VERTEX
  5
BD
  8
TEAM-NET
 10
42.24861
 20
0.0
 30
669.689111
 70
    64
  0
VERTEX
  5
BE
  8
TEAM-NET
 10
27.740723
 20
0.0
 30
667.959748
 70
    64
  0
VERTEX
  5
BF
  8
TEAM-NET
 10
13.165131
 20
0.0
 30
666.949008
 70
    64
  0
VERTEX
  5
C0
  8
TEAM-NET
 10
-1.442592
 20
0.0
 30
666.659356
 70
    64
  0
SEQEND
  5
C1
  8
TEAM-NET
  0
POLYLINE
  5
C2
  8
TEAM-NET
 66
     1
 10
0.0
 20
0.0
 30
0.0
 70
    16
 71
     2
 72
    25
  0
VERTEX
  5
C3
  8
TEAM-NET
 10
-1.442592
 20
-439.5
 30
849.992689
 70
    64
  0
VERTEX
  5
C4
  8
TEAM-NET
 10
-26.969761
 20
-438.897227
 30
849.992689
 70
    64
  0
VERTEX
  5
C5
  8
TEAM-NET
 10
-52.440028
 20
-437.090251
 30
849.992689
 70
    64
  0
VERTEX
  5
C6
  8
TEAM-NET
 10
-77.796619
 20
-434.0831
 30
849.992689
 70
    64
  0
VERTEX
  5
C7
  8
TEAM-NET
 10
-102.861157
 20
-429.261745
 30
849.992689
 70
    64
  0
VERTEX
  5
C8
  8
TEAM-NET
 10
-127.237119
 20
-421.694792
 30
849.992689
 70
    64
  0
VERTEX
  5
C9
  8
TEAM-NET
 10
-150.620435
 20
-411.46411
 30
849.992689
 70
    64
  0
VERTEX
  5
CA
  8
TEAM-NET
 10
-172.721048
 20
-398.696605
 30
849.992689
 70
    64
  0
VERTEX
  5
CB
  8
TEAM-NET
 10
-193.264814
 20
-383.550648
 30
849.992689
 70
    64
  0
VERTEX
  5
CC
  8
TEAM-NET
 10
-211.996899
 20
-366.214118
 30
849.992689
 70
    64
  0
VERTEX
  5
CD
  8
TEAM-NET
 10
-228.684944
 20
-346.902063
 30
849.992689
 70
    64
  0
VERTEX
  5
CE
  8
TEAM-NET
 10
-243.121944
 20
-325.854038
 30
849.992689
 70
    64
  0
VERTEX
  5
CF
  8
TEAM-NET
 10
-255.128815
 20
-303.331131
 30
849.992689
 70
    64
  0
VERTEX
  5
D0
  8
TEAM-NET
 10
-264.55662
 20
-279.612725
 30
849.992689
 70
    64
  0
VERTEX
  5
D1
  8
TEAM-NET
 10
-271.288412
 20
-254.993032
 30
849.992689
 70
    64
  0
VERTEX
  5
D2
  8
TEAM-NET
 10
-275.240689
 20
-229.777445
 30
849.992689
 70
    64
  0
VERTEX
  5
D3
  8
TEAM-NET
 10
-276.364423
 20
-204.278748
 30
849.992689
 70
    64
  0
VERTEX
  5
D4
  8
TEAM-NET
 10
-275.846003
 20
-178.755627
 30
849.992689
 70
    64
  0
VERTEX
  5
D5
  8
TEAM-NET
 10
-275.930068
 20
-153.219109
 30
849.992689
 70
    64
  0
VERTEX
  5
D6
  8
TEAM-NET
 10
-276.014133
 20
-127.68259
 30
849.992689
 70
    64
  0
VERTEX
  5
D7
  8
TEAM-NET
 10
-276.098199
 20
-102.146072
 30
849.992689
 70
    64
  0
VERTEX
  5
D8
  8
TEAM-NET
 10
-276.182264
 20
-76.609554
 30
849.992689
 70
    64
  0
VERTEX
  5
D9
  8
TEAM-NET
 10
-276.266329
 20
-51.073036
 30
849.992689
 70
    64
  0
VERTEX
  5
DA
  8
TEAM-NET
 10
-276.350394
 20
-25.536518
 30
849.992689
 70
    64
  0
VERTEX
  5
DB
  8
TEAM-NET
 10
-276.43446
 20
0.0
 30
849.992689
 70
    64
  0
VERTEX
  5
DC
  8
TEAM-NET
 10
-1.442592
 20
0.0
 30
666.659356
 70
    64
  0
VERTEX
  5
DD
  8
TEAM-NET
 10
-16.050316
 20
0.0
 30
666.949008
 70
    64
  0
VERTEX
  5
DE
  8
TEAM-NET
 10
-30.625908
 20
0.0
 30
667.959748
 70
    64
  0
VERTEX
  5
DF
  8
TEAM-NET
 10
-45.133795
 20
0.0
 30
669.689111
 70
    64
  0
VERTEX
  5
E0
  8
TEAM-NET
 10
-59.538568
 20
0.0
 30
672.132875
 70
    64
  0
VERTEX
  5
E1
  8
TEAM-NET
 10
-73.805071
 20
0.0
 30
675.285077
 70
    64
  0
VERTEX
  5
E2
  8
TEAM-NET
 10
-87.898484
 20
0.0
 30
679.138022
 70
    64
  0
VERTEX
  5
E3
  8
TEAM-NET
 10
-101.784411
 20
0.0
 30
683.682307
 70
    64
  0
VERTEX
  5
E4
  8
TEAM-NET
 10
-115.42896
 20
0.0
 30
688.906841
 70
    64
  0
VERTEX
  5
E5
  8
TEAM-NET
 10
-128.79883
 20
0.0
 30
694.798873
 70
    64
  0
VERTEX
  5
E6
  8
TEAM-NET
 10
-141.861391
 20
0.0
 30
701.344022
 70
    64
  0
VERTEX
  5
E7
  8
TEAM-NET
 10
-154.584761
 20
0.0
 30
708.526315
 70
    64
  0
VERTEX
  5
E8
  8
TEAM-NET
 10
-166.937888
 20
0.0
 30
716.328222
 70
    64
  0
VERTEX
  5
E9
  8
TEAM-NET
 10
-178.890621
 20
0.0
 30
724.730701
 70
    64
  0
VERTEX
  5
EA
  8
TEAM-NET
 10
-190.413788
 20
0.0
 30
733.713244
 70
    64
  0
VERTEX
  5
EB
  8
TEAM-NET
 10
-201.479266
 20
0.0
 30
743.25393
 70
    64
  0
VERTEX
  5
EC
  8
TEAM-NET
 10
-212.060048
 20
0.0
 30
753.329471
 70
    64
  0
VERTEX
  5
ED
  8
TEAM-NET
 10
-222.13031
 20
0.0
 30
763.915279
 70
    64
  0
VERTEX
  5
EE
  8
TEAM-NET
 10
-231.665473
 20
0.0
 30
774.985515
 70
    64
  0
VERTEX
  5
EF
  8
TEAM-NET
 10
-240.642266
 20
0.0
 30
786.513163
 70
    64
  0
VERTEX
  5
F0
  8
TEAM-NET
 10
-249.038781
 20
0.0
 30
798.470087
 70
    64
  0
VERTEX
  5
F1
  8
TEAM-NET
 10
-256.834523
 20
0.0
 30
810.827104
 70
    64
  0
VERTEX
  5
F2
  8
TEAM-NET
 10
-264.010467
 20
0.0
 30
823.554056
 70
    64
  0
VERTEX
  5
F3
  8
TEAM-NET
 10
-270.549099
 20
0.0
 30
836.619881
 70
    64
  0
VERTEX
  5
F4
  8
TEAM-NET
 10
-276.43446
 20
0.0
 30
849.992689
 70
    64
  0
SEQEND
  5
F5
  8
TEAM-NET
  0
CIRCLE
  5
F6
  8
TEAM-KAN
 10
-1.442592
 20
-159.152774
 30
666.659356
 40
36.666667
  0
CIRCLE
  5
F8
  8
TEAM-KAN
 10
-1.442592
 20
-159.152774
 30
666.659356
 40
27.5
  0
POLYLINE
  5
F9
  8
TEAM-NET
 66
     1
 10
0.0
 20
0.0
 30
0.0
 70
    16
 71
     2
 72
    17
  0
VERTEX
  5
FA
  8
TEAM-NET
 10
-1.442592
 20
-412.0
 30
849.992689
 70
    64
  0
VERTEX
  5
FB
  8
TEAM-NET
 10
22.983419
 20
-411.418538
 30
849.992689
 70
    64
  0
VERTEX
  5
FC
  8
TEAM-NET
 10
47.354095
 20
-409.675467
 30
849.992689
 70
    64
  0
VERTEX
  5
FD
  8
TEAM-NET
 10
71.614225
 20
-406.774738
 30
849.992689
 70
    64
  0
VERTEX
  5
FE
  8
TEAM-NET
 10
95.564362
 20
-402.003587
 30
849.992689
 70
    64
  0
VERTEX
  5
FF
  8
TEAM-NET
 10
118.764385
 20
-394.38062
 30
849.992689
 70
    64
  0
VERTEX
  5
100
  8
TEAM-NET
 10
140.872924
 20
-384.00935
 30
849.992689
 70
    64
  0
VERTEX
  5
101
  8
TEAM-NET
 10
161.565793
 20
-371.041856
 30
849.992689
 70
    64
  0
VERTEX
  5
102
  8
TEAM-NET
 10
180.539564
 20
-355.668283
 30
849.992689
 70
    64
  0
VERTEX
  5
103
  8
TEAM-NET
 10
197.516019
 20
-338.114061
 30
849.992689
 70
    64
  0
VERTEX
  5
104
  8
TEAM-NET
 10
212.246226
 20
-318.636594
 30
849.992689
 70
    64
  0
VERTEX
  5
105
  8
TEAM-NET
 10
224.514189
 20
-297.521486
 30
849.992689
 70
    64
  0
VERTEX
  5
106
  8
TEAM-NET
 10
234.140021
 20
-275.078355
 30
849.992689
 70
    64
  0
VERTEX
  5
107
  8
TEAM-NET
 10
240.982573
 20
-251.636295
 30
849.992689
 70
    64
  0
VERTEX
  5
108
  8
TEAM-NET
 10
244.950911
 20
-227.540145
 30
849.992689
 70
    64
  0
VERTEX
  5
109
  8
TEAM-NET
 10
245.033121
 20
-203.143545
 30
849.992689
 70
    64
  0
VERTEX
  5
10A
  8
TEAM-NET
 10
240.39838
 20
-179.191092
 30
849.992689
 70
    64
  0
VERTEX
  5
10B
  8
TEAM-NET
 10
-1.442592
 20
-110.441092
 30
730.914196
 70
    64
  0
VERTEX
  5
10C
  8
TEAM-NET
 10
16.731389
 20
-110.734805
 30
731.422922
 70
    64
  0
VERTEX
  5
10D
  8
TEAM-NET
 10
34.829502
 20
-111.614718
 30
732.946975
 70
    64
  0
VERTEX
  5
10E
  8
TEAM-NET
 10
52.776193
 20
-113.077156
 30
735.479993
 70
    64
  0
VERTEX
  5
10F
  8
TEAM-NET
 10
70.496545
 20
-115.116016
 30
739.011402
 70
    64
  0
VERTEX
  5
110
  8
TEAM-NET
 10
87.916581
 20
-117.722786
 30
743.52646
 70
    64
  0
VERTEX
  5
111
  8
TEAM-NET
 10
104.963581
 20
-120.886584
 30
749.006318
 70
    64
  0
VERTEX
  5
112
  8
TEAM-NET
 10
121.56638
 20
-124.594201
 30
755.4281
 70
    64
  0
VERTEX
  5
113
  8
TEAM-NET
 10
137.65567
 20
-128.830161
 30
762.764999
 70
    64
  0
VERTEX
  5
114
  8
TEAM-NET
 10
153.164283
 20
-133.576781
 30
770.986385
 70
    64
  0
VERTEX
  5
115
  8
TEAM-NET
 10
168.027478
 20
-138.814244
 30
780.057937
 70
    64
  0
VERTEX
  5
116
  8
TEAM-NET
 10
182.183207
 20
-144.520687
 30
789.941787
 70
    64
  0
VERTEX
  5
117
  8
TEAM-NET
 10
195.572377
 20
-150.672289
 30
800.596673
 70
    64
  0
VERTEX
  5
118
  8
TEAM-NET
 10
208.139094
 20
-157.243367
 30
811.978115
 70
    64
  0
VERTEX
  5
119
  8
TEAM-NET
 10
219.830896
 20
-164.206492
 30
824.038601
 70
    64
  0
VERTEX
  5
11A
  8
TEAM-NET
 10
230.598975
 20
-171.532595
 30
836.727783
 70
    64
  0
VERTEX
  5
11B
  8
TEAM-NET
 10
240.39838
 20
-179.191092
 30
849.992689
 70
    64
  0
SEQEND
  5
11C
  8
TEAM-NET
  0
POLYLINE
  5
11D
  8
TEAM-NET
 66
     1
 10
0.0
 20
0.0
 30
0.0
 70
    16
 71
     2
 72
    17
  0
VERTEX
  5
11E
  8
TEAM-NET
 10
-1.442592
 20
-412.0
 30
849.992689
 70
    64
  0
VERTEX
  5
11F
  8
TEAM-NET
 10
-25.868604
 20
-411.418538
 30
849.992689
 70
    64
  0
VERTEX
  5
120
  8
TEAM-NET
 10
-50.239279
 20
-409.675467
 30
849.992689
 70
    64
  0
VERTEX
  5
121
  8
TEAM-NET
 10
-74.499409
 20
-406.774738
 30
849.992689
 70
    64
  0
VERTEX
  5
122
  8
TEAM-NET
 10
-98.449546
 20
-402.003587
 30
849.992689
 70
    64
  0
VERTEX
  5
123
  8
TEAM-NET
 10
-121.64957
 20
-394.38062
 30
849.992689
 70
    64
  0
VERTEX
  5
124
  8
TEAM-NET
 10
-143.758109
 20
-384.00935
 30
849.992689
 70
    64
  0
VERTEX
  5
125
  8
TEAM-NET
 10
-164.450977
 20
-371.041856
 30
849.992689
 70
    64
  0
VERTEX
  5
126
  8
TEAM-NET
 10
-183.424749
 20
-355.668283
 30
849.992689
 70
    64
  0
VERTEX
  5
127
  8
TEAM-NET
 10
-200.401203
 20
-338.114061
 30
849.992689
 70
    64
  0
VERTEX
  5
128
  8
TEAM-NET
 10
-215.13141
 20
-318.636594
 30
849.992689
 70
    64
  0
VERTEX
  5
129
  8
TEAM-NET
 10
-227.399374
 20
-297.521486
 30
849.992689
 70
    64
  0
VERTEX
  5
12A
  8
TEAM-NET
 10
-237.025205
 20
-275.078355
 30
849.992689
 70
    64
  0
VERTEX
  5
12B
  8
TEAM-NET
 10
-243.867757
 20
-251.636295
 30
849.992689
 70
    64
  0
VERTEX
  5
12C
  8
TEAM-NET
 10
-247.836096
 20
-227.540145
 30
849.992689
 70
    64
  0
VERTEX
  5
12D
  8
TEAM-NET
 10
-247.918305
 20
-203.143545
 30
849.992689
 70
    64
  0
VERTEX
  5
12E
  8
TEAM-NET
 10
-243.283564
 20
-179.191092
 30
849.992689
 70
    64
  0
VERTEX
  5
12F
  8
TEAM-NET
 10
-1.442592
 20
-110.441092
 30
730.914196
 70
    64
  0
VERTEX
  5
130
  8
TEAM-NET
 10
-19.616573
 20
-110.734805
 30
731.422922
 70
    64
  0
VERTEX
  5
131
  8
TEAM-NET
 10
-37.714686
 20
-111.614718
 30
732.946975
 70
    64
  0
VERTEX
  5
132
  8
TEAM-NET
 10
-55.661378
 20
-113.077156
 30
735.479993
 70
    64
  0
VERTEX
  5
133
  8
TEAM-NET
 10
-73.381729
 20
-115.116016
 30
739.011402
 70
    64
  0
VERTEX
  5
134
  8
TEAM-NET
 10
-90.801766
 20
-117.722786
 30
743.52646
 70
    64
  0
VERTEX
  5
135
  8
TEAM-NET
 10
-107.848766
 20
-120.886584
 30
749.006318
 70
    64
  0
VERTEX
  5
136
  8
TEAM-NET
 10
-124.451565
 20
-124.594201
 30
755.4281
 70
    64
  0
VERTEX
  5
137
  8
TEAM-NET
 10
-140.540854
 20
-128.830161
 30
762.764999
 70
    64
  0
VERTEX
  5
138
  8
TEAM-NET
 10
-156.049467
 20
-133.576781
 30
770.986385
 70
    64
  0
VERTEX
  5
139
  8
TEAM-NET
 10
-170.912662
 20
-138.814244
 30
780.057937
 70
    64
  0
VERTEX
  5
13A
  8
TEAM-NET
 10
-185.068392
 20
-144.520687
 30
789.941787
 70
    64
  0
VERTEX
  5
13B
  8
TEAM-NET
 10
-198.457562
 20
-150.672289
 30
800.596673
 70
    64
  0
VERTEX
  5
13C
  8
TEAM-NET
 10
-211.024278
 20
-157.243367
 30
811.978115
 70
    64
  0
VERTEX
  5
13D
  8
TEAM-NET
 10
-222.71608
 20
-164.206492
 30
824.038601
 70
    64
  0
VERTEX
  5
13E
  8
TEAM-NET
 10
-233.48416
 20
-171.532595
 30
836.727783
 70
    64
  0
VERTEX
  5
13F
  8
TEAM-NET
 10
-243.283564
 20
-179.191092
 30
849.992689
 70
    64
  0
SEQEND
  5
140
  8
TEAM-NET
  0
POLYLINE
  5
141
  8
TEAM-NET
 66
     1
 10
0.0
 20
0.0
 30
0.0
 70
    16
 71
     2
 72
    17
  0
VERTEX
  5
142
  8
TEAM-NET
 10
-1.442592
 20
-84.749355
 30
849.992689
 70
    64
  0
VERTEX
  5
143
  8
TEAM-NET
 10
16.18115
 20
-84.890544
 30
849.992689
 70
    64
  0
VERTEX
  5
144
  8
TEAM-NET
 10
33.800368
 20
-85.314076
 30
849.992689
 70
    64
  0
VERTEX
  5
145
  8
TEAM-NET
 10
51.410539
 20
-86.01984
 30
849.992689
 70
    64
  0
VERTEX
  5
146
  8
TEAM-NET
 10
69.007142
 20
-87.007657
 30
849.992689
 70
    64
  0
VERTEX
  5
147
  8
TEAM-NET
 10
86.585661
 20
-88.277273
 30
849.992689
 70
    64
  0
VERTEX
  5
148
  8
TEAM-NET
 10
104.141581
 20
-89.828361
 30
849.992689
 70
    64
  0
VERTEX
  5
149
  8
TEAM-NET
 10
121.670398
 20
-91.660524
 30
849.992689
 70
    64
  0
VERTEX
  5
14A
  8
TEAM-NET
 10
139.16761
 20
-93.773292
 30
849.992689
 70
    64
  0
VERTEX
  5
14B
  8
TEAM-NET
 10
156.59848
 20
-96.350364
 30
849.992689
 70
    64
  0
VERTEX
  5
14C
  8
TEAM-NET
 10
173.402347
 20
-101.575037
 30
849.992689
 70
    64
  0
VERTEX
  5
14D
  8
TEAM-NET
 10
188.905528
 20
-109.90315
 30
849.992689
 70
    64
  0
VERTEX
  5
14E
  8
TEAM-NET
 10
202.912906
 20
-120.575877
 30
849.992689
 70
    64
  0
VERTEX
  5
14F
  8
TEAM-NET
 10
215.290279
 20
-133.102424
 30
849.992689
 70
    64
  0
VERTEX
  5
150
  8
TEAM-NET
 10
225.794439
 20
-147.236651
 30
849.992689
 70
    64
  0
VERTEX
  5
151
  8
TEAM-NET
 10
234.218985
 20
-162.700828
 30
849.992689
 70
    64
  0
VERTEX
  5
152
  8
TEAM-NET
 10
240.39838
 20
-179.191092
 30
849.992689
 70
    64
  0
VERTEX
  5
153
  8
TEAM-NET
 10
-1.442592
 20
-110.441092
 30
730.914196
 70
    64
  0
VERTEX
  5
154
  8
TEAM-NET
 10
16.731389
 20
-110.734805
 30
731.422922
 70
    64
  0
VERTEX
  5
155
  8
TEAM-NET
 10
34.829502
 20
-111.614718
 30
732.946975
 70
    64
  0
VERTEX
  5
156
  8
TEAM-NET
 10
52.776193
 20
-113.077156
 30
735.479993
 70
    64
  0
VERTEX
  5
157
  8
TEAM-NET
 10
70.496545
 20
-115.116016
 30
739.011402
 70
    64
  0
VERTEX
  5
158
  8
TEAM-NET
 10
87.916581
 20
-117.722786
 30
743.52646
 70
    64
  0
VERTEX
  5
159
  8
TEAM-NET
 10
104.963581
 20
-120.886584
 30
749.006318
 70
    64
  0
VERTEX
  5
15A
  8
TEAM-NET
 10
121.56638
 20
-124.594201
 30
755.4281
 70
    64
  0
VERTEX
  5
15B
  8
TEAM-NET
 10
137.65567
 20
-128.830161
 30
762.764999
 70
    64
  0
VERTEX
  5
15C
  8
TEAM-NET
 10
153.164283
 20
-133.576781
 30
770.986385
 70
    64
  0
VERTEX
  5
15D
  8
TEAM-NET
 10
168.027478
 20
-138.814244
 30
780.057937
 70
    64
  0
VERTEX
  5
15E
  8
TEAM-NET
 10
182.183207
 20
-144.520687
 30
789.941787
 70
    64
  0
VERTEX
  5
15F
  8
TEAM-NET
 10
195.572377
 20
-150.672289
 30
800.596673
 70
    64
  0
VERTEX
  5
160
  8
TEAM-NET
 10
208.139094
 20
-157.243367
 30
811.978115
 70
    64
  0
VERTEX
  5
161
  8
TEAM-NET
 10
219.830896
 20
-164.206492
 30
824.038601
 70
    64
  0
VERTEX
  5
162
  8
TEAM-NET
 10
230.598975
 20
-171.532595
 30
836.727783
 70
    64
  0
VERTEX
  5
163
  8
TEAM-NET
 10
240.39838
 20
-179.191092
 30
849.992689
 70
    64
  0
SEQEND
  5
164
  8
TEAM-NET
  0
POLYLINE
  5
165
  8
TEAM-NET
 66
     1
 10
0.0
 20
0.0
 30
0.0
 70
    16
 71
     2
 72
    17
  0
VERTEX
  5
166
  8
TEAM-NET
 10
-1.442592
 20
-84.749355
 30
849.992689
 70
    64
  0
VERTEX
  5
167
  8
TEAM-NET
 10
-19.066334
 20
-84.890544
 30
849.992689
 70
    64
  0
VERTEX
  5
168
  8
TEAM-NET
 10
-36.685553
 20
-85.314076
 30
849.992689
 70
    64
  0
VERTEX
  5
169
  8
TEAM-NET
 10
-54.295724
 20
-86.01984
 30
849.992689
 70
    64
  0
VERTEX
  5
16A
  8
TEAM-NET
 10
-71.892327
 20
-87.007657
 30
849.992689
 70
    64
  0
VERTEX
  5
16B
  8
TEAM-NET
 10
-89.470845
 20
-88.277273
 30
849.992689
 70
    64
  0
VERTEX
  5
16C
  8
TEAM-NET
 10
-107.026766
 20
-89.828361
 30
849.992689
 70
    64
  0
VERTEX
  5
16D
  8
TEAM-NET
 10
-124.555582
 20
-91.660524
 30
849.992689
 70
    64
  0
VERTEX
  5
16E
  8
TEAM-NET
 10
-142.052795
 20
-93.773292
 30
849.992689
 70
    64
  0
VERTEX
  5
16F
  8
TEAM-NET
 10
-159.483664
 20
-96.350364
 30
849.992689
 70
    64
  0
VERTEX
  5
170
  8
TEAM-NET
 10
-176.287531
 20
-101.575037
 30
849.992689
 70
    64
  0
VERTEX
  5
171
  8
TEAM-NET
 10
-191.790713
 20
-109.90315
 30
849.992689
 70
    64
  0
VERTEX
  5
172
  8
TEAM-NET
 10
-205.79809
 20
-120.575877
 30
849.992689
 70
    64
  0
VERTEX
  5
173
  8
TEAM-NET
 10
-218.175464
 20
-133.102424
 30
849.992689
 70
    64
  0
VERTEX
  5
174
  8
TEAM-NET
 10
-228.679624
 20
-147.236651
 30
849.992689
 70
    64
  0
VERTEX
  5
175
  8
TEAM-NET
 10
-237.10417
 20
-162.700828
 30
849.992689
 70
    64
  0
VERTEX
  5
176
  8
TEAM-NET
 10
-243.283564
 20
-179.191092
 30
849.992689
 70
    64
  0
VERTEX
  5
177
  8
TEAM-NET
 10
-1.442592
 20
-110.441092
 30
730.914196
 70
    64
  0
VERTEX
  5
178
  8
TEAM-NET
 10
-19.616573
 20
-110.734805
 30
731.422922
 70
    64
  0
VERTEX
  5
179
  8
TEAM-NET
 10
-37.714686
 20
-111.614718
 30
732.946975
 70
    64
  0
VERTEX
  5
17A
  8
TEAM-NET
 10
-55.661378
 20
-113.077156
 30
735.479993
 70
    64
  0
VERTEX
  5
17B
  8
TEAM-NET
 10
-73.381729
 20
-115.116016
 30
739.011402
 70
    64
  0
VERTEX
  5
17C
  8
TEAM-NET
 10
-90.801766
 20
-117.722786
 30
743.52646
 70
    64
  0
VERTEX
  5
17D
  8
TEAM-NET
 10
-107.848766
 20
-120.886584
 30
749.006318
 70
    64
  0
VERTEX
  5
17E
  8
TEAM-NET
 10
-124.451565
 20
-124.594201
 30
755.4281
 70
    64
  0
VERTEX
  5
17F
  8
TEAM-NET
 10
-140.540854
 20
-128.830161
 30
762.764999
 70
    64
  0
VERTEX
  5
180
  8
TEAM-NET
 10
-156.049467
 20
-133.576781
 30
770.986385
 70
    64
  0
VERTEX
  5
181
  8
TEAM-NET
 10
-170.912662
 20
-138.814244
 30
780.057937
 70
    64
  0
VERTEX
  5
182
  8
TEAM-NET
 10
-185.068392
 20
-144.520687
 30
789.941787
 70
    64
  0
VERTEX
  5
183
  8
TEAM-NET
 10
-198.457562
 20
-150.672289
 30
800.596673
 70
    64
  0
VERTEX
  5
184
  8
TEAM-NET
 10
-211.024278
 20
-157.243367
 30
811.978115
 70
    64
  0
VERTEX
  5
185
  8
TEAM-NET
 10
-222.71608
 20
-164.206492
 30
824.038601
 70
    64
  0
VERTEX
  5
186
  8
TEAM-NET
 10
-233.48416
 20
-171.532595
 30
836.727783
 70
    64
  0
VERTEX
  5
187
  8
TEAM-NET
 10
-243.283564
 20
-179.191092
 30
849.992689
 70
    64
  0
SEQEND
  5
188
  8
TEAM-NET
  0
ARC
  5
189
  8
TEAM-BODY
 10
-1.442592
 20
969.641011
 30
-269.812307
 40
281.430202
210
0.0
220
-0.866025
230
-0.5
 50
210.758738
 51
270.0
  0
ARC
  5
18A
  8
TEAM-BODY
 10
-1.442592
 20
969.641011
 30
-269.812307
 40
281.430202
210
0.0
220
-0.866025
230
-0.5
 50
270.0
 51
329.241262
  0
POLYLINE
  5
18B
  8
TEAM-BODY
 66
     1
 10
0.0
 20
0.0
 30
849.992689
  0
VERTEX
  5
356
  8
TEAM-BODY
 10
273.549275
 20
0.0
 30
849.992689
  0
VERTEX
  5
357
  8
TEAM-BODY
 10
272.92133
 20
-190.751103
 30
849.992689
 42
-0.391944
  0
VERTEX
  5
358
  8
TEAM-BODY
 10
77.983176
 20
-433.636051
 30
849.992689
 42
-0.036864
  0
VERTEX
  5
359
  8
TEAM-BODY
 10
-1.442592
 20
-439.5
 30
849.992689
 42
-0.036864
  0
SEQEND
  5
35A
  8
TEAM-BODY
  0
POLYLINE
  5
18C
  8
TEAM-BODY
 66
     1
 10
0.0
 20
0.0
 30
849.992689
  0
VERTEX
  5
35B
  8
TEAM-BODY
 10
-243.283564
 20
-179.191092
 30
849.992689
 42
0.103817
  0
VERTEX
  5
35C
  8
TEAM-BODY
 10
-247.485118
 20
-230.632644
 30
849.992689
 42
0.338541
  0
VERTEX
  5
35D
  8
TEAM-BODY
 10
-76.829762
 20
-406.434218
 30
849.992689
 42
0.036864
  0
VERTEX
  5
35E
  8
TEAM-BODY
 10
-1.442592
 20
-412.0
 30
849.992689
 42
0.036864
  0
SEQEND
  5
35F
  8
TEAM-BODY
  0
POLYLINE
  5
18D
  8
TEAM-BODY
 66
     1
 10
0.0
 20
0.0
 30
849.992689
  0
VERTEX
  5
360
  8
TEAM-BODY
 10
-276.43446
 20
0.0
 30
849.992689
  0
VERTEX
  5
361
  8
TEAM-BODY
 10
-275.806514
 20
-190.751103
 30
849.992689
 42
0.391944
  0
VERTEX
  5
362
  8
TEAM-BODY
 10
-80.86836
 20
-433.636051
 30
849.992689
 42
0.036864
  0
VERTEX
  5
363
  8
TEAM-BODY
 10
-1.442592
 20
-439.5
 30
849.992689
 42
0.036864
  0
SEQEND
  5
364
  8
TEAM-BODY
  0
POLYLINE
  5
18E
  8
TEAM-NET
 66
     1
 10
0.0
 20
0.0
 30
0.0
 70
    16
 71
     2
 72
    25
  0
VERTEX
  5
18F
  8
TEAM-NET
 10
-243.283564
 20
-179.191092
 30
849.992689
 70
    64
  0
VERTEX
  5
190
  8
TEAM-NET
 10
-246.892491
 20
-195.064759
 30
849.992689
 70
    64
  0
VERTEX
  5
191
  8
TEAM-NET
 10
-248.418543
 20
-211.27182
 30
849.992689
 70
    64
  0
VERTEX
  5
192
  8
TEAM-NET
 10
-247.836096
 20
-227.540145
 30
849.992689
 70
    64
  0
VERTEX
  5
193
  8
TEAM-NET
 10
-245.511553
 20
-243.659376
 30
849.992689
 70
    64
  0
VERTEX
  5
194
  8
TEAM-NET
 10
-241.903212
 20
-259.540336
 30
849.992689
 70
    64
  0
VERTEX
  5
195
  8
TEAM-NET
 10
-237.025205
 20
-275.078355
 30
849.992689
 70
    64
  0
VERTEX
  5
196
  8
TEAM-NET
 10
-230.909344
 20
-290.172104
 30
849.992689
 70
    64
  0
VERTEX
  5
197
  8
TEAM-NET
 10
-223.595513
 20
-304.723148
 30
849.992689
 70
    64
  0
VERTEX
  5
198
  8
TEAM-NET
 10
-215.13141
 20
-318.636594
 30
849.992689
 70
    64
  0
VERTEX
  5
199
  8
TEAM-NET
 10
-205.572232
 20
-331.821704
 30
849.992689
 70
    64
  0
VERTEX
  5
19A
  8
TEAM-NET
 10
-194.98032
 20
-344.192492
 30
849.992689
 70
    64
  0
VERTEX
  5
19B
  8
TEAM-NET
 10
-183.424749
 20
-355.668283
 30
849.992689
 70
    64
  0
VERTEX
  5
19C
  8
TEAM-NET
 10
-170.980877
 20
-366.174237
 30
849.992689
 70
    64
  0
VERTEX
  5
19D
  8
TEAM-NET
 10
-157.729858
 20
-375.641841
 30
849.992689
 70
    64
  0
VERTEX
  5
19E
  8
TEAM-NET
 10
-143.758109
 20
-384.00935
 30
849.992689
 70
    64
  0
VERTEX
  5
19F
  8
TEAM-NET
 10
-129.156744
 20
-391.222197
 30
849.992689
 70
    64
  0
VERTEX
  5
1A0
  8
TEAM-NET
 10
-114.020987
 20
-397.233343
 30
849.992689
 70
    64
  0
VERTEX
  5
1A1
  8
TEAM-NET
 10
-98.449546
 20
-402.003587
 30
849.992689
 70
    64
  0
VERTEX
  5
1A2
  8
TEAM-NET
 10
-82.543969
 20
-405.501819
 30
849.992689
 70
    64
  0
VERTEX
  5
1A3
  8
TEAM-NET
 10
-66.428381
 20
-407.869925
 30
849.992689
 70
    64
  0
VERTEX
  5
1A4
  8
TEAM-NET
 10
-50.239279
 20
-409.675467
 30
849.992689
 70
    64
  0
VERTEX
  5
1A5
  8
TEAM-NET
 10
-34.001041
 20
-410.966441
 30
849.992689
 70
    64
  0
VERTEX
  5
1A6
  8
TEAM-NET
 10
-17.730017
 20
-411.741545
 30
849.992689
 70
    64
  0
VERTEX
  5
1A7
  8
TEAM-NET
 10
-1.442592
 20
-412.0
 30
849.992689
 70
    64
  0
VERTEX
  5
1A8
  8
TEAM-NET
 10
-276.43446
 20
0.0
 30
849.992689
 70
    64
  0
VERTEX
  5
1A9
  8
TEAM-NET
 10
-276.350394
 20
-25.536518
 30
849.992689
 70
    64
  0
VERTEX
  5
1AA
  8
TEAM-NET
 10
-276.266329
 20
-51.073036
 30
849.992689
 70
    64
  0
VERTEX
  5
1AB
  8
TEAM-NET
 10
-276.182264
 20
-76.609554
 30
849.992689
 70
    64
  0
VERTEX
  5
1AC
  8
TEAM-NET
 10
-276.098199
 20
-102.146072
 30
849.992689
 70
    64
  0
VERTEX
  5
1AD
  8
TEAM-NET
 10
-276.014133
 20
-127.68259
 30
849.992689
 70
    64
  0
VERTEX
  5
1AE
  8
TEAM-NET
 10
-275.930068
 20
-153.219109
 30
849.992689
 70
    64
  0
VERTEX
  5
1AF
  8
TEAM-NET
 10
-275.846003
 20
-178.755627
 30
849.992689
 70
    64
  0
VERTEX
  5
1B0
  8
TEAM-NET
 10
-276.364423
 20
-204.278748
 30
849.992689
 70
    64
  0
VERTEX
  5
1B1
  8
TEAM-NET
 10
-275.240689
 20
-229.777445
 30
849.992689
 70
    64
  0
VERTEX
  5
1B2
  8
TEAM-NET
 10
-271.288412
 20
-254.993032
 30
849.992689
 70
    64
  0
VERTEX
  5
1B3
  8
TEAM-NET
 10
-264.55662
 20
-279.612725
 30
849.992689
 70
    64
  0
VERTEX
  5
1B4
  8
TEAM-NET
 10
-255.128815
 20
-303.331131
 30
849.992689
 70
    64
  0
VERTEX
  5
1B5
  8
TEAM-NET
 10
-243.121944
 20
-325.854038
 30
849.992689
 70
    64
  0
VERTEX
  5
1B6
  8
TEAM-NET
 10
-228.684944
 20
-346.902063
 30
849.992689
 70
    64
  0
VERTEX
  5
1B7
  8
TEAM-NET
 10
-211.996899
 20
-366.214118
 30
849.992689
 70
    64
  0
VERTEX
  5
1B8
  8
TEAM-NET
 10
-193.264814
 20
-383.550648
 30
849.992689
 70
    64
  0
VERTEX
  5
1B9
  8
TEAM-NET
 10
-172.721048
 20
-398.696605
 30
849.992689
 70
    64
  0
VERTEX
  5
1BA
  8
TEAM-NET
 10
-150.620435
 20
-411.46411
 30
849.992689
 70
    64
  0
VERTEX
  5
1BB
  8
TEAM-NET
 10
-127.237119
 20
-421.694792
 30
849.992689
 70
    64
  0
VERTEX
  5
1BC
  8
TEAM-NET
 10
-102.861157
 20
-429.261745
 30
849.992689
 70
    64
  0
VERTEX
  5
1BD
  8
TEAM-NET
 10
-77.796619
 20
-434.0831
 30
849.992689
 70
    64
  0
VERTEX
  5
1BE
  8
TEAM-NET
 10
-52.440028
 20
-437.090251
 30
849.992689
 70
    64
  0
VERTEX
  5
1BF
  8
TEAM-NET
 10
-26.969761
 20
-438.897227
 30
849.992689
 70
    64
  0
VERTEX
  5
1C0
  8
TEAM-NET
 10
-1.442592
 20
-439.5
 30
849.992689
 70
    64
  0
SEQEND
  5
1C1
  8
TEAM-NET
  0
POLYLINE
  5
1C2
  8
TEAM-BODY
 66
     1
 10
0.0
 20
0.0
 30
849.992689
  0
VERTEX
  5
365
  8
TEAM-BODY
 10
-1.442592
 20
0.0
 30
849.992689
  0
VERTEX
  5
366
  8
TEAM-BODY
 10
-276.43446
 20
0.0
 30
849.992689
  0
SEQEND
  5
367
  8
TEAM-BODY
  0
TEXT
  5
1C3
  8
TEAM-TXT
 10
-202.751114
 20
-41.887266
 30
849.992689
 40
22.916666
  1
team 211022
 41
0.8
 51
15.0
  7
TEAM
  0
POLYLINE
  5
1C6
  8
TEAM-BODY
 66
     1
 10
0.0
 20
0.0
 30
849.992689
  0
VERTEX
  5
368
  8
TEAM-BODY
 10
-1.442592
 20
-84.749355
 30
849.992689
 42
0.034675
  0
VERTEX
  5
369
  8
TEAM-BODY
 10
-153.463775
 20
-95.304744
 30
849.992689
 42
0.104957
  0
VERTEX
  5
36A
  8
TEAM-BODY
 10
-189.249535
 20
-108.278113
 30
849.992689
 42
0.183382
  0
VERTEX
  5
36B
  8
TEAM-BODY
 10
-243.283564
 20
-179.191092
 30
849.992689
 42
0.338541
  0
SEQEND
  5
36C
  8
TEAM-BODY
  0
POLYLINE
  5
1C7
  8
TEAM-NET
 66
     1
 10
0.0
 20
0.0
 30
0.0
 70
    16
 71
     2
 72
    25
  0
VERTEX
  5
1C8
  8
TEAM-NET
 10
-1.442592
 20
0.0
 30
849.992689
 70
    64
  0
VERTEX
  5
1C9
  8
TEAM-NET
 10
-12.900587
 20
0.0
 30
849.992689
 70
    64
  0
VERTEX
  5
1CA
  8
TEAM-NET
 10
-24.358581
 20
0.0
 30
849.992689
 70
    64
  0
VERTEX
  5
1CB
  8
TEAM-NET
 10
-35.816576
 20
0.0
 30
849.992689
 70
    64
  0
VERTEX
  5
1CC
  8
TEAM-NET
 10
-47.27457
 20
0.0
 30
849.992689
 70
    64
  0
VERTEX
  5
1CD
  8
TEAM-NET
 10
-58.732565
 20
0.0
 30
849.992689
 70
    64
  0
VERTEX
  5
1CE
  8
TEAM-NET
 10
-70.190559
 20
0.0
 30
849.992689
 70
    64
  0
VERTEX
  5
1CF
  8
TEAM-NET
 10
-81.648554
 20
0.0
 30
849.992689
 70
    64
  0
VERTEX
  5
1D0
  8
TEAM-NET
 10
-93.106548
 20
0.0
 30
849.992689
 70
    64
  0
VERTEX
  5
1D1
  8
TEAM-NET
 10
-104.564543
 20
0.0
 30
849.992689
 70
    64
  0
VERTEX
  5
1D2
  8
TEAM-NET
 10
-116.022537
 20
0.0
 30
849.992689
 70
    64
  0
VERTEX
  5
1D3
  8
TEAM-NET
 10
-127.480531
 20
0.0
 30
849.992689
 70
    64
  0
VERTEX
  5
1D4
  8
TEAM-NET
 10
-138.938526
 20
0.0
 30
849.992689
 70
    64
  0
VERTEX
  5
1D5
  8
TEAM-NET
 10
-150.39652
 20
0.0
 30
849.992689
 70
    64
  0
VERTEX
  5
1D6
  8
TEAM-NET
 10
-161.854515
 20
0.0
 30
849.992689
 70
    64
  0
VERTEX
  5
1D7
  8
TEAM-NET
 10
-173.312509
 20
0.0
 30
849.992689
 70
    64
  0
VERTEX
  5
1D8
  8
TEAM-NET
 10
-184.770504
 20
0.0
 30
849.992689
 70
    64
  0
VERTEX
  5
1D9
  8
TEAM-NET
 10
-196.228498
 20
0.0
 30
849.992689
 70
    64
  0
VERTEX
  5
1DA
  8
TEAM-NET
 10
-207.686493
 20
0.0
 30
849.992689
 70
    64
  0
VERTEX
  5
1DB
  8
TEAM-NET
 10
-219.144487
 20
0.0
 30
849.992689
 70
    64
  0
VERTEX
  5
1DC
  8
TEAM-NET
 10
-230.602482
 20
0.0
 30
849.992689
 70
    64
  0
VERTEX
  5
1DD
  8
TEAM-NET
 10
-242.060476
 20
0.0
 30
849.992689
 70
    64
  0
VERTEX
  5
1DE
  8
TEAM-NET
 10
-253.518471
 20
0.0
 30
849.992689
 70
    64
  0
VERTEX
  5
1DF
  8
TEAM-NET
 10
-264.976465
 20
0.0
 30
849.992689
 70
    64
  0
VERTEX
  5
1E0
  8
TEAM-NET
 10
-276.43446
 20
0.0
 30
849.992689
 70
    64
  0
VERTEX
  5
1E1
  8
TEAM-NET
 10
-1.442592
 20
-84.749355
 30
849.992689
 70
    64
  0
VERTEX
  5
1E2
  8
TEAM-NET
 10
-13.192033
 20
-84.812107
 30
849.992689
 70
    64
  0
VERTEX
  5
1E3
  8
TEAM-NET
 10
-24.940133
 20
-85.000354
 30
849.992689
 70
    64
  0
VERTEX
  5
1E4
  8
TEAM-NET
 10
-36.685553
 20
-85.314076
 30
849.992689
 70
    64
  0
VERTEX
  5
1E5
  8
TEAM-NET
 10
-48.426951
 20
-85.753236
 30
849.992689
 70
    64
  0
VERTEX
  5
1E6
  8
TEAM-NET
 10
-60.162989
 20
-86.317785
 30
849.992689
 70
    64
  0
VERTEX
  5
1E7
  8
TEAM-NET
 10
-71.892327
 20
-87.007657
 30
849.992689
 70
    64
  0
VERTEX
  5
1E8
  8
TEAM-NET
 10
-83.613627
 20
-87.822775
 30
849.992689
 70
    64
  0
VERTEX
  5
1E9
  8
TEAM-NET
 10
-95.325552
 20
-88.763046
 30
849.992689
 70
    64
  0
VERTEX
  5
1EA
  8
TEAM-NET
 10
-107.026766
 20
-89.828361
 30
849.992689
 70
    64
  0
VERTEX
  5
1EB
  8
TEAM-NET
 10
-118.715933
 20
-91.0186
 30
849.992689
 70
    64
  0
VERTEX
  5
1EC
  8
TEAM-NET
 10
-130.39172
 20
-92.333627
 30
849.992689
 70
    64
  0
VERTEX
  5
1ED
  8
TEAM-NET
 10
-142.052795
 20
-93.773292
 30
849.992689
 70
    64
  0
VERTEX
  5
1EE
  8
TEAM-NET
 10
-153.697788
 20
-95.337706
 30
849.992689
 70
    64
  0
VERTEX
  5
1EF
  8
TEAM-NET
 10
-165.192806
 20
-97.731501
 30
849.992689
 70
    64
  0
VERTEX
  5
1F0
  8
TEAM-NET
 10
-176.287531
 20
-101.575037
 30
849.992689
 70
    64
  0
VERTEX
  5
1F1
  8
TEAM-NET
 10
-186.79993
 20
-106.805253
 30
849.992689
 70
    64
  0
VERTEX
  5
1F2
  8
TEAM-NET
 10
-196.624562
 20
-113.241003
 30
849.992689
 70
    64
  0
VERTEX
  5
1F3
  8
TEAM-NET
 10
-205.79809
 20
-120.575877
 30
849.992689
 70
    64
  0
VERTEX
  5
1F4
  8
TEAM-NET
 10
-214.246511
 20
-128.735423
 30
849.992689
 70
    64
  0
VERTEX
  5
1F5
  8
TEAM-NET
 10
-221.895977
 20
-137.648317
 30
849.992689
 70
    64
  0
VERTEX
  5
1F6
  8
TEAM-NET
 10
-228.679624
 20
-147.236651
 30
849.992689
 70
    64
  0
VERTEX
  5
1F7
  8
TEAM-NET
 10
-234.538154
 20
-157.416613
 30
849.992689
 70
    64
  0
VERTEX
  5
1F8
  8
TEAM-NET
 10
-239.42036
 20
-168.099219
 30
849.992689
 70
    64
  0
VERTEX
  5
1F9
  8
TEAM-NET
 10
-243.283564
 20
-179.191092
 30
849.992689
 70
    64
  0
SEQEND
  5
1FA
  8
TEAM-NET
  0
POLYLINE
  5
1FB
  8
TEAM-BODY
 66
     1
 10
0.0
 20
0.0
 30
849.992689
  0
VERTEX
  5
36D
  8
TEAM-BODY
 10
240.39838
 20
-179.191092
 30
849.992689
 42
-0.103817
  0
VERTEX
  5
36E
  8
TEAM-BODY
 10
244.599933
 20
-230.632644
 30
849.992689
 42
-0.338541
  0
VERTEX
  5
36F
  8
TEAM-BODY
 10
73.944577
 20
-406.434218
 30
849.992689
 42
-0.036864
  0
VERTEX
  5
370
  8
TEAM-BODY
 10
-1.442592
 20
-412.0
 30
849.992689
 42
-0.036864
  0
SEQEND
  5
371
  8
TEAM-BODY
  0
POLYLINE
  5
1FC
  8
TEAM-NET
 66
     1
 10
0.0
 20
0.0
 30
0.0
 70
    16
 71
     2
 72
    25
  0
VERTEX
  5
1FD
  8
TEAM-NET
 10
240.39838
 20
-179.191092
 30
849.992689
 70
    64
  0
VERTEX
  5
1FE
  8
TEAM-NET
 10
244.007307
 20
-195.064759
 30
849.992689
 70
    64
  0
VERTEX
  5
1FF
  8
TEAM-NET
 10
245.533358
 20
-211.27182
 30
849.992689
 70
    64
  0
VERTEX
  5
200
  8
TEAM-NET
 10
244.950911
 20
-227.540145
 30
849.992689
 70
    64
  0
VERTEX
  5
201
  8
TEAM-NET
 10
242.626368
 20
-243.659376
 30
849.992689
 70
    64
  0
VERTEX
  5
202
  8
TEAM-NET
 10
239.018028
 20
-259.540336
 30
849.992689
 70
    64
  0
VERTEX
  5
203
  8
TEAM-NET
 10
234.140021
 20
-275.078355
 30
849.992689
 70
    64
  0
VERTEX
  5
204
  8
TEAM-NET
 10
228.02416
 20
-290.172104
 30
849.992689
 70
    64
  0
VERTEX
  5
205
  8
TEAM-NET
 10
220.710329
 20
-304.723148
 30
849.992689
 70
    64
  0
VERTEX
  5
206
  8
TEAM-NET
 10
212.246226
 20
-318.636594
 30
849.992689
 70
    64
  0
VERTEX
  5
207
  8
TEAM-NET
 10
202.687048
 20
-331.821704
 30
849.992689
 70
    64
  0
VERTEX
  5
208
  8
TEAM-NET
 10
192.095136
 20
-344.192492
 30
849.992689
 70
    64
  0
VERTEX
  5
209
  8
TEAM-NET
 10
180.539564
 20
-355.668283
 30
849.992689
 70
    64
  0
VERTEX
  5
20A
  8
TEAM-NET
 10
168.095693
 20
-366.174237
 30
849.992689
 70
    64
  0
VERTEX
  5
20B
  8
TEAM-NET
 10
154.844674
 20
-375.641841
 30
849.992689
 70
    64
  0
VERTEX
  5
20C
  8
TEAM-NET
 10
140.872924
 20
-384.00935
 30
849.992689
 70
    64
  0
VERTEX
  5
20D
  8
TEAM-NET
 10
126.27156
 20
-391.222197
 30
849.992689
 70
    64
  0
VERTEX
  5
20E
  8
TEAM-NET
 10
111.135803
 20
-397.233343
 30
849.992689
 70
    64
  0
VERTEX
  5
20F
  8
TEAM-NET
 10
95.564362
 20
-402.003587
 30
849.992689
 70
    64
  0
VERTEX
  5
210
  8
TEAM-NET
 10
79.658785
 20
-405.501819
 30
849.992689
 70
    64
  0
VERTEX
  5
211
  8
TEAM-NET
 10
63.543197
 20
-407.869925
 30
849.992689
 70
    64
  0
VERTEX
  5
212
  8
TEAM-NET
 10
47.354095
 20
-409.675467
 30
849.992689
 70
    64
  0
VERTEX
  5
213
  8
TEAM-NET
 10
31.115856
 20
-410.966441
 30
849.992689
 70
    64
  0
VERTEX
  5
214
  8
TEAM-NET
 10
14.844833
 20
-411.741545
 30
849.992689
 70
    64
  0
VERTEX
  5
215
  8
TEAM-NET
 10
-1.442592
 20
-412.0
 30
849.992689
 70
    64
  0
VERTEX
  5
216
  8
TEAM-NET
 10
273.549275
 20
0.0
 30
849.992689
 70
    64
  0
VERTEX
  5
217
  8
TEAM-NET
 10
273.46521
 20
-25.536518
 30
849.992689
 70
    64
  0
VERTEX
  5
218
  8
TEAM-NET
 10
273.381145
 20
-51.073036
 30
849.992689
 70
    64
  0
VERTEX
  5
219
  8
TEAM-NET
 10
273.297079
 20
-76.609554
 30
849.992689
 70
    64
  0
VERTEX
  5
21A
  8
TEAM-NET
 10
273.213014
 20
-102.146072
 30
849.992689
 70
    64
  0
VERTEX
  5
21B
  8
TEAM-NET
 10
273.128949
 20
-127.68259
 30
849.992689
 70
    64
  0
VERTEX
  5
21C
  8
TEAM-NET
 10
273.044884
 20
-153.219109
 30
849.992689
 70
    64
  0
VERTEX
  5
21D
  8
TEAM-NET
 10
272.960818
 20
-178.755627
 30
849.992689
 70
    64
  0
VERTEX
  5
21E
  8
TEAM-NET
 10
273.479239
 20
-204.278748
 30
849.992689
 70
    64
  0
VERTEX
  5
21F
  8
TEAM-NET
 10
272.355504
 20
-229.777445
 30
849.992689
 70
    64
  0
VERTEX
  5
220
  8
TEAM-NET
 10
268.403228
 20
-254.993032
 30
849.992689
 70
    64
  0
VERTEX
  5
221
  8
TEAM-NET
 10
261.671435
 20
-279.612725
 30
849.992689
 70
    64
  0
VERTEX
  5
222
  8
TEAM-NET
 10
252.24363
 20
-303.331131
 30
849.992689
 70
    64
  0
VERTEX
  5
223
  8
TEAM-NET
 10
240.236759
 20
-325.854038
 30
849.992689
 70
    64
  0
VERTEX
  5
224
  8
TEAM-NET
 10
225.79976
 20
-346.902063
 30
849.992689
 70
    64
  0
VERTEX
  5
225
  8
TEAM-NET
 10
209.111715
 20
-366.214118
 30
849.992689
 70
    64
  0
VERTEX
  5
226
  8
TEAM-NET
 10
190.379629
 20
-383.550648
 30
849.992689
 70
    64
  0
VERTEX
  5
227
  8
TEAM-NET
 10
169.835863
 20
-398.696605
 30
849.992689
 70
    64
  0
VERTEX
  5
228
  8
TEAM-NET
 10
147.73525
 20
-411.46411
 30
849.992689
 70
    64
  0
VERTEX
  5
229
  8
TEAM-NET
 10
124.351935
 20
-421.694792
 30
849.992689
 70
    64
  0
VERTEX
  5
22A
  8
TEAM-NET
 10
99.975972
 20
-429.261745
 30
849.992689
 70
    64
  0
VERTEX
  5
22B
  8
TEAM-NET
 10
74.911435
 20
-434.0831
 30
849.992689
 70
    64
  0
VERTEX
  5
22C
  8
TEAM-NET
 10
49.554844
 20
-437.090251
 30
849.992689
 70
    64
  0
VERTEX
  5
22D
  8
TEAM-NET
 10
24.084576
 20
-438.897227
 30
849.992689
 70
    64
  0
VERTEX
  5
22E
  8
TEAM-NET
 10
-1.442592
 20
-439.5
 30
849.992689
 70
    64
  0
SEQEND
  5
22F
  8
TEAM-NET
  0
POLYLINE
  5
230
  8
TEAM-BODY
 66
     1
 10
0.0
 20
0.0
 30
849.992689
  0
VERTEX
  5
372
  8
TEAM-BODY
 10
-1.442592
 20
0.0
 30
849.992689
  0
VERTEX
  5
373
  8
TEAM-BODY
 10
273.549275
 20
0.0
 30
849.992689
  0
SEQEND
  5
374
  8
TEAM-BODY
  0
POLYLINE
  5
231
  8
TEAM-BODY
 66
     1
 10
0.0
 20
0.0
 30
849.992689
  0
VERTEX
  5
375
  8
TEAM-BODY
 10
-1.442592
 20
-84.749355
 30
849.992689
 42
-0.034675
  0
VERTEX
  5
376
  8
TEAM-BODY
 10
150.578591
 20
-95.304744
 30
849.992689
 42
-0.104957
  0
VERTEX
  5
377
  8
TEAM-BODY
 10
186.364351
 20
-108.278113
 30
849.992689
 42
-0.183382
  0
VERTEX
  5
378
  8
TEAM-BODY
 10
240.39838
 20
-179.191092
 30
849.992689
 42
-0.338541
  0
SEQEND
  5
379
  8
TEAM-BODY
  0
POLYLINE
  5
232
  8
TEAM-NET
 66
     1
 10
0.0
 20
0.0
 30
0.0
 70
    16
 71
     2
 72
    25
  0
VERTEX
  5
233
  8
TEAM-NET
 10
240.39838
 20
-179.191092
 30
849.992689
 70
    64
  0
VERTEX
  5
234
  8
TEAM-NET
 10
236.535175
 20
-168.099219
 30
849.992689
 70
    64
  0
VERTEX
  5
235
  8
TEAM-NET
 10
231.65297
 20
-157.416613
 30
849.992689
 70
    64
  0
VERTEX
  5
236
  8
TEAM-NET
 10
225.794439
 20
-147.236651
 30
849.992689
 70
    64
  0
VERTEX
  5
237
  8
TEAM-NET
 10
219.010793
 20
-137.648317
 30
849.992689
 70
    64
  0
VERTEX
  5
238
  8
TEAM-NET
 10
211.361327
 20
-128.735423
 30
849.992689
 70
    64
  0
VERTEX
  5
239
  8
TEAM-NET
 10
202.912906
 20
-120.575877
 30
849.992689
 70
    64
  0
VERTEX
  5
23A
  8
TEAM-NET
 10
193.739378
 20
-113.241003
 30
849.992689
 70
    64
  0
VERTEX
  5
23B
  8
TEAM-NET
 10
183.914746
 20
-106.805253
 30
849.992689
 70
    64
  0
VERTEX
  5
23C
  8
TEAM-NET
 10
173.402347
 20
-101.575037
 30
849.992689
 70
    64
  0
VERTEX
  5
23D
  8
TEAM-NET
 10
162.307622
 20
-97.731501
 30
849.992689
 70
    64
  0
VERTEX
  5
23E
  8
TEAM-NET
 10
150.812603
 20
-95.337706
 30
849.992689
 70
    64
  0
VERTEX
  5
23F
  8
TEAM-NET
 10
139.16761
 20
-93.773292
 30
849.992689
 70
    64
  0
VERTEX
  5
240
  8
TEAM-NET
 10
127.506535
 20
-92.333627
 30
849.992689
 70
    64
  0
VERTEX
  5
241
  8
TEAM-NET
 10
115.830749
 20
-91.0186
 30
849.992689
 70
    64
  0
VERTEX
  5
242
  8
TEAM-NET
 10
104.141581
 20
-89.828361
 30
849.992689
 70
    64
  0
VERTEX
  5
243
  8
TEAM-NET
 10
92.440368
 20
-88.763046
 30
849.992689
 70
    64
  0
VERTEX
  5
244
  8
TEAM-NET
 10
80.728443
 20
-87.822775
 30
849.992689
 70
    64
  0
VERTEX
  5
245
  8
TEAM-NET
 10
69.007142
 20
-87.007657
 30
849.992689
 70
    64
  0
VERTEX
  5
246
  8
TEAM-NET
 10
57.277804
 20
-86.317785
 30
849.992689
 70
    64
  0
VERTEX
  5
247
  8
TEAM-NET
 10
45.541767
 20
-85.753236
 30
849.992689
 70
    64
  0
VERTEX
  5
248
  8
TEAM-NET
 10
33.800368
 20
-85.314076
 30
849.992689
 70
    64
  0
VERTEX
  5
249
  8
TEAM-NET
 10
22.054949
 20
-85.000354
 30
849.992689
 70
    64
  0
VERTEX
  5
24A
  8
TEAM-NET
 10
10.306849
 20
-84.812107
 30
849.992689
 70
    64
  0
VERTEX
  5
24B
  8
TEAM-NET
 10
-1.442592
 20
-84.749355
 30
849.992689
 70
    64
  0
VERTEX
  5
24C
  8
TEAM-NET
 10
273.549275
 20
0.0
 30
849.992689
 70
    64
  0
VERTEX
  5
24D
  8
TEAM-NET
 10
262.091281
 20
0.0
 30
849.992689
 70
    64
  0
VERTEX
  5
24E
  8
TEAM-NET
 10
250.633286
 20
0.0
 30
849.992689
 70
    64
  0
VERTEX
  5
24F
  8
TEAM-NET
 10
239.175292
 20
0.0
 30
849.992689
 70
    64
  0
VERTEX
  5
250
  8
TEAM-NET
 10
227.717297
 20
0.0
 30
849.992689
 70
    64
  0
VERTEX
  5
251
  8
TEAM-NET
 10
216.259303
 20
0.0
 30
849.992689
 70
    64
  0
VERTEX
  5
252
  8
TEAM-NET
 10
204.801308
 20
0.0
 30
849.992689
 70
    64
  0
VERTEX
  5
253
  8
TEAM-NET
 10
193.343314
 20
0.0
 30
849.992689
 70
    64
  0
VERTEX
  5
254
  8
TEAM-NET
 10
181.88532
 20
0.0
 30
849.992689
 70
    64
  0
VERTEX
  5
255
  8
TEAM-NET
 10
170.427325
 20
0.0
 30
849.992689
 70
    64
  0
VERTEX
  5
256
  8
TEAM-NET
 10
158.969331
 20
0.0
 30
849.992689
 70
    64
  0
VERTEX
  5
257
  8
TEAM-NET
 10
147.511336
 20
0.0
 30
849.992689
 70
    64
  0
VERTEX
  5
258
  8
TEAM-NET
 10
136.053342
 20
0.0
 30
849.992689
 70
    64
  0
VERTEX
  5
259
  8
TEAM-NET
 10
124.595347
 20
0.0
 30
849.992689
 70
    64
  0
VERTEX
  5
25A
  8
TEAM-NET
 10
113.137353
 20
0.0
 30
849.992689
 70
    64
  0
VERTEX
  5
25B
  8
TEAM-NET
 10
101.679358
 20
0.0
 30
849.992689
 70
    64
  0
VERTEX
  5
25C
  8
TEAM-NET
 10
90.221364
 20
0.0
 30
849.992689
 70
    64
  0
VERTEX
  5
25D
  8
TEAM-NET
 10
78.763369
 20
0.0
 30
849.992689
 70
    64
  0
VERTEX
  5
25E
  8
TEAM-NET
 10
67.305375
 20
0.0
 30
849.992689
 70
    64
  0
VERTEX
  5
25F
  8
TEAM-NET
 10
55.84738
 20
0.0
 30
849.992689
 70
    64
  0
VERTEX
  5
260
  8
TEAM-NET
 10
44.389386
 20
0.0
 30
849.992689
 70
    64
  0
VERTEX
  5
261
  8
TEAM-NET
 10
32.931391
 20
0.0
 30
849.992689
 70
    64
  0
VERTEX
  5
262
  8
TEAM-NET
 10
21.473397
 20
0.0
 30
849.992689
 70
    64
  0
VERTEX
  5
263
  8
TEAM-NET
 10
10.015402
 20
0.0
 30
849.992689
 70
    64
  0
VERTEX
  5
264
  8
TEAM-NET
 10
-1.442592
 20
0.0
 30
849.992689
 70
    64
  0
SEQEND
  5
265
  8
TEAM-NET
  0
ENDSEC
  0
EOF
