  0
SECTION
  2
HEADER
  9
$ACADVER
  1
AC1009
  9
$INSBASE
 10
0.0
 20
0.0
 30
0.0
  9
$EXTMIN
 10
-351.253473
 20
-515.314819
 30
-0.024905
  9
$EXTMAX
 10
351.265402
 20
10.02294
 30
850.056981
  9
$LIMMIN
 10
-351.253473
 20
-515.314819
  9
$LIMMAX
 10
351.265402
 20
10.02294
  9
$ORTHOMODE
 70
     1
  9
$REGENMODE
 70
     1
  9
$FILLMODE
 70
     1
  9
$QTEXTMODE
 70
     0
  9
$MIRRTEXT
 70
     0
  9
$DRAGMODE
 70
     2
  9
$LTSCALE
 40
25.0
  9
$OSMODE
 70
     0
  9
$ATTMODE
 70
     1
  9
$TEXTSIZE
 40
200.0
  9
$TRACEWID
 40
1.0
  9
$TEXTSTYLE
  7
STANDARD
  9
$CLAYER
  8
TEAM-MAS
  9
$CELTYPE
  6
BYLAYER
  9
$CECOLOR
 62
   256
  9
$DIMSCALE
 40
0.0
  9
$DIMASZ
 40
20.0
  9
$DIMEXO
 40
10.0
  9
$DIMDLI
 40
1.0
  9
$DIMRND
 40
0.0
  9
$DIMDLE
 40
0.0
  9
$DIMEXE
 40
1.0
  9
$DIMTP
 40
0.0
  9
$DIMTM
 40
0.0
  9
$DIMTXT
 40
35.0
  9
$DIMCEN
 40
1.0
  9
$DIMTSZ
 40
0.0
  9
$DIMTOL
 70
     0
  9
$DIMLIM
 70
     0
  9
$DIMTIH
 70
     0
  9
$DIMTOH
 70
     0
  9
$DIMSE1
 70
     0
  9
$DIMSE2
 70
     0
  9
$DIMTAD
 70
     0
  9
$DIMZIN
 70
     0
  9
$DIMBLK
  1

  9
$DIMASO
 70
     1
  9
$DIMSHO
 70
     0
  9
$DIMPOST
  1

  9
$DIMAPOST
  1

  9
$DIMALT
 70
     0
  9
$DIMALTD
 70
     2
  9
$DIMALTF
 40
25.4
  9
$DIMLFAC
 40
1.0
  9
$DIMTOFL
 70
     0
  9
$DIMTVP
 40
0.0
  9
$DIMTIX
 70
     0
  9
$DIMSOXD
 70
     0
  9
$DIMSAH
 70
     0
  9
$DIMBLK1
  1

  9
$DIMBLK2
  1

  9
$DIMSTYLE
  2
TEAM
  9
$DIMCLRD
 70
     9
  9
$DIMCLRE
 70
     9
  9
$DIMCLRT
 70
    11
  9
$DIMTFAC
 40
1.0
  9
$DIMGAP
 40
15.0
  9
$LUNITS
 70
     2
  9
$LUPREC
 70
     1
  9
$SKETCHINC
 40
1.0
  9
$FILLETRAD
 40
50.0
  9
$AUNITS
 70
     0
  9
$AUPREC
 70
     0
  9
$MENU
  1
ROPLANS
  9
$ELEVATION
 40
0.0
  9
$PELEVATION
 40
0.0
  9
$THICKNESS
 40
0.0
  9
$LIMCHECK
 70
     0
  9
$BLIPMODE
 70
     1
  9
$CHAMFERA
 40
0.0
  9
$CHAMFERB
 40
0.0
  9
$SKPOLY
 70
     0
  9
$TDCREATE
 40
2450392.957851
  9
$TDUPDATE
 40
2455498.624065
  9
$TDINDWG
 40
1.987034
  9
$TDUSRTIMER
 40
1.987034
  9
$USRTIMER
 70
     1
  9
$ANGBASE
 50
0.0
  9
$ANGDIR
 70
     0
  9
$PDMODE
 70
     0
  9
$PDSIZE
 40
0.0
  9
$PLINEWID
 40
0.0
  9
$COORDS
 70
     2
  9
$SPLFRAME
 70
     0
  9
$SPLINETYPE
 70
     6
  9
$SPLINESEGS
 70
     8
  9
$ATTDIA
 70
     0
  9
$ATTREQ
 70
     0
  9
$HANDLING
 70
     1
  9
$HANDSEED
  5
2F3
  9
$SURFTAB1
 70
    24
  9
$SURFTAB2
 70
    24
  9
$SURFTYPE
 70
     6
  9
$SURFU
 70
     6
  9
$SURFV
 70
     6
  9
$UCSNAME
  2

  9
$UCSORG
 10
0.0
 20
0.0
 30
0.0
  9
$UCSXDIR
 10
1.0
 20
0.0
 30
0.0
  9
$UCSYDIR
 10
0.0
 20
1.0
 30
0.0
  9
$PUCSNAME
  2

  9
$PUCSORG
 10
0.0
 20
0.0
 30
0.0
  9
$PUCSXDIR
 10
1.0
 20
0.0
 30
0.0
  9
$PUCSYDIR
 10
0.0
 20
1.0
 30
0.0
  9
$USERI1
 70
     0
  9
$USERI2
 70
     0
  9
$USERI3
 70
     0
  9
$USERI4
 70
     0
  9
$USERI5
 70
     0
  9
$USERR1
 40
0.0
  9
$USERR2
 40
0.0
  9
$USERR3
 40
0.0
  9
$USERR4
 40
0.0
  9
$USERR5
 40
0.0
  9
$WORLDVIEW
 70
     1
  9
$SHADEDGE
 70
     0
  9
$SHADEDIF
 70
    70
  9
$TILEMODE
 70
     1
  9
$MAXACTVP
 70
    16
  9
$PLIMCHECK
 70
     0
  9
$PEXTMIN
 10
-0.805942
 20
0.005011
 30
0.0
  9
$PEXTMAX
 10
20.250094
 20
11.356329
 30
0.0
  9
$PLIMMIN
 10
0.0
 20
0.0
  9
$PLIMMAX
 10
12.0
 20
9.0
  9
$UNITMODE
 70
     0
  9
$VISRETAIN
 70
     0
  9
$PLINEGEN
 70
     0
  9
$PSLTSCALE
 70
     0
  0
ENDSEC
  0
SECTION
  2
TABLES
  0
TABLE
  2
VPORT
 70
     2
  0
VPORT
  2
*ACTIVE
 70
     0
 10
0.0
 20
0.0
 11
1.0
 21
1.0
 12
0.005965
 22
-252.64594
 13
0.0
 23
0.0
 14
1.0
 24
1.0
 15
50.0
 25
50.0
 16
0.0
 26
0.0
 36
1.0
 17
0.0
 27
0.0
 37
0.0
 40
528.563989
 41
1.865779
 42
50.0
 43
0.0
 44
0.0
 50
0.0
 51
0.0
 71
     0
 72
   100
 73
     1
 74
     1
 75
     0
 76
     0
 77
     0
 78
     0
  0
ENDTAB
  0
TABLE
  2
LTYPE
 70
     1
  0
LTYPE
  2
CONTINUOUS
 70
     0
  3
Solid Line
 72
    65
 73
     0
 40
0.0
  0
ENDTAB
  0
TABLE
  2
LAYER
 70
     7
  0
LAYER
  2
0
 70
     0
 62
     7
  6
CONTINUOUS
  0
LAYER
  2
TEAM-BODY
 70
     0
 62
     2
  6
CONTINUOUS
  0
LAYER
  2
TEAM-MAS
 70
     0
 62
     9
  6
CONTINUOUS
  0
LAYER
  2
TEAM-TXT
 70
     0
 62
    11
  6
CONTINUOUS
  0
LAYER
  2
TEAM-KAN
 70
     0
 62
     6
  6
CONTINUOUS
  0
LAYER
  2
TEAM-NET
 70
     0
 62
    15
  6
CONTINUOUS
  0
LAYER
  2
TEAM-INSP
 70
     0
 62
     5
  6
CONTINUOUS
  0
ENDTAB
  0
TABLE
  2
STYLE
 70
     2
  0
STYLE
  2
STANDARD
 70
     0
 40
0.0
 41
1.0
 50
0.0
 71
     0
 42
200.0
  3
txt
  4

  0
STYLE
  2
TEAM
 70
     0
 40
0.0
 41
0.8
 50
15.0
 71
     0
 42
7.0
  3
ROMANS.shx
  4

  0
ENDTAB
  0
TABLE
  2
VIEW
 70
     0
  0
ENDTAB
  0
TABLE
  2
UCS
 70
     0
  0
ENDTAB
  0
TABLE
  2
APPID
 70
     1
  0
APPID
  2
ACAD
 70
     0
  0
ENDTAB
  0
TABLE
  2
DIMSTYLE
 70
     1
  0
DIMSTYLE
  2
TEAM
 70
     0
  3

  4

  5

  6

  7

 40
0.0
 41
20.0
 42
10.0
 43
1.0
 44
1.0
 45
0.0
 46
0.0
 47
0.0
 48
0.0
140
35.0
141
1.0
142
0.0
143
25.4
144
1.0
145
0.0
146
1.0
147
15.0
 71
     0
 72
     0
 73
     0
 74
     0
 75
     0
 76
     0
 77
     0
 78
     0
170
     0
171
     2
172
     0
173
     0
174
     0
175
     0
176
     9
177
     9
178
    11
  0
ENDTAB
  0
ENDSEC
  0
SECTION
  2
BLOCKS
  0
BLOCK
  8
0
  2
$MODEL_SPACE
 70
     0
 10
0.0
 20
0.0
 30
0.0
  3
$MODEL_SPACE
  1

  0
ENDBLK
  5
2C8
  8
0
  0
BLOCK
 67
     1
  8
0
  2
$PAPER_SPACE
 70
     0
 10
0.0
 20
0.0
 30
0.0
  3
$PAPER_SPACE
  1

  0
ENDBLK
  5
2C6
 67
     1
  8
0
  0
ENDSEC
  0
SECTION
  2
ENTITIES
  0
CIRCLE
  5
20
  8
TEAM-INSP
 10
0.0
 20
0.0
 30
0.0
 40
10.0
  0
ARC
  5
22
  8
TEAM-BODY
 10
1.573737
 20
972.626157
 30
0.0
 40
322.629995
210
0.0
220
-1.0
230
0.0
 50
269.720519
 51
337.66118
  0
ARC
  5
24
  8
TEAM-BODY
 10
-1.573737
 20
972.626157
 30
0.0
 40
322.629995
210
0.0
220
-1.0
230
0.0
 50
202.33882
 51
270.279481
  0
POLYLINE
  5
25
  8
TEAM-NET
 66
     1
 10
0.0
 20
0.0
 30
0.0
 70
    16
 71
     2
 72
    17
  0
VERTEX
  5
26
  8
TEAM-NET
 10
0.0
 20
0.0
 30
850.0
 70
    64
  0
VERTEX
  5
27
  8
TEAM-NET
 10
17.649446
 20
0.0
 30
850.0
 70
    64
  0
VERTEX
  5
28
  8
TEAM-NET
 10
35.298891
 20
0.0
 30
850.0
 70
    64
  0
VERTEX
  5
29
  8
TEAM-NET
 10
52.948337
 20
0.0
 30
850.0
 70
    64
  0
VERTEX
  5
2A
  8
TEAM-NET
 10
70.597782
 20
0.0
 30
850.0
 70
    64
  0
VERTEX
  5
2B
  8
TEAM-NET
 10
88.247228
 20
0.0
 30
850.0
 70
    64
  0
VERTEX
  5
2C
  8
TEAM-NET
 10
105.896673
 20
0.0
 30
850.0
 70
    64
  0
VERTEX
  5
2D
  8
TEAM-NET
 10
123.546119
 20
0.0
 30
850.0
 70
    64
  0
VERTEX
  5
2E
  8
TEAM-NET
 10
141.195564
 20
0.0
 30
850.0
 70
    64
  0
VERTEX
  5
2F
  8
TEAM-NET
 10
158.84501
 20
0.0
 30
850.0
 70
    64
  0
VERTEX
  5
30
  8
TEAM-NET
 10
176.494455
 20
0.0
 30
850.0
 70
    64
  0
VERTEX
  5
31
  8
TEAM-NET
 10
194.143901
 20
0.0
 30
850.0
 70
    64
  0
VERTEX
  5
32
  8
TEAM-NET
 10
211.793346
 20
0.0
 30
850.0
 70
    64
  0
VERTEX
  5
33
  8
TEAM-NET
 10
229.442792
 20
0.0
 30
850.0
 70
    64
  0
VERTEX
  5
34
  8
TEAM-NET
 10
247.092237
 20
0.0
 30
850.0
 70
    64
  0
VERTEX
  5
35
  8
TEAM-NET
 10
282.341683
 20
0.0
 30
850.0
 70
    64
  0
VERTEX
  5
36
  8
TEAM-NET
 10
299.991128
 20
0.0
 30
850.0
 70
    64
  0
VERTEX
  5
37
  8
TEAM-NET
 10
0.0
 20
0.0
 30
650.0
 70
    64
  0
VERTEX
  5
38
  8
TEAM-NET
 10
23.036792
 20
0.0
 30
650.887691
 70
    64
  0
VERTEX
  5
39
  8
TEAM-NET
 10
45.936962
 20
0.0
 30
653.5455
 70
    64
  0
VERTEX
  5
3A
  8
TEAM-NET
 10
68.564701
 20
0.0
 30
657.957664
 70
    64
  0
VERTEX
  5
3B
  8
TEAM-NET
 10
90.785813
 20
0.0
 30
664.098018
 70
    64
  0
VERTEX
  5
3C
  8
TEAM-NET
 10
112.468515
 20
0.0
 30
671.930144
 70
    64
  0
VERTEX
  5
3D
  8
TEAM-NET
 10
133.484216
 20
0.0
 30
681.407595
 70
    64
  0
VERTEX
  5
3E
  8
TEAM-NET
 10
153.708281
 20
0.0
 30
692.474164
 70
    64
  0
VERTEX
  5
3F
  8
TEAM-NET
 10
173.020771
 20
0.0
 30
705.064219
 70
    64
  0
VERTEX
  5
40
  8
TEAM-NET
 10
191.307152
 20
0.0
 30
719.103095
 70
    64
  0
VERTEX
  5
41
  8
TEAM-NET
 10
208.458975
 20
0.0
 30
734.507534
 70
    64
  0
VERTEX
  5
42
  8
TEAM-NET
 10
224.37452
 20
0.0
 30
751.186179
 70
    64
  0
VERTEX
  5
43
  8
TEAM-NET
 10
238.9594
 20
0.0
 30
769.040115
 70
    64
  0
VERTEX
  5
44
  8
TEAM-NET
 10
252.127117
 20
0.0
 30
787.96346
 70
    64
  0
VERTEX
  5
45
  8
TEAM-NET
 10
281.399581
 20
0.0
 30
807.843987
 70
    64
  0
VERTEX
  5
46
  8
TEAM-NET
 10
291.507567
 20
0.0
 30
828.563794
 70
    64
  0
VERTEX
  5
47
  8
TEAM-NET
 10
299.991128
 20
0.0
 30
850.0
 70
    64
  0
SEQEND
  5
49
  8
TEAM-NET
  0
POLYLINE
  5
4A
  8
TEAM-NET
 66
     1
 10
0.0
 20
0.0
 30
0.0
 70
    16
 71
     2
 72
    17
  0
VERTEX
  5
4B
  8
TEAM-NET
 10
0.0
 20
0.0
 30
850.0
 70
    64
  0
VERTEX
  5
4C
  8
TEAM-NET
 10
-17.649446
 20
0.0
 30
850.0
 70
    64
  0
VERTEX
  5
4D
  8
TEAM-NET
 10
-35.298891
 20
0.0
 30
850.0
 70
    64
  0
VERTEX
  5
4E
  8
TEAM-NET
 10
-52.948337
 20
0.0
 30
850.0
 70
    64
  0
VERTEX
  5
4F
  8
TEAM-NET
 10
-70.597782
 20
0.0
 30
850.0
 70
    64
  0
VERTEX
  5
50
  8
TEAM-NET
 10
-88.247228
 20
0.0
 30
850.0
 70
    64
  0
VERTEX
  5
51
  8
TEAM-NET
 10
-105.896673
 20
0.0
 30
850.0
 70
    64
  0
VERTEX
  5
52
  8
TEAM-NET
 10
-123.546119
 20
0.0
 30
850.0
 70
    64
  0
VERTEX
  5
53
  8
TEAM-NET
 10
-141.195564
 20
0.0
 30
850.0
 70
    64
  0
VERTEX
  5
54
  8
TEAM-NET
 10
-158.84501
 20
0.0
 30
850.0
 70
    64
  0
VERTEX
  5
55
  8
TEAM-NET
 10
-176.494455
 20
0.0
 30
850.0
 70
    64
  0
VERTEX
  5
56
  8
TEAM-NET
 10
-194.143901
 20
0.0
 30
850.0
 70
    64
  0
VERTEX
  5
57
  8
TEAM-NET
 10
-211.793346
 20
0.0
 30
850.0
 70
    64
  0
VERTEX
  5
58
  8
TEAM-NET
 10
-229.442792
 20
0.0
 30
850.0
 70
    64
  0
VERTEX
  5
59
  8
TEAM-NET
 10
-264.692237
 20
0.0
 30
850.0
 70
    64
  0
VERTEX
  5
5A
  8
TEAM-NET
 10
-282.341683
 20
0.0
 30
850.0
 70
    64
  0
VERTEX
  5
5B
  8
TEAM-NET
 10
-299.991128
 20
0.0
 30
850.0
 70
    64
  0
VERTEX
  5
5C
  8
TEAM-NET
 10
0.0
 20
0.0
 30
650.0
 70
    64
  0
VERTEX
  5
5D
  8
TEAM-NET
 10
-23.036792
 20
0.0
 30
650.887691
 70
    64
  0
VERTEX
  5
5E
  8
TEAM-NET
 10
-45.936962
 20
0.0
 30
653.5455
 70
    64
  0
VERTEX
  5
5F
  8
TEAM-NET
 10
-68.564701
 20
0.0
 30
657.957664
 70
    64
  0
VERTEX
  5
60
  8
TEAM-NET
 10
-90.785813
 20
0.0
 30
664.098018
 70
    64
  0
VERTEX
  5
61
  8
TEAM-NET
 10
-112.468515
 20
0.0
 30
671.930144
 70
    64
  0
VERTEX
  5
62
  8
TEAM-NET
 10
-133.484216
 20
0.0
 30
681.407595
 70
    64
  0
VERTEX
  5
63
  8
TEAM-NET
 10
-153.708281
 20
0.0
 30
692.474164
 70
    64
  0
VERTEX
  5
64
  8
TEAM-NET
 10
-173.020771
 20
0.0
 30
705.064219
 70
    64
  0
VERTEX
  5
65
  8
TEAM-NET
 10
-191.307152
 20
0.0
 30
719.103095
 70
    64
  0
VERTEX
  5
66
  8
TEAM-NET
 10
-208.458975
 20
0.0
 30
734.507534
 70
    64
  0
VERTEX
  5
67
  8
TEAM-NET
 10
-224.37452
 20
0.0
 30
751.186179
 70
    64
  0
VERTEX
  5
68
  8
TEAM-NET
 10
-238.9594
 20
0.0
 30
769.040115
 70
    64
  0
VERTEX
  5
69
  8
TEAM-NET
 10
-269.727117
 20
0.0
 30
787.96346
 70
    64
  0
VERTEX
  5
6A
  8
TEAM-NET
 10
-281.399581
 20
0.0
 30
807.843987
 70
    64
  0
VERTEX
  5
6B
  8
TEAM-NET
 10
-291.507567
 20
0.0
 30
828.563794
 70
    64
  0
VERTEX
  5
6C
  8
TEAM-NET
 10
-299.991128
 20
0.0
 30
850.0
 70
    64
  0
SEQEND
  5
6D
  8
TEAM-NET
  0
POLYLINE
  5
6E
  8
TEAM-NET
 66
     1
 10
0.0
 20
0.0
 30
0.0
 70
    16
 71
     2
 72
    17
  0
VERTEX
  5
6F
  8
TEAM-NET
 10
0.0
 20
-480.0
 30
850.0
 70
    64
  0
VERTEX
  5
70
  8
TEAM-NET
 10
-43.693659
 20
-478.379864
 30
850.0
 70
    64
  0
VERTEX
  5
71
  8
TEAM-NET
 10
-87.147309
 20
-473.528061
 30
850.0
 70
    64
  0
VERTEX
  5
72
  8
TEAM-NET
 10
-129.6055
 20
-463.277906
 30
850.0
 70
    64
  0
VERTEX
  5
73
  8
TEAM-NET
 10
-169.631712
 20
-445.794601
 30
850.0
 70
    64
  0
VERTEX
  5
74
  8
TEAM-NET
 10
-206.004177
 20
-421.611809
 30
850.0
 70
    64
  0
VERTEX
  5
75
  8
TEAM-NET
 10
-237.612654
 20
-391.467691
 30
850.0
 70
    64
  0
VERTEX
  5
76
  8
TEAM-NET
 10
-263.492318
 20
-356.282372
 30
850.0
 70
    64
  0
VERTEX
  5
77
  8
TEAM-NET
 10
-282.853213
 20
-317.129858
 30
850.0
 70
    64
  0
VERTEX
  5
78
  8
TEAM-NET
 10
-295.104363
 20
-275.205247
 30
850.0
 70
    64
  0
VERTEX
  5
79
  8
TEAM-NET
 10
-299.87181
 20
-231.788256
 30
850.0
 70
    64
  0
VERTEX
  5
7A
  8
TEAM-NET
 10
-297.85187
 20
-188.121232
 30
850.0
 70
    64
  0
VERTEX
  5
7B
  8
TEAM-NET
 10
-294.759721
 20
-144.496985
 30
850.0
 70
    64
  0
VERTEX
  5
7C
  8
TEAM-NET
 10
-291.667573
 20
-100.872739
 30
850.0
 70
    64
  0
VERTEX
  5
7D
  8
TEAM-NET
 10
-288.575425
 20
-67.248493
 30
850.0
 70
    64
  0
VERTEX
  5
7E
  8
TEAM-NET
 10
-285.483276
 20
-38.624246
 30
850.0
 70
    64
  0
VERTEX
  5
7F
  8
TEAM-NET
 10
-299.991128
 20
0.0
 30
850.0
 70
    64
  0
VERTEX
  5
80
  8
TEAM-NET
 10
0.0
 20
0.0
 30
650.0
 70
    64
  0
VERTEX
  5
81
  8
TEAM-NET
 10
-23.036792
 20
0.0
 30
650.887691
 70
    64
  0
VERTEX
  5
82
  8
TEAM-NET
 10
-45.936962
 20
0.0
 30
653.5455
 70
    64
  0
VERTEX
  5
83
  8
TEAM-NET
 10
-68.564701
 20
0.0
 30
657.957664
 70
    64
  0
VERTEX
  5
84
  8
TEAM-NET
 10
-90.785813
 20
0.0
 30
664.098018
 70
    64
  0
VERTEX
  5
85
  8
TEAM-NET
 10
-112.468515
 20
0.0
 30
671.930144
 70
    64
  0
VERTEX
  5
86
  8
TEAM-NET
 10
-133.484216
 20
0.0
 30
681.407595
 70
    64
  0
VERTEX
  5
87
  8
TEAM-NET
 10
-153.708281
 20
0.0
 30
692.474164
 70
    64
  0
VERTEX
  5
88
  8
TEAM-NET
 10
-173.020771
 20
0.0
 30
705.064219
 70
    64
  0
VERTEX
  5
89
  8
TEAM-NET
 10
-191.307152
 20
0.0
 30
719.103095
 70
    64
  0
VERTEX
  5
8A
  8
TEAM-NET
 10
-208.458975
 20
0.0
 30
734.507534
 70
    64
  0
VERTEX
  5
8B
  8
TEAM-NET
 10
-224.37452
 20
0.0
 30
751.186179
 70
    64
  0
VERTEX
  5
8C
  8
TEAM-NET
 10
-238.9594
 20
0.0
 30
769.040115
 70
    64
  0
VERTEX
  5
8D
  8
TEAM-NET
 10
-269.727117
 20
0.0
 30
787.96346
 70
    64
  0
VERTEX
  5
8E
  8
TEAM-NET
 10
-281.399581
 20
0.0
 30
807.843987
 70
    64
  0
VERTEX
  5
8F
  8
TEAM-NET
 10
-291.507567
 20
0.0
 30
828.563794
 70
    64
  0
VERTEX
  5
90
  8
TEAM-NET
 10
-299.991128
 20
0.0
 30
850.0
 70
    64
  0
SEQEND
  5
91
  8
TEAM-NET
  0
POLYLINE
  5
92
  8
TEAM-NET
 66
     1
 10
0.0
 20
0.0
 30
0.0
 70
    16
 71
     2
 72
    17
  0
VERTEX
  5
93
  8
TEAM-NET
 10
0.0
 20
-480.0
 30
850.0
 70
    64
  0
VERTEX
  5
94
  8
TEAM-NET
 10
43.693659
 20
-478.379864
 30
850.0
 70
    64
  0
VERTEX
  5
95
  8
TEAM-NET
 10
87.147309
 20
-473.528061
 30
850.0
 70
    64
  0
VERTEX
  5
96
  8
TEAM-NET
 10
129.6055
 20
-463.277906
 30
850.0
 70
    64
  0
VERTEX
  5
97
  8
TEAM-NET
 10
169.631712
 20
-445.794601
 30
850.0
 70
    64
  0
VERTEX
  5
98
  8
TEAM-NET
 10
206.004177
 20
-421.611809
 30
850.0
 70
    64
  0
VERTEX
  5
99
  8
TEAM-NET
 10
237.612654
 20
-391.467691
 30
850.0
 70
    64
  0
VERTEX
  5
9A
  8
TEAM-NET
 10
263.492318
 20
-356.282372
 30
850.0
 70
    64
  0
VERTEX
  5
9B
  8
TEAM-NET
 10
282.853213
 20
-317.129858
 30
850.0
 70
    64
  0
VERTEX
  5
9C
  8
TEAM-NET
 10
295.104363
 20
-275.205247
 30
850.0
 70
    64
  0
VERTEX
  5
9D
  8
TEAM-NET
 10
299.87181
 20
-231.788256
 30
850.0
 70
    64
  0
VERTEX
  5
9E
  8
TEAM-NET
 10
297.85187
 20
-188.121232
 30
850.0
 70
    64
  0
VERTEX
  5
9F
  8
TEAM-NET
 10
294.759721
 20
-144.496985
 30
850.0
 70
    64
  0
VERTEX
  5
A0
  8
TEAM-NET
 10
291.667573
 20
-100.872739
 30
850.0
 70
    64
  0
VERTEX
  5
A1
  8
TEAM-NET
 10
288.575425
 20
-67.248493
 30
850.0
 70
    64
  0
VERTEX
  5
A2
  8
TEAM-NET
 10
285.483276
 20
-38.624246
 30
850.0
 70
    64
  0
VERTEX
  5
A3
  8
TEAM-NET
 10
299.991128
 20
0.0
 30
850.0
 70
    64
  0
VERTEX
  5
A4
  8
TEAM-NET
 10
0.0
 20
0.0
 30
650.0
 70
    64
  0
VERTEX
  5
A5
  8
TEAM-NET
 10
23.036792
 20
0.0
 30
650.887691
 70
    64
  0
VERTEX
  5
A6
  8
TEAM-NET
 10
45.936962
 20
0.0
 30
653.5455
 70
    64
  0
VERTEX
  5
A7
  8
TEAM-NET
 10
68.564701
 20
0.0
 30
657.957664
 70
    64
  0
VERTEX
  5
A8
  8
TEAM-NET
 10
90.785813
 20
0.0
 30
664.098018
 70
    64
  0
VERTEX
  5
A9
  8
TEAM-NET
 10
112.468515
 20
0.0
 30
671.930144
 70
    64
  0
VERTEX
  5
AA
  8
TEAM-NET
 10
133.484216
 20
0.0
 30
681.407595
 70
    64
  0
VERTEX
  5
AB
  8
TEAM-NET
 10
153.708281
 20
0.0
 30
692.474164
 70
    64
  0
VERTEX
  5
AC
  8
TEAM-NET
 10
173.020771
 20
0.0
 30
705.064219
 70
    64
  0
VERTEX
  5
AD
  8
TEAM-NET
 10
191.307152
 20
0.0
 30
719.103095
 70
    64
  0
VERTEX
  5
AE
  8
TEAM-NET
 10
208.458975
 20
0.0
 30
734.507534
 70
    64
  0
VERTEX
  5
AF
  8
TEAM-NET
 10
224.37452
 20
0.0
 30
751.186179
 70
    64
  0
VERTEX
  5
B0
  8
TEAM-NET
 10
238.9594
 20
0.0
 30
769.040115
 70
    64
  0
VERTEX
  5
B1
  8
TEAM-NET
 10
252.127117
 20
0.0
 30
787.96346
 70
    64
  0
VERTEX
  5
B2
  8
TEAM-NET
 10
281.399581
 20
0.0
 30
807.843987
 70
    64
  0
VERTEX
  5
B3
  8
TEAM-NET
 10
291.507567
 20
0.0
 30
828.563794
 70
    64
  0
VERTEX
  5
B4
  8
TEAM-NET
 10
299.991128
 20
0.0
 30
850.0
 70
    64
  0
SEQEND
  5
B5
  8
TEAM-NET
  0
CIRCLE
  5
B6
  8
TEAM-KAN
 10
0.0
 20
-174.166662
 30
650.0
 40
40.0
  0
CIRCLE
  5
B8
  8
TEAM-KAN
 10
0.0
 20
-174.166662
 30
650.0
 40
30.0
  0
POLYLINE
  5
B9
  8
TEAM-NET
 66
     1
 10
0.0
 20
0.0
 30
0.0
 70
    16
 71
     2
 72
    17
  0
VERTEX
  5
BA
  8
TEAM-NET
 10
0.0
 20
-92.999296
 30
850.0
 70
    64
  0
VERTEX
  5
BB
  8
TEAM-NET
 10
-19.225901
 20
-93.153321
 30
850.0
 70
    64
  0
VERTEX
  5
BC
  8
TEAM-NET
 10
-38.446866
 20
-93.615355
 30
850.0
 70
    64
  0
VERTEX
  5
BD
  8
TEAM-NET
 10
-57.657962
 20
-94.38528
 30
850.0
 70
    64
  0
VERTEX
  5
BE
  8
TEAM-NET
 10
-76.854256
 20
-95.462899
 30
850.0
 70
    64
  0
VERTEX
  5
BF
  8
TEAM-NET
 10
-96.030821
 20
-96.847934
 30
850.0
 70
    64
  0
VERTEX
  5
C0
  8
TEAM-NET
 10
-115.182735
 20
-98.540031
 30
850.0
 70
    64
  0
VERTEX
  5
C1
  8
TEAM-NET
 10
-134.30508
 20
-100.538754
 30
850.0
 70
    64
  0
VERTEX
  5
C2
  8
TEAM-NET
 10
-153.392948
 20
-102.843591
 30
850.0
 70
    64
  0
VERTEX
  5
C3
  8
TEAM-NET
 10
-172.408442
 20
-105.654943
 30
850.0
 70
    64
  0
VERTEX
  5
C4
  8
TEAM-NET
 10
-190.739933
 20
-111.354586
 30
850.0
 70
    64
  0
VERTEX
  5
C5
  8
TEAM-NET
 10
-207.652495
 20
-120.4398
 30
850.0
 70
    64
  0
VERTEX
  5
C6
  8
TEAM-NET
 10
-222.933271
 20
-132.082775
 30
850.0
 70
    64
  0
VERTEX
  5
C7
  8
TEAM-NET
 10
-236.43586
 20
-145.748099
 30
850.0
 70
    64
  0
VERTEX
  5
C8
  8
TEAM-NET
 10
-247.894943
 20
-161.167256
 30
850.0
 70
    64
  0
VERTEX
  5
C9
  8
TEAM-NET
 10
-257.085357
 20
-178.037267
 30
850.0
 70
    64
  0
VERTEX
  5
CA
  8
TEAM-NET
 10
-263.826515
 20
-196.026646
 30
850.0
 70
    64
  0
VERTEX
  5
CB
  8
TEAM-NET
 10
0.0
 20
-121.026646
 30
720.096189
 70
    64
  0
VERTEX
  5
CC
  8
TEAM-NET
 10
-19.826161
 20
-121.34706
 30
720.651163
 70
    64
  0
VERTEX
  5
CD
  8
TEAM-NET
 10
-39.569557
 20
-122.306965
 30
722.313766
 70
    64
  0
VERTEX
  5
CE
  8
TEAM-NET
 10
-59.147766
 20
-123.902352
 30
725.077059
 70
    64
  0
VERTEX
  5
CF
  8
TEAM-NET
 10
-78.479059
 20
-126.126563
 30
728.929505
 70
    64
  0
VERTEX
  5
D0
  8
TEAM-NET
 10
-97.482735
 20
-128.970312
 30
733.855022
 70
    64
  0
VERTEX
  5
D1
  8
TEAM-NET
 10
-116.079462
 20
-132.421727
 30
739.833049
 70
    64
  0
VERTEX
  5
D2
  8
TEAM-NET
 10
-134.191606
 20
-136.466401
 30
746.83863
 70
    64
  0
VERTEX
  5
D3
  8
TEAM-NET
 10
-151.743558
 20
-141.087449
 30
754.842519
 70
    64
  0
VERTEX
  5
D4
  8
TEAM-NET
 10
-168.662045
 20
-146.265579
 30
763.811304
 70
    64
  0
VERTEX
  5
D5
  8
TEAM-NET
 10
-184.87644
 20
-151.979176
 30
773.707543
 70
    64
  0
VERTEX
  5
D6
  8
TEAM-NET
 10
-200.319054
 20
-158.204386
 30
784.489924
 70
    64
  0
VERTEX
  5
D7
  8
TEAM-NET
 10
-214.925421
 20
-164.915224
 30
796.113436
 70
    64
  0
VERTEX
  5
D8
  8
TEAM-NET
 10
-228.634567
 20
-172.083673
 30
808.529555
 70
    64
  0
VERTEX
  5
D9
  8
TEAM-NET
 10
-241.38926
 20
-179.67981
 30
821.686448
 70
    64
  0
VERTEX
  5
DA
  8
TEAM-NET
 10
-253.136255
 20
-187.671922
 30
835.529193
 70
    64
  0
VERTEX
  5
DB
  8
TEAM-NET
 10
-263.826515
 20
-196.026646
 30
850.0
 70
    64
  0
SEQEND
  5
DC
  8
TEAM-NET
  0
POLYLINE
  5
DD
  8
TEAM-NET
 66
     1
 10
0.0
 20
0.0
 30
0.0
 70
    16
 71
     2
 72
    17
  0
VERTEX
  5
DE
  8
TEAM-NET
 10
0.0
 20
-450.0
 30
850.0
 70
    64
  0
VERTEX
  5
DF
  8
TEAM-NET
 10
-26.646558
 20
-449.365677
 30
850.0
 70
    64
  0
VERTEX
  5
E0
  8
TEAM-NET
 10
-53.23275
 20
-447.464146
 30
850.0
 70
    64
  0
VERTEX
  5
E1
  8
TEAM-NET
 10
-79.698346
 20
-444.299715
 30
850.0
 70
    64
  0
VERTEX
  5
E2
  8
TEAM-NET
 10
-105.825768
 20
-439.094822
 30
850.0
 70
    64
  0
VERTEX
  5
E3
  8
TEAM-NET
 10
-131.134884
 20
-430.778858
 30
850.0
 70
    64
  0
VERTEX
  5
E4
  8
TEAM-NET
 10
-155.253291
 20
-419.464746
 30
850.0
 70
    64
  0
VERTEX
  5
E5
  8
TEAM-NET
 10
-177.827329
 20
-405.318388
 30
850.0
 70
    64
  0
VERTEX
  5
E6
  8
TEAM-NET
 10
-198.525989
 20
-388.547218
 30
850.0
 70
    64
  0
VERTEX
  5
E7
  8
TEAM-NET
 10
-217.045758
 20
-369.397158
 30
850.0
 70
    64
  0
VERTEX
  5
E8
  8
TEAM-NET
 10
-233.115074
 20
-348.149011
 30
850.0
 70
    64
  0
VERTEX
  5
E9
  8
TEAM-NET
 10
-246.498307
 20
-325.114348
 30
850.0
 70
    64
  0
VERTEX
  5
EA
  8
TEAM-NET
 10
-256.999214
 20
-300.630933
 30
850.0
 70
    64
  0
VERTEX
  5
EB
  8
TEAM-NET
 10
-264.463817
 20
-275.057776
 30
850.0
 70
    64
  0
VERTEX
  5
EC
  8
TEAM-NET
 10
-268.792913
 20
-248.771067
 30
850.0
 70
    64
  0
VERTEX
  5
ED
  8
TEAM-NET
 10
-268.882596
 20
-222.156595
 30
850.0
 70
    64
  0
VERTEX
  5
EE
  8
TEAM-NET
 10
-263.826515
 20
-196.026646
 30
850.0
 70
    64
  0
VERTEX
  5
EF
  8
TEAM-NET
 10
0.0
 20
-121.026646
 30
720.096189
 70
    64
  0
VERTEX
  5
F0
  8
TEAM-NET
 10
-19.826161
 20
-121.34706
 30
720.651163
 70
    64
  0
VERTEX
  5
F1
  8
TEAM-NET
 10
-39.569557
 20
-122.306965
 30
722.313766
 70
    64
  0
VERTEX
  5
F2
  8
TEAM-NET
 10
-59.147766
 20
-123.902352
 30
725.077059
 70
    64
  0
VERTEX
  5
F3
  8
TEAM-NET
 10
-78.479059
 20
-126.126563
 30
728.929505
 70
    64
  0
VERTEX
  5
F4
  8
TEAM-NET
 10
-97.482735
 20
-128.970312
 30
733.855022
 70
    64
  0
VERTEX
  5
F5
  8
TEAM-NET
 10
-116.079462
 20
-132.421727
 30
739.833049
 70
    64
  0
VERTEX
  5
F6
  8
TEAM-NET
 10
-134.191606
 20
-136.466401
 30
746.83863
 70
    64
  0
VERTEX
  5
F7
  8
TEAM-NET
 10
-151.743558
 20
-141.087449
 30
754.842519
 70
    64
  0
VERTEX
  5
F8
  8
TEAM-NET
 10
-168.662045
 20
-146.265579
 30
763.811304
 70
    64
  0
VERTEX
  5
F9
  8
TEAM-NET
 10
-184.87644
 20
-151.979176
 30
773.707543
 70
    64
  0
VERTEX
  5
FA
  8
TEAM-NET
 10
-200.319054
 20
-158.204386
 30
784.489924
 70
    64
  0
VERTEX
  5
FB
  8
TEAM-NET
 10
-214.925421
 20
-164.915224
 30
796.113436
 70
    64
  0
VERTEX
  5
FC
  8
TEAM-NET
 10
-228.634567
 20
-172.083673
 30
808.529555
 70
    64
  0
VERTEX
  5
FD
  8
TEAM-NET
 10
-241.38926
 20
-179.67981
 30
821.686448
 70
    64
  0
VERTEX
  5
FE
  8
TEAM-NET
 10
-253.136255
 20
-187.671922
 30
835.529193
 70
    64
  0
VERTEX
  5
FF
  8
TEAM-NET
 10
-263.826515
 20
-196.026646
 30
850.0
 70
    64
  0
SEQEND
  5
100
  8
TEAM-NET
  0
ARC
  5
101
  8
TEAM-BODY
 10
0.0
 20
991.149683
 30
-255.235945
 40
307.014766
210
0.0
220
-0.866025
230
-0.5
 50
210.758738
 51
270.0
  0
ARC
  5
102
  8
TEAM-BODY
 10
0.0
 20
991.149683
 30
-255.235945
 40
307.014766
210
0.0
220
-0.866025
230
-0.5
 50
270.0
 51
329.241262
  0
POLYLINE
  5
103
  8
TEAM-NET
 66
     1
 10
0.0
 20
0.0
 30
0.0
 70
    16
 71
     2
 72
    17
  0
VERTEX
  5
104
  8
TEAM-NET
 10
0.0
 20
-450.0
 30
850.0
 70
    64
  0
VERTEX
  5
105
  8
TEAM-NET
 10
26.646558
 20
-449.365677
 30
850.0
 70
    64
  0
VERTEX
  5
106
  8
TEAM-NET
 10
53.23275
 20
-447.464146
 30
850.0
 70
    64
  0
VERTEX
  5
107
  8
TEAM-NET
 10
79.698346
 20
-444.299715
 30
850.0
 70
    64
  0
VERTEX
  5
108
  8
TEAM-NET
 10
105.825768
 20
-439.094822
 30
850.0
 70
    64
  0
VERTEX
  5
109
  8
TEAM-NET
 10
131.134884
 20
-430.778858
 30
850.0
 70
    64
  0
VERTEX
  5
10A
  8
TEAM-NET
 10
155.253291
 20
-419.464746
 30
850.0
 70
    64
  0
VERTEX
  5
10B
  8
TEAM-NET
 10
177.827329
 20
-405.318388
 30
850.0
 70
    64
  0
VERTEX
  5
10C
  8
TEAM-NET
 10
198.525989
 20
-388.547218
 30
850.0
 70
    64
  0
VERTEX
  5
10D
  8
TEAM-NET
 10
217.045758
 20
-369.397158
 30
850.0
 70
    64
  0
VERTEX
  5
10E
  8
TEAM-NET
 10
233.115074
 20
-348.149011
 30
850.0
 70
    64
  0
VERTEX
  5
10F
  8
TEAM-NET
 10
246.498307
 20
-325.114348
 30
850.0
 70
    64
  0
VERTEX
  5
110
  8
TEAM-NET
 10
256.999214
 20
-300.630933
 30
850.0
 70
    64
  0
VERTEX
  5
111
  8
TEAM-NET
 10
264.463817
 20
-275.057776
 30
850.0
 70
    64
  0
VERTEX
  5
112
  8
TEAM-NET
 10
268.792913
 20
-248.771067
 30
850.0
 70
    64
  0
VERTEX
  5
113
  8
TEAM-NET
 10
268.882596
 20
-222.156595
 30
850.0
 70
    64
  0
VERTEX
  5
114
  8
TEAM-NET
 10
263.826515
 20
-196.026646
 30
850.0
 70
    64
  0
VERTEX
  5
115
  8
TEAM-NET
 10
0.0
 20
-121.026646
 30
720.096189
 70
    64
  0
VERTEX
  5
116
  8
TEAM-NET
 10
19.826161
 20
-121.34706
 30
720.651163
 70
    64
  0
VERTEX
  5
117
  8
TEAM-NET
 10
39.569557
 20
-122.306965
 30
722.313766
 70
    64
  0
VERTEX
  5
118
  8
TEAM-NET
 10
59.147766
 20
-123.902352
 30
725.077059
 70
    64
  0
VERTEX
  5
119
  8
TEAM-NET
 10
78.479059
 20
-126.126563
 30
728.929505
 70
    64
  0
VERTEX
  5
11A
  8
TEAM-NET
 10
97.482735
 20
-128.970312
 30
733.855022
 70
    64
  0
VERTEX
  5
11B
  8
TEAM-NET
 10
116.079462
 20
-132.421727
 30
739.833049
 70
    64
  0
VERTEX
  5
11C
  8
TEAM-NET
 10
134.191606
 20
-136.466401
 30
746.83863
 70
    64
  0
VERTEX
  5
11D
  8
TEAM-NET
 10
151.743558
 20
-141.087449
 30
754.842519
 70
    64
  0
VERTEX
  5
11E
  8
TEAM-NET
 10
168.662045
 20
-146.265579
 30
763.811304
 70
    64
  0
VERTEX
  5
11F
  8
TEAM-NET
 10
184.87644
 20
-151.979176
 30
773.707543
 70
    64
  0
VERTEX
  5
120
  8
TEAM-NET
 10
200.319054
 20
-158.204386
 30
784.489924
 70
    64
  0
VERTEX
  5
121
  8
TEAM-NET
 10
214.925421
 20
-164.915224
 30
796.113436
 70
    64
  0
VERTEX
  5
122
  8
TEAM-NET
 10
228.634567
 20
-172.083673
 30
808.529555
 70
    64
  0
VERTEX
  5
123
  8
TEAM-NET
 10
241.38926
 20
-179.67981
 30
821.686448
 70
    64
  0
VERTEX
  5
124
  8
TEAM-NET
 10
253.136255
 20
-187.671922
 30
835.529193
 70
    64
  0
VERTEX
  5
125
  8
TEAM-NET
 10
263.826515
 20
-196.026646
 30
850.0
 70
    64
  0
SEQEND
  5
126
  8
TEAM-NET
  0
POLYLINE
  5
127
  8
TEAM-NET
 66
     1
 10
0.0
 20
0.0
 30
0.0
 70
    16
 71
     2
 72
    17
  0
VERTEX
  5
128
  8
TEAM-NET
 10
0.0
 20
-92.999296
 30
850.0
 70
    64
  0
VERTEX
  5
129
  8
TEAM-NET
 10
19.225901
 20
-93.153321
 30
850.0
 70
    64
  0
VERTEX
  5
12A
  8
TEAM-NET
 10
38.446866
 20
-93.615355
 30
850.0
 70
    64
  0
VERTEX
  5
12B
  8
TEAM-NET
 10
57.657962
 20
-94.38528
 30
850.0
 70
    64
  0
VERTEX
  5
12C
  8
TEAM-NET
 10
76.854256
 20
-95.462899
 30
850.0
 70
    64
  0
VERTEX
  5
12D
  8
TEAM-NET
 10
96.030821
 20
-96.847934
 30
850.0
 70
    64
  0
VERTEX
  5
12E
  8
TEAM-NET
 10
115.182735
 20
-98.540031
 30
850.0
 70
    64
  0
VERTEX
  5
12F
  8
TEAM-NET
 10
134.30508
 20
-100.538754
 30
850.0
 70
    64
  0
VERTEX
  5
130
  8
TEAM-NET
 10
153.392948
 20
-102.843591
 30
850.0
 70
    64
  0
VERTEX
  5
131
  8
TEAM-NET
 10
172.408442
 20
-105.654943
 30
850.0
 70
    64
  0
VERTEX
  5
132
  8
TEAM-NET
 10
190.739933
 20
-111.354586
 30
850.0
 70
    64
  0
VERTEX
  5
133
  8
TEAM-NET
 10
207.652495
 20
-120.4398
 30
850.0
 70
    64
  0
VERTEX
  5
134
  8
TEAM-NET
 10
222.933271
 20
-132.082775
 30
850.0
 70
    64
  0
VERTEX
  5
135
  8
TEAM-NET
 10
236.43586
 20
-145.748099
 30
850.0
 70
    64
  0
VERTEX
  5
136
  8
TEAM-NET
 10
247.894943
 20
-161.167256
 30
850.0
 70
    64
  0
VERTEX
  5
137
  8
TEAM-NET
 10
257.085357
 20
-178.037267
 30
850.0
 70
    64
  0
VERTEX
  5
138
  8
TEAM-NET
 10
263.826515
 20
-196.026646
 30
850.0
 70
    64
  0
VERTEX
  5
139
  8
TEAM-NET
 10
0.0
 20
-121.026646
 30
720.096189
 70
    64
  0
VERTEX
  5
13A
  8
TEAM-NET
 10
19.826161
 20
-121.34706
 30
720.651163
 70
    64
  0
VERTEX
  5
13B
  8
TEAM-NET
 10
39.569557
 20
-122.306965
 30
722.313766
 70
    64
  0
VERTEX
  5
13C
  8
TEAM-NET
 10
59.147766
 20
-123.902352
 30
725.077059
 70
    64
  0
VERTEX
  5
13D
  8
TEAM-NET
 10
78.479059
 20
-126.126563
 30
728.929505
 70
    64
  0
VERTEX
  5
13E
  8
TEAM-NET
 10
97.482735
 20
-128.970312
 30
733.855022
 70
    64
  0
VERTEX
  5
13F
  8
TEAM-NET
 10
116.079462
 20
-132.421727
 30
739.833049
 70
    64
  0
VERTEX
  5
140
  8
TEAM-NET
 10
134.191606
 20
-136.466401
 30
746.83863
 70
    64
  0
VERTEX
  5
141
  8
TEAM-NET
 10
151.743558
 20
-141.087449
 30
754.842519
 70
    64
  0
VERTEX
  5
142
  8
TEAM-NET
 10
168.662045
 20
-146.265579
 30
763.811304
 70
    64
  0
VERTEX
  5
143
  8
TEAM-NET
 10
184.87644
 20
-151.979176
 30
773.707543
 70
    64
  0
VERTEX
  5
144
  8
TEAM-NET
 10
200.319054
 20
-158.204386
 30
784.489924
 70
    64
  0
VERTEX
  5
145
  8
TEAM-NET
 10
214.925421
 20
-164.915224
 30
796.113436
 70
    64
  0
VERTEX
  5
146
  8
TEAM-NET
 10
228.634567
 20
-172.083673
 30
808.529555
 70
    64
  0
VERTEX
  5
147
  8
TEAM-NET
 10
241.38926
 20
-179.67981
 30
821.686448
 70
    64
  0
VERTEX
  5
148
  8
TEAM-NET
 10
253.136255
 20
-187.671922
 30
835.529193
 70
    64
  0
VERTEX
  5
149
  8
TEAM-NET
 10
263.826515
 20
-196.026646
 30
850.0
 70
    64
  0
SEQEND
  5
14A
  8
TEAM-NET
  0
POLYLINE
  5
14B
  8
TEAM-BODY
 66
     1
 10
0.0
 20
0.0
 30
850.0
  0
VERTEX
  5
2CE
  8
TEAM-BODY
 10
299.991128
 20
0.0
 30
850.0
  0
VERTEX
  5
2CF
  8
TEAM-BODY
 10
299.306096
 20
-208.637567
 30
850.0
 42
-0.391944
  0
VERTEX
  5
2D0
  8
TEAM-BODY
 10
86.646292
 20
-473.602964
 30
850.0
 42
-0.036864
  0
VERTEX
  5
2D1
  8
TEAM-BODY
 10
0.0
 20
-480.0
 30
850.0
 42
-0.036864
  0
SEQEND
  5
2D2
  8
TEAM-BODY
  0
POLYLINE
  5
14C
  8
TEAM-BODY
 66
     1
 10
0.0
 20
0.0
 30
850.0
  0
VERTEX
  5
2D3
  8
TEAM-BODY
 10
0.0
 20
-92.999296
 30
850.0
 42
0.034675
  0
VERTEX
  5
2D4
  8
TEAM-BODY
 10
-165.841291
 20
-104.514267
 30
850.0
 42
0.104957
  0
VERTEX
  5
2D5
  8
TEAM-BODY
 10
-204.880301
 20
-118.667033
 30
850.0
 42
0.183382
  0
VERTEX
  5
2D6
  8
TEAM-BODY
 10
-263.826515
 20
-196.026646
 30
850.0
 42
0.338541
  0
SEQEND
  5
2D7
  8
TEAM-BODY
  0
POLYLINE
  5
14D
  8
TEAM-NET
 66
     1
 10
0.0
 20
0.0
 30
0.0
 70
    16
 71
     2
 72
    33
  0
VERTEX
  5
14E
  8
TEAM-NET
 10
0.0
 20
-480.0
 30
850.0
 70
    64
  0
VERTEX
  5
14F
  8
TEAM-NET
 10
-30.677731
 20
-479.201898
 30
850.0
 70
    64
  0
VERTEX
  5
150
  8
TEAM-NET
 10
-61.272466
 20
-476.809752
 30
850.0
 70
    64
  0
VERTEX
  5
151
  8
TEAM-NET
 10
-91.696716
 20
-472.800263
 30
850.0
 70
    64
  0
VERTEX
  5
152
  8
TEAM-NET
 10
-121.566681
 20
-465.830667
 30
850.0
 70
    64
  0
VERTEX
  5
153
  8
TEAM-NET
 10
-150.35835
 20
-455.255706
 30
850.0
 70
    64
  0
VERTEX
  5
154
  8
TEAM-NET
 10
-177.638335
 20
-441.234561
 30
850.0
 70
    64
  0
VERTEX
  5
155
  8
TEAM-NET
 10
-202.995998
 20
-423.978288
 30
850.0
 70
    64
  0
VERTEX
  5
156
  8
TEAM-NET
 10
-226.04964
 20
-403.746638
 30
850.0
 70
    64
  0
VERTEX
  5
157
  8
TEAM-NET
 10
-246.452244
 20
-380.844153
 30
850.0
 70
    64
  0
VERTEX
  5
158
  8
TEAM-NET
 10
-263.896694
 20
-355.615574
 30
850.0
 70
    64
  0
VERTEX
  5
159
  8
TEAM-NET
 10
-278.120408
 20
-328.440659
 30
850.0
 70
    64
  0
VERTEX
  5
15A
  8
TEAM-NET
 10
-288.90928
 20
-299.728461
 30
850.0
 70
    64
  0
VERTEX
  5
15B
  8
TEAM-NET
 10
-296.100909
 20
-269.911175
 30
850.0
 70
    64
  0
VERTEX
  5
15C
  8
TEAM-NET
 10
-299.587042
 20
-239.43763
 30
850.0
 70
    64
  0
VERTEX
  5
15D
  8
TEAM-NET
 10
-299.315204
 20
-208.766534
 30
850.0
 70
    64
  0
VERTEX
  5
15E
  8
TEAM-NET
 10
-297.14522
 20
-178.151771
 30
850.0
 70
    64
  0
VERTEX
  5
15F
  8
TEAM-NET
 10
-294.975203
 20
-147.53701
 30
850.0
 70
    64
  0
VERTEX
  5
160
  8
TEAM-NET
 10
-292.805185
 20
-116.92225
 30
850.0
 70
    64
  0
VERTEX
  5
161
  8
TEAM-NET
 10
-290.635168
 20
-86.307489
 30
850.0
 70
    64
  0
VERTEX
  5
162
  8
TEAM-NET
 10
-288.46515
 20
-65.692728
 30
850.0
 70
    64
  0
VERTEX
  5
163
  8
TEAM-NET
 10
-286.295132
 20
-35.077968
 30
850.0
 70
    64
  0
VERTEX
  5
164
  8
TEAM-NET
 10
-301.725115
 20
-24.463207
 30
850.0
 70
    64
  0
VERTEX
  5
165
  8
TEAM-NET
 10
-293.824141
 20
0.0
 30
850.0
 70
    64
  0
VERTEX
  5
166
  8
TEAM-NET
 10
-263.13257
 20
0.0
 30
850.0
 70
    64
  0
VERTEX
  5
167
  8
TEAM-NET
 10
-214.840999
 20
0.0
 30
850.0
 70
    64
  0
VERTEX
  5
168
  8
TEAM-NET
 10
-184.149427
 20
0.0
 30
850.0
 70
    64
  0
VERTEX
  5
169
  8
TEAM-NET
 10
-153.457856
 20
0.0
 30
850.0
 70
    64
  0
VERTEX
  5
16A
  8
TEAM-NET
 10
-122.766285
 20
0.0
 30
850.0
 70
    64
  0
VERTEX
  5
16B
  8
TEAM-NET
 10
-92.074714
 20
0.0
 30
850.0
 70
    64
  0
VERTEX
  5
16C
  8
TEAM-NET
 10
-61.383142
 20
0.0
 30
850.0
 70
    64
  0
VERTEX
  5
16D
  8
TEAM-NET
 10
-30.691571
 20
0.0
 30
850.0
 70
    64
  0
VERTEX
  5
16E
  8
TEAM-NET
 10
0.0
 20
0.0
 30
850.0
 70
    64
  0
VERTEX
  5
16F
  8
TEAM-NET
 10
0.0
 20
-450.0
 30
850.0
 70
    64
  0
VERTEX
  5
170
  8
TEAM-NET
 10
-22.935257
 20
-449.530137
 30
850.0
 70
    64
  0
VERTEX
  5
171
  8
TEAM-NET
 10
-45.832026
 20
-448.121336
 30
850.0
 70
    64
  0
VERTEX
  5
172
  8
TEAM-NET
 10
-68.651886
 20
-445.775961
 30
850.0
 70
    64
  0
VERTEX
  5
173
  8
TEAM-NET
 10
-91.337027
 20
-442.38209
 30
850.0
 70
    64
  0
VERTEX
  5
174
  8
TEAM-NET
 10
-113.602986
 20
-436.898414
 30
850.0
 70
    64
  0
VERTEX
  5
175
  8
TEAM-NET
 10
-135.177185
 20
-429.126831
 30
850.0
 70
    64
  0
VERTEX
  5
176
  8
TEAM-NET
 10
-155.825233
 20
-419.151776
 30
850.0
 70
    64
  0
VERTEX
  5
177
  8
TEAM-NET
 10
-175.322798
 20
-407.081623
 30
850.0
 70
    64
  0
VERTEX
  5
178
  8
TEAM-NET
 10
-193.458046
 20
-393.047509
 30
850.0
 70
    64
  0
VERTEX
  5
179
  8
TEAM-NET
 10
-210.033948
 20
-377.201908
 30
850.0
 70
    64
  0
VERTEX
  5
17A
  8
TEAM-NET
 10
-224.870414
 20
-359.716975
 30
850.0
 70
    64
  0
VERTEX
  5
17B
  8
TEAM-NET
 10
-237.806253
 20
-340.782676
 30
850.0
 70
    64
  0
VERTEX
  5
17C
  8
TEAM-NET
 10
-248.700922
 20
-320.604723
 30
850.0
 70
    64
  0
VERTEX
  5
17D
  8
TEAM-NET
 10
-257.436056
 20
-299.402341
 30
850.0
 70
    64
  0
VERTEX
  5
17E
  8
TEAM-NET
 10
-263.916752
 20
-277.405882
 30
850.0
 70
    64
  0
VERTEX
  5
17F
  8
TEAM-NET
 10
-268.0726
 20
-254.85433
 30
850.0
 70
    64
  0
VERTEX
  5
180
  8
TEAM-NET
 10
-269.452728
 20
-231.978852
 30
850.0
 70
    64
  0
VERTEX
  5
181
  8
TEAM-NET
 10
-267.0334
 20
-209.192029
 30
850.0
 70
    64
  0
VERTEX
  5
182
  8
TEAM-NET
 10
-260.851203
 20
-187.126832
 30
850.0
 70
    64
  0
VERTEX
  5
183
  8
TEAM-NET
 10
-251.078973
 20
-166.400134
 30
850.0
 70
    64
  0
VERTEX
  5
184
  8
TEAM-NET
 10
-237.989911
 20
-147.591389
 30
850.0
 70
    64
  0
VERTEX
  5
185
  8
TEAM-NET
 10
-221.949945
 20
-131.226428
 30
850.0
 70
    64
  0
VERTEX
  5
186
  8
TEAM-NET
 10
-203.405401
 20
-117.766212
 30
850.0
 70
    64
  0
VERTEX
  5
187
  8
TEAM-NET
 10
-182.549973
 20
-108.328675
 30
850.0
 70
    64
  0
VERTEX
  5
188
  8
TEAM-NET
 10
-160.112789
 20
-103.728976
 30
850.0
 70
    64
  0
VERTEX
  5
189
  8
TEAM-NET
 10
-137.348372
 20
-100.885449
 30
850.0
 70
    64
  0
VERTEX
  5
18A
  8
TEAM-NET
 10
-114.533755
 20
-98.477627
 30
850.0
 70
    64
  0
VERTEX
  5
18B
  8
TEAM-NET
 10
-91.677278
 20
-96.506389
 30
850.0
 70
    64
  0
VERTEX
  5
18C
  8
TEAM-NET
 10
-68.787293
 20
-94.972457
 30
850.0
 70
    64
  0
VERTEX
  5
18D
  8
TEAM-NET
 10
-45.872167
 20
-93.87639
 30
850.0
 70
    64
  0
VERTEX
  5
18E
  8
TEAM-NET
 10
-22.940276
 20
-93.21859
 30
850.0
 70
    64
  0
VERTEX
  5
18F
  8
TEAM-NET
 10
0.0
 20
-92.999296
 30
850.0
 70
    64
  0
SEQEND
  5
190
  8
TEAM-NET
  0
POLYLINE
  5
191
  8
TEAM-BODY
 66
     1
 10
0.0
 20
0.0
 30
850.0
  0
VERTEX
  5
2D8
  8
TEAM-BODY
 10
-263.826515
 20
-196.026646
 30
850.0
 42
0.103817
  0
VERTEX
  5
2D9
  8
TEAM-BODY
 10
-268.410028
 20
-252.144702
 30
850.0
 42
0.338541
  0
VERTEX
  5
2DA
  8
TEAM-BODY
 10
-82.240549
 20
-443.928237
 30
850.0
 42
0.036864
  0
VERTEX
  5
2DB
  8
TEAM-BODY
 10
0.0
 20
-450.0
 30
850.0
 42
0.036864
  0
SEQEND
  5
2DC
  8
TEAM-BODY
  0
POLYLINE
  5
192
  8
TEAM-BODY
 66
     1
 10
0.0
 20
0.0
 30
850.0
  0
VERTEX
  5
2DD
  8
TEAM-BODY
 10
0.0
 20
0.0
 30
850.0
  0
VERTEX
  5
2DE
  8
TEAM-BODY
 10
-299.991128
 20
0.0
 30
850.0
  0
SEQEND
  5
2DF
  8
TEAM-BODY
  0
TEXT
  5
193
  8
TEAM-TXT
 10
-219.609297
 20
-40.967927
 30
850.0
 40
24.999999
  1
team 211023
 41
0.8
 51
15.0
  7
TEAM
  0
POLYLINE
  5
196
  8
TEAM-BODY
 66
     1
 10
0.0
 20
0.0
 30
850.0
  0
VERTEX
  5
2E0
  8
TEAM-BODY
 10
-299.991128
 20
0.0
 30
850.0
  0
VERTEX
  5
2E1
  8
TEAM-BODY
 10
-299.306096
 20
-208.637567
 30
850.0
 42
0.391944
  0
VERTEX
  5
2E2
  8
TEAM-BODY
 10
-86.646292
 20
-473.602964
 30
850.0
 42
0.036864
  0
VERTEX
  5
2E3
  8
TEAM-BODY
 10
0.0
 20
-480.0
 30
850.0
 42
0.036864
  0
SEQEND
  5
2E4
  8
TEAM-BODY
  0
POLYLINE
  5
197
  8
TEAM-BODY
 66
     1
 10
0.0
 20
0.0
 30
850.0
  0
VERTEX
  5
2E5
  8
TEAM-BODY
 10
0.0
 20
-92.999296
 30
850.0
 42
-0.034675
  0
VERTEX
  5
2E6
  8
TEAM-BODY
 10
165.841291
 20
-104.514267
 30
850.0
 42
-0.104957
  0
VERTEX
  5
2E7
  8
TEAM-BODY
 10
204.880301
 20
-118.667033
 30
850.0
 42
-0.183382
  0
VERTEX
  5
2E8
  8
TEAM-BODY
 10
263.826515
 20
-196.026646
 30
850.0
 42
-0.338541
  0
SEQEND
  5
2E9
  8
TEAM-BODY
  0
POLYLINE
  5
198
  8
TEAM-NET
 66
     1
 10
0.0
 20
0.0
 30
0.0
 70
    16
 71
     2
 72
    33
  0
VERTEX
  5
199
  8
TEAM-NET
 10
0.0
 20
-480.0
 30
850.0
 70
    64
  0
VERTEX
  5
19A
  8
TEAM-NET
 10
30.677731
 20
-479.201898
 30
850.0
 70
    64
  0
VERTEX
  5
19B
  8
TEAM-NET
 10
61.272466
 20
-476.809752
 30
850.0
 70
    64
  0
VERTEX
  5
19C
  8
TEAM-NET
 10
91.696716
 20
-472.800263
 30
850.0
 70
    64
  0
VERTEX
  5
19D
  8
TEAM-NET
 10
121.566681
 20
-465.830667
 30
850.0
 70
    64
  0
VERTEX
  5
19E
  8
TEAM-NET
 10
150.35835
 20
-455.255706
 30
850.0
 70
    64
  0
VERTEX
  5
19F
  8
TEAM-NET
 10
177.638335
 20
-441.234561
 30
850.0
 70
    64
  0
VERTEX
  5
1A0
  8
TEAM-NET
 10
202.995998
 20
-423.978288
 30
850.0
 70
    64
  0
VERTEX
  5
1A1
  8
TEAM-NET
 10
226.04964
 20
-403.746638
 30
850.0
 70
    64
  0
VERTEX
  5
1A2
  8
TEAM-NET
 10
246.452244
 20
-380.844153
 30
850.0
 70
    64
  0
VERTEX
  5
1A3
  8
TEAM-NET
 10
263.896694
 20
-355.615574
 30
850.0
 70
    64
  0
VERTEX
  5
1A4
  8
TEAM-NET
 10
278.120408
 20
-328.440659
 30
850.0
 70
    64
  0
VERTEX
  5
1A5
  8
TEAM-NET
 10
288.90928
 20
-299.728461
 30
850.0
 70
    64
  0
VERTEX
  5
1A6
  8
TEAM-NET
 10
296.100909
 20
-269.911175
 30
850.0
 70
    64
  0
VERTEX
  5
1A7
  8
TEAM-NET
 10
299.587042
 20
-239.43763
 30
850.0
 70
    64
  0
VERTEX
  5
1A8
  8
TEAM-NET
 10
299.315204
 20
-208.766534
 30
850.0
 70
    64
  0
VERTEX
  5
1A9
  8
TEAM-NET
 10
297.14522
 20
-178.151771
 30
850.0
 70
    64
  0
VERTEX
  5
1AA
  8
TEAM-NET
 10
294.975203
 20
-147.53701
 30
850.0
 70
    64
  0
VERTEX
  5
1AB
  8
TEAM-NET
 10
292.805185
 20
-116.92225
 30
850.0
 70
    64
  0
VERTEX
  5
1AC
  8
TEAM-NET
 10
290.635168
 20
-86.307489
 30
850.0
 70
    64
  0
VERTEX
  5
1AD
  8
TEAM-NET
 10
288.46515
 20
-65.692728
 30
850.0
 70
    64
  0
VERTEX
  5
1AE
  8
TEAM-NET
 10
286.295132
 20
-35.077968
 30
850.0
 70
    64
  0
VERTEX
  5
1AF
  8
TEAM-NET
 10
301.725115
 20
-24.463207
 30
850.0
 70
    64
  0
VERTEX
  5
1B0
  8
TEAM-NET
 10
293.824141
 20
0.0
 30
850.0
 70
    64
  0
VERTEX
  5
1B1
  8
TEAM-NET
 10
245.53257
 20
0.0
 30
850.0
 70
    64
  0
VERTEX
  5
1B2
  8
TEAM-NET
 10
214.840999
 20
0.0
 30
850.0
 70
    64
  0
VERTEX
  5
1B3
  8
TEAM-NET
 10
184.149427
 20
0.0
 30
850.0
 70
    64
  0
VERTEX
  5
1B4
  8
TEAM-NET
 10
153.457856
 20
0.0
 30
850.0
 70
    64
  0
VERTEX
  5
1B5
  8
TEAM-NET
 10
122.766285
 20
0.0
 30
850.0
 70
    64
  0
VERTEX
  5
1B6
  8
TEAM-NET
 10
92.074714
 20
0.0
 30
850.0
 70
    64
  0
VERTEX
  5
1B7
  8
TEAM-NET
 10
61.383142
 20
0.0
 30
850.0
 70
    64
  0
VERTEX
  5
1B8
  8
TEAM-NET
 10
30.691571
 20
0.0
 30
850.0
 70
    64
  0
VERTEX
  5
1B9
  8
TEAM-NET
 10
0.0
 20
0.0
 30
850.0
 70
    64
  0
VERTEX
  5
1BA
  8
TEAM-NET
 10
0.0
 20
-450.0
 30
850.0
 70
    64
  0
VERTEX
  5
1BB
  8
TEAM-NET
 10
22.935257
 20
-449.530137
 30
850.0
 70
    64
  0
VERTEX
  5
1BC
  8
TEAM-NET
 10
45.832026
 20
-448.121336
 30
850.0
 70
    64
  0
VERTEX
  5
1BD
  8
TEAM-NET
 10
68.651886
 20
-445.775961
 30
850.0
 70
    64
  0
VERTEX
  5
1BE
  8
TEAM-NET
 10
91.337027
 20
-442.38209
 30
850.0
 70
    64
  0
VERTEX
  5
1BF
  8
TEAM-NET
 10
113.602986
 20
-436.898414
 30
850.0
 70
    64
  0
VERTEX
  5
1C0
  8
TEAM-NET
 10
135.177185
 20
-429.126831
 30
850.0
 70
    64
  0
VERTEX
  5
1C1
  8
TEAM-NET
 10
155.825233
 20
-419.151776
 30
850.0
 70
    64
  0
VERTEX
  5
1C2
  8
TEAM-NET
 10
175.322798
 20
-407.081623
 30
850.0
 70
    64
  0
VERTEX
  5
1C3
  8
TEAM-NET
 10
193.458046
 20
-393.047509
 30
850.0
 70
    64
  0
VERTEX
  5
1C4
  8
TEAM-NET
 10
210.033948
 20
-377.201908
 30
850.0
 70
    64
  0
VERTEX
  5
1C5
  8
TEAM-NET
 10
224.870414
 20
-359.716975
 30
850.0
 70
    64
  0
VERTEX
  5
1C6
  8
TEAM-NET
 10
237.806253
 20
-340.782676
 30
850.0
 70
    64
  0
VERTEX
  5
1C7
  8
TEAM-NET
 10
248.700922
 20
-320.604723
 30
850.0
 70
    64
  0
VERTEX
  5
1C8
  8
TEAM-NET
 10
257.436056
 20
-299.402341
 30
850.0
 70
    64
  0
VERTEX
  5
1C9
  8
TEAM-NET
 10
263.916752
 20
-277.405882
 30
850.0
 70
    64
  0
VERTEX
  5
1CA
  8
TEAM-NET
 10
268.0726
 20
-254.85433
 30
850.0
 70
    64
  0
VERTEX
  5
1CB
  8
TEAM-NET
 10
269.452728
 20
-231.978852
 30
850.0
 70
    64
  0
VERTEX
  5
1CC
  8
TEAM-NET
 10
267.0334
 20
-209.192029
 30
850.0
 70
    64
  0
VERTEX
  5
1CD
  8
TEAM-NET
 10
260.851203
 20
-187.126832
 30
850.0
 70
    64
  0
VERTEX
  5
1CE
  8
TEAM-NET
 10
251.078973
 20
-166.400134
 30
850.0
 70
    64
  0
VERTEX
  5
1CF
  8
TEAM-NET
 10
237.989911
 20
-147.591389
 30
850.0
 70
    64
  0
VERTEX
  5
1D0
  8
TEAM-NET
 10
221.949945
 20
-131.226428
 30
850.0
 70
    64
  0
VERTEX
  5
1D1
  8
TEAM-NET
 10
203.405401
 20
-117.766212
 30
850.0
 70
    64
  0
VERTEX
  5
1D2
  8
TEAM-NET
 10
182.549973
 20
-108.328675
 30
850.0
 70
    64
  0
VERTEX
  5
1D3
  8
TEAM-NET
 10
160.112789
 20
-103.728976
 30
850.0
 70
    64
  0
VERTEX
  5
1D4
  8
TEAM-NET
 10
137.348372
 20
-100.885449
 30
850.0
 70
    64
  0
VERTEX
  5
1D5
  8
TEAM-NET
 10
114.533755
 20
-98.477627
 30
850.0
 70
    64
  0
VERTEX
  5
1D6
  8
TEAM-NET
 10
91.677278
 20
-96.506389
 30
850.0
 70
    64
  0
VERTEX
  5
1D7
  8
TEAM-NET
 10
68.787293
 20
-94.972457
 30
850.0
 70
    64
  0
VERTEX
  5
1D8
  8
TEAM-NET
 10
45.872167
 20
-93.87639
 30
850.0
 70
    64
  0
VERTEX
  5
1D9
  8
TEAM-NET
 10
22.940276
 20
-93.21859
 30
850.0
 70
    64
  0
VERTEX
  5
1DA
  8
TEAM-NET
 10
0.0
 20
-92.999296
 30
850.0
 70
    64
  0
SEQEND
  5
1DB
  8
TEAM-NET
  0
POLYLINE
  5
1DC
  8
TEAM-BODY
 66
     1
 10
0.0
 20
0.0
 30
850.0
  0
VERTEX
  5
2EA
  8
TEAM-BODY
 10
263.826515
 20
-196.026646
 30
850.0
 42
-0.103817
  0
VERTEX
  5
2EB
  8
TEAM-BODY
 10
268.410028
 20
-252.144702
 30
850.0
 42
-0.338541
  0
VERTEX
  5
2EC
  8
TEAM-BODY
 10
82.240549
 20
-443.928237
 30
850.0
 42
-0.036864
  0
VERTEX
  5
2ED
  8
TEAM-BODY
 10
0.0
 20
-450.0
 30
850.0
 42
-0.036864
  0
SEQEND
  5
2EE
  8
TEAM-BODY
  0
POLYLINE
  5
1DD
  8
TEAM-BODY
 66
     1
 10
0.0
 20
0.0
 30
850.0
  0
VERTEX
  5
2EF
  8
TEAM-BODY
 10
0.0
 20
0.0
 30
850.0
  0
VERTEX
  5
2F0
  8
TEAM-BODY
 10
299.991128
 20
0.0
 30
850.0
  0
SEQEND
  5
2F1
  8
TEAM-BODY
  0
ENDSEC
  0
EOF
