  0
SECTION
  2
HEADER
  9
$ACADVER
  1
AC1009
  9
$INSBASE
 10
0.0
 20
0.0
 30
0.0
  9
$EXTMIN
 10
-210.047258
 20
-420.06946
 30
-0.051878
  9
$EXTMAX
 10
210.047261
 20
10.026251
 30
850.051885
  9
$LIMMIN
 10
-210.047258
 20
-420.06946
  9
$LIMMAX
 10
210.047261
 20
10.026251
  9
$ORTHOMODE
 70
     1
  9
$REGENMODE
 70
     1
  9
$FILLMODE
 70
     1
  9
$QTEXTMODE
 70
     0
  9
$MIRRTEXT
 70
     0
  9
$DRAGMODE
 70
     2
  9
$LTSCALE
 40
25.0
  9
$OSMODE
 70
     0
  9
$ATTMODE
 70
     1
  9
$TEXTSIZE
 40
200.0
  9
$TRACEWID
 40
1.0
  9
$TEXTSTYLE
  7
STANDARD
  9
$CLAYER
  8
TEAM-MAS
  9
$CELTYPE
  6
BYLAYER
  9
$CECOLOR
 62
   256
  9
$DIMSCALE
 40
0.0
  9
$DIMASZ
 40
20.0
  9
$DIMEXO
 40
10.0
  9
$DIMDLI
 40
1.0
  9
$DIMRND
 40
0.0
  9
$DIMDLE
 40
0.0
  9
$DIMEXE
 40
1.0
  9
$DIMTP
 40
0.0
  9
$DIMTM
 40
0.0
  9
$DIMTXT
 40
35.0
  9
$DIMCEN
 40
1.0
  9
$DIMTSZ
 40
0.0
  9
$DIMTOL
 70
     0
  9
$DIMLIM
 70
     0
  9
$DIMTIH
 70
     0
  9
$DIMTOH
 70
     0
  9
$DIMSE1
 70
     0
  9
$DIMSE2
 70
     0
  9
$DIMTAD
 70
     0
  9
$DIMZIN
 70
     0
  9
$DIMBLK
  1

  9
$DIMASO
 70
     1
  9
$DIMSHO
 70
     0
  9
$DIMPOST
  1

  9
$DIMAPOST
  1

  9
$DIMALT
 70
     0
  9
$DIMALTD
 70
     2
  9
$DIMALTF
 40
25.4
  9
$DIMLFAC
 40
1.0
  9
$DIMTOFL
 70
     0
  9
$DIMTVP
 40
0.0
  9
$DIMTIX
 70
     0
  9
$DIMSOXD
 70
     0
  9
$DIMSAH
 70
     0
  9
$DIMBLK1
  1

  9
$DIMBLK2
  1

  9
$DIMSTYLE
  2
TEAM
  9
$DIMCLRD
 70
     9
  9
$DIMCLRE
 70
     9
  9
$DIMCLRT
 70
    11
  9
$DIMTFAC
 40
1.0
  9
$DIMGAP
 40
15.0
  9
$LUNITS
 70
     2
  9
$LUPREC
 70
     1
  9
$SKETCHINC
 40
1.0
  9
$FILLETRAD
 40
50.0
  9
$AUNITS
 70
     0
  9
$AUPREC
 70
     0
  9
$MENU
  1
ROPLANS
  9
$ELEVATION
 40
0.0
  9
$PELEVATION
 40
0.0
  9
$THICKNESS
 40
0.0
  9
$LIMCHECK
 70
     0
  9
$BLIPMODE
 70
     1
  9
$CHAMFERA
 40
0.0
  9
$CHAMFERB
 40
0.0
  9
$SKPOLY
 70
     0
  9
$TDCREATE
 40
2450392.957851
  9
$TDUPDATE
 40
2455498.624065
  9
$TDINDWG
 40
1.987034
  9
$TDUSRTIMER
 40
1.987034
  9
$USRTIMER
 70
     1
  9
$ANGBASE
 50
0.0
  9
$ANGDIR
 70
     0
  9
$PDMODE
 70
     0
  9
$PDSIZE
 40
0.0
  9
$PLINEWID
 40
0.0
  9
$COORDS
 70
     2
  9
$SPLFRAME
 70
     0
  9
$SPLINETYPE
 70
     6
  9
$SPLINESEGS
 70
     8
  9
$ATTDIA
 70
     0
  9
$ATTREQ
 70
     0
  9
$HANDLING
 70
     1
  9
$HANDSEED
  5
833
  9
$SURFTAB1
 70
    24
  9
$SURFTAB2
 70
    24
  9
$SURFTYPE
 70
     6
  9
$SURFU
 70
     6
  9
$SURFV
 70
     6
  9
$UCSNAME
  2

  9
$UCSORG
 10
0.0
 20
0.0
 30
0.0
  9
$UCSXDIR
 10
1.0
 20
0.0
 30
0.0
  9
$UCSYDIR
 10
0.0
 20
1.0
 30
0.0
  9
$PUCSNAME
  2

  9
$PUCSORG
 10
0.0
 20
0.0
 30
0.0
  9
$PUCSXDIR
 10
1.0
 20
0.0
 30
0.0
  9
$PUCSYDIR
 10
0.0
 20
1.0
 30
0.0
  9
$USERI1
 70
     0
  9
$USERI2
 70
     0
  9
$USERI3
 70
     0
  9
$USERI4
 70
     0
  9
$USERI5
 70
     0
  9
$USERR1
 40
0.0
  9
$USERR2
 40
0.0
  9
$USERR3
 40
0.0
  9
$USERR4
 40
0.0
  9
$USERR5
 40
0.0
  9
$WORLDVIEW
 70
     1
  9
$SHADEDGE
 70
     0
  9
$SHADEDIF
 70
    70
  9
$TILEMODE
 70
     1
  9
$MAXACTVP
 70
    16
  9
$PLIMCHECK
 70
     0
  9
$PEXTMIN
 10
-0.805942
 20
0.005011
 30
0.0
  9
$PEXTMAX
 10
20.250094
 20
11.356329
 30
0.0
  9
$PLIMMIN
 10
0.0
 20
0.0
  9
$PLIMMAX
 10
12.0
 20
9.0
  9
$UNITMODE
 70
     0
  9
$VISRETAIN
 70
     0
  9
$PLINEGEN
 70
     0
  9
$PSLTSCALE
 70
     0
  0
ENDSEC
  0
SECTION
  2
TABLES
  0
TABLE
  2
VPORT
 70
     2
  0
VPORT
  2
*ACTIVE
 70
     0
 10
0.0
 20
0.0
 11
1.0
 21
1.0
 12
0.000001
 22
-205.021604
 13
0.0
 23
0.0
 14
1.0
 24
1.0
 15
50.0
 25
50.0
 16
0.0
 26
0.0
 36
1.0
 17
0.0
 27
0.0
 37
0.0
 40
432.737035
 41
1.865779
 42
50.0
 43
0.0
 44
0.0
 50
0.0
 51
0.0
 71
     0
 72
   100
 73
     1
 74
     1
 75
     0
 76
     0
 77
     0
 78
     0
  0
ENDTAB
  0
TABLE
  2
LTYPE
 70
     3
  0
LTYPE
  2
CONTINUOUS
 70
     0
  3
Solid Line
 72
    65
 73
     0
 40
0.0
  0
LTYPE
  2
31
 70
     0
  3

 72
    65
 73
     4
 40
2.1
 49
1.5
 49
-0.3
 49
0.0
 49
-0.3
  0
LTYPE
  2
DURCHGEHEND
 70
     0
  3

 72
    65
 73
     0
 40
0.0
  0
ENDTAB
  0
TABLE
  2
LAYER
 70
     8
  0
LAYER
  2
0
 70
     0
 62
     7
  6
CONTINUOUS
  0
LAYER
  2
TEAM-AXE
 70
     0
 62
    10
  6
31
  0
LAYER
  2
TEAM-MAS
 70
     0
 62
     9
  6
CONTINUOUS
  0
LAYER
  2
TEAM-TXT
 70
     0
 62
    11
  6
CONTINUOUS
  0
LAYER
  2
TEAM-DET1
 70
     0
 62
     4
  6
CONTINUOUS
  0
LAYER
  2
TEAM-NET
 70
     0
 62
    15
  6
CONTINUOUS
  0
LAYER
  2
TEAM-INSP
 70
     0
 62
     5
  6
CONTINUOUS
  0
LAYER
  2
STANDARDEBENE
 70
     0
 62
     7
  6
DURCHGEHEND
  0
ENDTAB
  0
TABLE
  2
STYLE
 70
     2
  0
STYLE
  2
STANDARD
 70
     0
 40
0.0
 41
1.0
 50
0.0
 71
     0
 42
200.0
  3
txt
  4

  0
STYLE
  2
TEAM
 70
     0
 40
0.0
 41
0.8
 50
15.0
 71
     0
 42
7.0
  3
ROMANS.shx
  4

  0
ENDTAB
  0
TABLE
  2
VIEW
 70
     0
  0
ENDTAB
  0
TABLE
  2
UCS
 70
     0
  0
ENDTAB
  0
TABLE
  2
APPID
 70
     1
  0
APPID
  2
ACAD
 70
     0
  0
ENDTAB
  0
TABLE
  2
DIMSTYLE
 70
     1
  0
DIMSTYLE
  2
TEAM
 70
     0
  3

  4

  5

  6

  7

 40
0.0
 41
20.0
 42
10.0
 43
1.0
 44
1.0
 45
0.0
 46
0.0
 47
0.0
 48
0.0
140
35.0
141
1.0
142
0.0
143
25.4
144
1.0
145
0.0
146
1.0
147
15.0
 71
     0
 72
     0
 73
     0
 74
     0
 75
     0
 76
     0
 77
     0
 78
     0
170
     0
171
     2
172
     0
173
     0
174
     0
175
     0
176
     9
177
     9
178
    11
  0
ENDTAB
  0
ENDSEC
  0
SECTION
  2
BLOCKS
  0
BLOCK
  8
0
  2
$MODEL_SPACE
 70
     0
 10
0.0
 20
0.0
 30
0.0
  3
$MODEL_SPACE
  1

  0
ENDBLK
  5
6D5
  8
0
  0
BLOCK
 67
     1
  8
0
  2
$PAPER_SPACE
 70
     0
 10
0.0
 20
0.0
 30
0.0
  3
$PAPER_SPACE
  1

  0
ENDBLK
  5
6D3
 67
     1
  8
0
  0
ENDSEC
  0
SECTION
  2
ENTITIES
  0
CIRCLE
  5
20
  8
TEAM-INSP
 10
0.0
 20
0.0
 30
0.0
 40
10.0
  0
POLYLINE
  5
22
  8
TEAM-NET
 66
     1
 10
0.0
 20
0.0
 30
0.0
 70
    16
 71
     2
 72
    37
  0
VERTEX
  5
23
  8
TEAM-NET
 10
110.11939
 20
-219.178558
 30
685.0
 70
    64
  0
VERTEX
  5
24
  8
TEAM-NET
 10
108.612344
 20
-238.177322
 30
685.0
 70
    64
  0
VERTEX
  5
25
  8
TEAM-NET
 10
103.848593
 20
-256.630801
 30
685.0
 70
    64
  0
VERTEX
  5
26
  8
TEAM-NET
 10
95.971139
 20
-273.98505
 30
685.0
 70
    64
  0
VERTEX
  5
27
  8
TEAM-NET
 10
85.216452
 20
-289.719118
 30
685.0
 70
    64
  0
VERTEX
  5
28
  8
TEAM-NET
 10
71.90737
 20
-303.360693
 30
685.0
 70
    64
  0
VERTEX
  5
29
  8
TEAM-NET
 10
56.443414
 20
-314.500275
 30
685.0
 70
    64
  0
VERTEX
  5
2A
  8
TEAM-NET
 10
39.288788
 20
-322.803469
 30
685.0
 70
    64
  0
VERTEX
  5
2B
  8
TEAM-NET
 10
20.958449
 20
-328.021025
 30
685.0
 70
    64
  0
VERTEX
  5
2C
  8
TEAM-NET
 10
2.002647
 20
-329.996322
 30
685.0
 70
    64
  0
VERTEX
  5
2D
  8
TEAM-NET
 10
-17.009592
 20
-328.670062
 30
685.0
 70
    64
  0
VERTEX
  5
2E
  8
TEAM-NET
 10
-35.50755
 20
-324.082059
 30
685.0
 70
    64
  0
VERTEX
  5
2F
  8
TEAM-NET
 10
-52.935945
 20
-316.370037
 30
685.0
 70
    64
  0
VERTEX
  5
30
  8
TEAM-NET
 10
-68.771601
 20
-305.7655
 30
685.0
 70
    64
  0
VERTEX
  5
31
  8
TEAM-NET
 10
-82.539157
 20
-292.586781
 30
685.0
 70
    64
  0
VERTEX
  5
32
  8
TEAM-NET
 10
-93.825329
 20
-277.229485
 30
685.0
 70
    64
  0
VERTEX
  5
33
  8
TEAM-NET
 10
-102.291324
 20
-260.154616
 30
685.0
 70
    64
  0
VERTEX
  5
34
  8
TEAM-NET
 10
-107.683005
 20
-241.874737
 30
685.0
 70
    64
  0
VERTEX
  5
35
  8
TEAM-NET
 10
-109.838522
 20
-222.938581
 30
685.0
 70
    64
  0
VERTEX
  5
36
  8
TEAM-NET
 10
-108.693169
 20
-203.914586
 30
685.0
 70
    64
  0
VERTEX
  5
37
  8
TEAM-NET
 10
-104.281327
 20
-185.373824
 30
685.0
 70
    64
  0
VERTEX
  5
38
  8
TEAM-NET
 10
-96.735435
 20
-167.87286
 30
685.0
 70
    64
  0
VERTEX
  5
39
  8
TEAM-NET
 10
-86.282009
 20
-151.937048
 30
685.0
 70
    64
  0
VERTEX
  5
3A
  8
TEAM-NET
 10
-73.234844
 20
-138.044759
 30
685.0
 70
    64
  0
VERTEX
  5
3B
  8
TEAM-NET
 10
-57.985599
 20
-126.613016
 30
685.0
 70
    64
  0
VERTEX
  5
3C
  8
TEAM-NET
 10
-40.992032
 20
-117.984986
 30
685.0
 70
    64
  0
VERTEX
  5
3D
  8
TEAM-NET
 10
-22.764266
 20
-112.419669
 30
685.0
 70
    64
  0
VERTEX
  5
3E
  8
TEAM-NET
 10
-3.849471
 20
-110.084127
 30
685.0
 70
    64
  0
VERTEX
  5
3F
  8
TEAM-NET
 10
15.184558
 20
-111.04847
 30
685.0
 70
    64
  0
VERTEX
  5
40
  8
TEAM-NET
 10
33.766448
 20
-115.283749
 30
685.0
 70
    64
  0
VERTEX
  5
41
  8
TEAM-NET
 10
51.338397
 20
-122.662829
 30
685.0
 70
    64
  0
VERTEX
  5
42
  8
TEAM-NET
 10
67.372922
 20
-132.964199
 30
685.0
 70
    64
  0
VERTEX
  5
43
  8
TEAM-NET
 10
81.38869
 20
-145.878628
 30
685.0
 70
    64
  0
VERTEX
  5
44
  8
TEAM-NET
 10
92.964967
 20
-161.018444
 30
685.0
 70
    64
  0
VERTEX
  5
45
  8
TEAM-NET
 10
101.754252
 20
-177.929171
 30
685.0
 70
    64
  0
VERTEX
  5
46
  8
TEAM-NET
 10
107.492702
 20
-196.103175
 30
685.0
 70
    64
  0
VERTEX
  5
47
  8
TEAM-NET
 10
110.008058
 20
-214.994898
 30
685.0
 70
    64
  0
VERTEX
  5
48
  8
TEAM-NET
 10
196.68298
 20
-219.178558
 30
850.0
 70
    64
  0
VERTEX
  5
49
  8
TEAM-NET
 10
192.124679
 20
-253.078257
 30
850.0
 70
    64
  0
VERTEX
  5
4A
  8
TEAM-NET
 10
181.7765
 20
-285.680273
 30
850.0
 70
    64
  0
VERTEX
  5
4B
  8
TEAM-NET
 10
165.943264
 20
-316.000867
 30
850.0
 70
    64
  0
VERTEX
  5
4C
  8
TEAM-NET
 10
145.093244
 20
-343.11581
 30
850.0
 70
    64
  0
VERTEX
  5
4D
  8
TEAM-NET
 10
119.87284
 20
-366.222993
 30
850.0
 70
    64
  0
VERTEX
  5
4E
  8
TEAM-NET
 10
91.0286
 20
-384.606125
 30
850.0
 70
    64
  0
VERTEX
  5
4F
  8
TEAM-NET
 10
59.440552
 20
-397.72668
 30
850.0
 70
    64
  0
VERTEX
  5
50
  8
TEAM-NET
 10
26.057924
 20
-405.184045
 30
850.0
 70
    64
  0
VERTEX
  5
51
  8
TEAM-NET
 10
-8.111039
 20
-406.750165
 30
850.0
 70
    64
  0
VERTEX
  5
52
  8
TEAM-NET
 10
-42.03459
 20
-402.372995
 30
850.0
 70
    64
  0
VERTEX
  5
53
  8
TEAM-NET
 10
-74.691514
 20
-392.198875
 30
850.0
 70
    64
  0
VERTEX
  5
54
  8
TEAM-NET
 10
-105.095836
 20
-376.526617
 30
850.0
 70
    64
  0
VERTEX
  5
55
  8
TEAM-NET
 10
-132.322226
 20
-355.821989
 30
850.0
 70
    64
  0
VERTEX
  5
56
  8
TEAM-NET
 10
-155.563322
 20
-330.724431
 30
850.0
 70
    64
  0
VERTEX
  5
57
  8
TEAM-NET
 10
-174.101046
 20
-301.978784
 30
850.0
 70
    64
  0
VERTEX
  5
58
  8
TEAM-NET
 10
-187.390624
 20
-270.46072
 30
850.0
 70
    64
  0
VERTEX
  5
59
  8
TEAM-NET
 10
-195.025498
 20
-237.117439
 30
850.0
 70
    64
  0
VERTEX
  5
5A
  8
TEAM-NET
 10
-196.774135
 20
-202.956477
 30
850.0
 70
    64
  0
VERTEX
  5
5B
  8
TEAM-NET
 10
-192.578117
 20
-169.009074
 30
850.0
 70
    64
  0
VERTEX
  5
5C
  8
TEAM-NET
 10
-182.578054
 20
-136.297243
 30
850.0
 70
    64
  0
VERTEX
  5
5D
  8
TEAM-NET
 10
-167.066763
 20
-105.809199
 30
850.0
 70
    64
  0
VERTEX
  5
5E
  8
TEAM-NET
 10
-146.50754
 20
-78.471356
 30
850.0
 70
    64
  0
VERTEX
  5
5F
  8
TEAM-NET
 10
-121.532808
 20
-55.096364
 30
850.0
 70
    64
  0
VERTEX
  5
60
  8
TEAM-NET
 10
-92.885754
 20
-36.40405
 30
850.0
 70
    64
  0
VERTEX
  5
61
  8
TEAM-NET
 10
-61.437687
 20
-22.94542
 30
850.0
 70
    64
  0
VERTEX
  5
62
  8
TEAM-NET
 10
-28.133746
 20
-15.133049
 30
850.0
 70
    64
  0
VERTEX
  5
63
  8
TEAM-NET
 10
6.019211
 20
-13.201876
 30
850.0
 70
    64
  0
VERTEX
  5
64
  8
TEAM-NET
 10
39.990464
 20
-17.216767
 30
850.0
 70
    64
  0
VERTEX
  5
65
  8
TEAM-NET
 10
72.757205
 20
-27.042756
 30
850.0
 70
    64
  0
VERTEX
  5
66
  8
TEAM-NET
 10
103.328967
 20
-42.393095
 30
850.0
 70
    64
  0
VERTEX
  5
67
  8
TEAM-NET
 10
130.778266
 20
-62.806912
 30
850.0
 70
    64
  0
VERTEX
  5
68
  8
TEAM-NET
 10
154.287159
 20
-87.658813
 30
850.0
 70
    64
  0
VERTEX
  5
69
  8
TEAM-NET
 10
173.13407
 20
-116.20727
 30
850.0
 70
    64
  0
VERTEX
  5
6A
  8
TEAM-NET
 10
186.761726
 20
-147.585351
 30
850.0
 70
    64
  0
VERTEX
  5
6B
  8
TEAM-NET
 10
194.751614
 20
-180.849942
 30
850.0
 70
    64
  0
VERTEX
  5
6C
  8
TEAM-NET
 10
196.865293
 20
-214.994898
 30
850.0
 70
    64
  0
SEQEND
  5
6E
  8
TEAM-NET
  0
POLYLINE
  5
6F
  8
TEAM-NET
 66
     1
 10
0.0
 20
0.0
 30
0.0
 70
    16
 71
     2
 72
    37
  0
VERTEX
  5
70
  8
TEAM-NET
 10
-104.874433
 20
-219.216459
 30
685.0
 70
    64
  0
VERTEX
  5
71
  8
TEAM-NET
 10
-104.540728
 20
-210.018263
 30
685.0
 70
    64
  0
VERTEX
  5
72
  8
TEAM-NET
 10
-103.402771
 20
-200.884631
 30
685.0
 70
    64
  0
VERTEX
  5
73
  8
TEAM-NET
 10
-101.469307
 20
-191.885748
 30
685.0
 70
    64
  0
VERTEX
  5
74
  8
TEAM-NET
 10
-98.755191
 20
-183.090764
 30
685.0
 70
    64
  0
VERTEX
  5
75
  8
TEAM-NET
 10
-95.281279
 20
-174.56726
 30
685.0
 70
    64
  0
VERTEX
  5
76
  8
TEAM-NET
 10
-91.074267
 20
-166.380732
 30
685.0
 70
    64
  0
VERTEX
  5
77
  8
TEAM-NET
 10
-86.166482
 20
-158.594089
 30
685.0
 70
    64
  0
VERTEX
  5
78
  8
TEAM-NET
 10
-80.595635
 20
-151.267163
 30
685.0
 70
    64
  0
VERTEX
  5
79
  8
TEAM-NET
 10
-74.404534
 20
-144.456256
 30
685.0
 70
    64
  0
VERTEX
  5
7A
  8
TEAM-NET
 10
-67.640753
 20
-138.213705
 30
685.0
 70
    64
  0
VERTEX
  5
7B
  8
TEAM-NET
 10
-60.356267
 20
-132.587478
 30
685.0
 70
    64
  0
VERTEX
  5
7C
  8
TEAM-NET
 10
-52.607049
 20
-127.620808
 30
685.0
 70
    64
  0
VERTEX
  5
7D
  8
TEAM-NET
 10
-44.452648
 20
-123.351861
 30
685.0
 70
    64
  0
VERTEX
  5
7E
  8
TEAM-NET
 10
-35.955722
 20
-119.813439
 30
685.0
 70
    64
  0
VERTEX
  5
7F
  8
TEAM-NET
 10
-27.181564
 20
-117.032732
 30
685.0
 70
    64
  0
VERTEX
  5
80
  8
TEAM-NET
 10
-18.197596
 20
-115.031109
 30
685.0
 70
    64
  0
VERTEX
  5
81
  8
TEAM-NET
 10
-9.072852
 20
-113.823949
 30
685.0
 70
    64
  0
VERTEX
  5
82
  8
TEAM-NET
 10
0.122551
 20
-113.420529
 30
685.0
 70
    64
  0
VERTEX
  5
83
  8
TEAM-NET
 10
9.317953
 20
-113.823949
 30
685.0
 70
    64
  0
VERTEX
  5
84
  8
TEAM-NET
 10
18.442697
 20
-115.031109
 30
685.0
 70
    64
  0
VERTEX
  5
85
  8
TEAM-NET
 10
27.426665
 20
-117.032732
 30
685.0
 70
    64
  0
VERTEX
  5
86
  8
TEAM-NET
 10
36.200823
 20
-119.813439
 30
685.0
 70
    64
  0
VERTEX
  5
87
  8
TEAM-NET
 10
44.697749
 20
-123.351861
 30
685.0
 70
    64
  0
VERTEX
  5
88
  8
TEAM-NET
 10
52.85215
 20
-127.620808
 30
685.0
 70
    64
  0
VERTEX
  5
89
  8
TEAM-NET
 10
60.601368
 20
-132.587478
 30
685.0
 70
    64
  0
VERTEX
  5
8A
  8
TEAM-NET
 10
67.885854
 20
-138.213705
 30
685.0
 70
    64
  0
VERTEX
  5
8B
  8
TEAM-NET
 10
74.649635
 20
-144.456256
 30
685.0
 70
    64
  0
VERTEX
  5
8C
  8
TEAM-NET
 10
80.840736
 20
-151.267163
 30
685.0
 70
    64
  0
VERTEX
  5
8D
  8
TEAM-NET
 10
86.411583
 20
-158.594089
 30
685.0
 70
    64
  0
VERTEX
  5
8E
  8
TEAM-NET
 10
91.319368
 20
-166.380732
 30
685.0
 70
    64
  0
VERTEX
  5
8F
  8
TEAM-NET
 10
95.52638
 20
-174.56726
 30
685.0
 70
    64
  0
VERTEX
  5
90
  8
TEAM-NET
 10
99.000292
 20
-183.090764
 30
685.0
 70
    64
  0
VERTEX
  5
91
  8
TEAM-NET
 10
101.714408
 20
-191.885748
 30
685.0
 70
    64
  0
VERTEX
  5
92
  8
TEAM-NET
 10
103.647872
 20
-200.884631
 30
685.0
 70
    64
  0
VERTEX
  5
93
  8
TEAM-NET
 10
104.785829
 20
-210.018263
 30
685.0
 70
    64
  0
VERTEX
  5
94
  8
TEAM-NET
 10
105.119534
 20
-219.216459
 30
685.0
 70
    64
  0
VERTEX
  5
95
  8
TEAM-NET
 10
-104.874433
 20
-219.216459
 30
685.0
 70
    64
  0
VERTEX
  5
96
  8
TEAM-NET
 10
-104.540728
 20
-228.414656
 30
685.0
 70
    64
  0
VERTEX
  5
97
  8
TEAM-NET
 10
-103.402771
 20
-237.548288
 30
685.0
 70
    64
  0
VERTEX
  5
98
  8
TEAM-NET
 10
-101.469307
 20
-246.547171
 30
685.0
 70
    64
  0
VERTEX
  5
99
  8
TEAM-NET
 10
-98.755191
 20
-255.342155
 30
685.0
 70
    64
  0
VERTEX
  5
9A
  8
TEAM-NET
 10
-95.281279
 20
-263.865659
 30
685.0
 70
    64
  0
VERTEX
  5
9B
  8
TEAM-NET
 10
-91.074267
 20
-272.052186
 30
685.0
 70
    64
  0
VERTEX
  5
9C
  8
TEAM-NET
 10
-86.166482
 20
-279.83883
 30
685.0
 70
    64
  0
VERTEX
  5
9D
  8
TEAM-NET
 10
-80.595635
 20
-287.165756
 30
685.0
 70
    64
  0
VERTEX
  5
9E
  8
TEAM-NET
 10
-74.404534
 20
-293.976663
 30
685.0
 70
    64
  0
VERTEX
  5
9F
  8
TEAM-NET
 10
-67.640753
 20
-300.219214
 30
685.0
 70
    64
  0
VERTEX
  5
A0
  8
TEAM-NET
 10
-60.356267
 20
-305.845441
 30
685.0
 70
    64
  0
VERTEX
  5
A1
  8
TEAM-NET
 10
-52.607049
 20
-310.812111
 30
685.0
 70
    64
  0
VERTEX
  5
A2
  8
TEAM-NET
 10
-44.452648
 20
-315.081058
 30
685.0
 70
    64
  0
VERTEX
  5
A3
  8
TEAM-NET
 10
-35.955722
 20
-318.61948
 30
685.0
 70
    64
  0
VERTEX
  5
A4
  8
TEAM-NET
 10
-27.181564
 20
-321.400187
 30
685.0
 70
    64
  0
VERTEX
  5
A5
  8
TEAM-NET
 10
-18.197596
 20
-323.40181
 30
685.0
 70
    64
  0
VERTEX
  5
A6
  8
TEAM-NET
 10
-9.072852
 20
-324.60897
 30
685.0
 70
    64
  0
VERTEX
  5
A7
  8
TEAM-NET
 10
0.122551
 20
-325.01239
 30
685.0
 70
    64
  0
VERTEX
  5
A8
  8
TEAM-NET
 10
9.317953
 20
-324.60897
 30
685.0
 70
    64
  0
VERTEX
  5
A9
  8
TEAM-NET
 10
18.442697
 20
-323.40181
 30
685.0
 70
    64
  0
VERTEX
  5
AA
  8
TEAM-NET
 10
27.426665
 20
-321.400187
 30
685.0
 70
    64
  0
VERTEX
  5
AB
  8
TEAM-NET
 10
36.200823
 20
-318.61948
 30
685.0
 70
    64
  0
VERTEX
  5
AC
  8
TEAM-NET
 10
44.697749
 20
-315.081058
 30
685.0
 70
    64
  0
VERTEX
  5
AD
  8
TEAM-NET
 10
52.85215
 20
-310.812111
 30
685.0
 70
    64
  0
VERTEX
  5
AE
  8
TEAM-NET
 10
60.601368
 20
-305.845441
 30
685.0
 70
    64
  0
VERTEX
  5
AF
  8
TEAM-NET
 10
67.885854
 20
-300.219214
 30
685.0
 70
    64
  0
VERTEX
  5
B0
  8
TEAM-NET
 10
74.649635
 20
-293.976663
 30
685.0
 70
    64
  0
VERTEX
  5
B1
  8
TEAM-NET
 10
80.840736
 20
-287.165756
 30
685.0
 70
    64
  0
VERTEX
  5
B2
  8
TEAM-NET
 10
86.411583
 20
-279.83883
 30
685.0
 70
    64
  0
VERTEX
  5
B3
  8
TEAM-NET
 10
91.319368
 20
-272.052186
 30
685.0
 70
    64
  0
VERTEX
  5
B4
  8
TEAM-NET
 10
95.52638
 20
-263.865659
 30
685.0
 70
    64
  0
VERTEX
  5
B5
  8
TEAM-NET
 10
99.000292
 20
-255.342155
 30
685.0
 70
    64
  0
VERTEX
  5
B6
  8
TEAM-NET
 10
101.714408
 20
-246.547171
 30
685.0
 70
    64
  0
VERTEX
  5
B7
  8
TEAM-NET
 10
103.647872
 20
-237.548288
 30
685.0
 70
    64
  0
VERTEX
  5
B8
  8
TEAM-NET
 10
104.785829
 20
-228.414656
 30
685.0
 70
    64
  0
VERTEX
  5
B9
  8
TEAM-NET
 10
105.119534
 20
-219.216459
 30
685.0
 70
    64
  0
SEQEND
  5
BA
  8
TEAM-NET
  0
ARC
  5
BB
  8
TEAM-DET1
 10
0.122551
 20
-218.420529
 30
685.0
 40
105.0
 50
359.565677
 51
180.434323
  0
ARC
  5
BD
  8
TEAM-DET1
 10
0.122551
 20
-220.01239
 30
685.0
 40
105.0
 50
179.565677
 51
0.434323
  0
ARC
  5
BE
  8
TEAM-DET1
 10
0.122551
 20
-220.01239
 30
685.0
 40
110.0
 50
2.614372
 51
0.434323
  0
LINE
  5
BF
  8
TEAM-AXE
 10
-49.971894
 20
-220.01239
 30
685.0
 11
50.216995
 21
-220.01239
 31
685.0
  0
LINE
  5
C2
  8
TEAM-AXE
 10
0.995376
 20
-169.210144
 30
685.0
 11
0.995376
 21
-269.398987
 31
685.0
  0
POLYLINE
  5
C3
  8
STANDARDEBENE
 62
     2
 66
     1
 10
0.0
 20
0.0
 30
685.0
 70
     1
  0
VERTEX
  5
6DB
  8
STANDARDEBENE
 62
     2
 10
25.869461
 20
-221.007019
 30
685.0
  0
VERTEX
  5
6DC
  8
STANDARDEBENE
 62
     2
 10
25.778732
 20
-218.924804
 30
685.0
  0
VERTEX
  5
6DD
  8
STANDARDEBENE
 62
     2
 10
25.506515
 20
-216.861694
 30
685.0
  0
VERTEX
  5
6DE
  8
STANDARDEBENE
 62
     2
 10
25.055191
 20
-214.827209
 30
685.0
  0
VERTEX
  5
6DF
  8
STANDARDEBENE
 62
     2
 10
24.42958
 20
-212.840515
 30
685.0
  0
VERTEX
  5
6E0
  8
STANDARDEBENE
 62
     2
 10
23.632034
 20
-210.915893
 30
685.0
  0
VERTEX
  5
6E1
  8
STANDARDEBENE
 62
     2
 10
22.669723
 20
-209.067688
 30
685.0
  0
VERTEX
  5
6E2
  8
STANDARDEBENE
 62
     2
 10
21.5522
 20
-207.31018
 30
685.0
  0
VERTEX
  5
6E3
  8
STANDARDEBENE
 62
     2
 10
20.281845
 20
-205.657776
 30
685.0
  0
VERTEX
  5
6E4
  8
STANDARDEBENE
 62
     2
 10
18.875381
 20
-204.122375
 30
685.0
  0
VERTEX
  5
6E5
  8
STANDARDEBENE
 62
     2
 10
17.339981
 20
-202.715942
 30
685.0
  0
VERTEX
  5
6E6
  8
STANDARDEBENE
 62
     2
 10
15.687576
 20
-201.445556
 30
685.0
  0
VERTEX
  5
6E7
  8
STANDARDEBENE
 62
     2
 10
13.930099
 20
-200.328064
 30
685.0
  0
VERTEX
  5
6E8
  8
STANDARDEBENE
 62
     2
 10
12.081894
 20
-199.365722
 30
685.0
  0
VERTEX
  5
6E9
  8
STANDARDEBENE
 62
     2
 10
10.157272
 20
-198.568176
 30
685.0
  0
VERTEX
  5
6EA
  8
STANDARDEBENE
 62
     2
 10
8.170563
 20
-197.942566
 30
685.0
  0
VERTEX
  5
6EB
  8
STANDARDEBENE
 62
     2
 10
6.136093
 20
-197.491272
 30
685.0
  0
VERTEX
  5
6EC
  8
STANDARDEBENE
 62
     2
 10
4.072983
 20
-197.219055
 30
685.0
  0
VERTEX
  5
6ED
  8
STANDARDEBENE
 62
     2
 10
1.990753
 20
-197.128296
 30
685.0
  0
VERTEX
  5
6EE
  8
STANDARDEBENE
 62
     2
 10
-0.091477
 20
-197.219055
 30
685.0
  0
VERTEX
  5
6EF
  8
STANDARDEBENE
 62
     2
 10
-2.154587
 20
-197.491272
 30
685.0
  0
VERTEX
  5
6F0
  8
STANDARDEBENE
 62
     2
 10
-4.189057
 20
-197.942566
 30
685.0
  0
VERTEX
  5
6F1
  8
STANDARDEBENE
 62
     2
 10
-6.175766
 20
-198.568176
 30
685.0
  0
VERTEX
  5
6F2
  8
STANDARDEBENE
 62
     2
 10
-8.100388
 20
-199.365722
 30
685.0
  0
VERTEX
  5
6F3
  8
STANDARDEBENE
 62
     2
 10
-9.948593
 20
-200.328064
 30
685.0
  0
VERTEX
  5
6F4
  8
STANDARDEBENE
 62
     2
 10
-11.70607
 20
-201.445556
 30
685.0
  0
VERTEX
  5
6F5
  8
STANDARDEBENE
 62
     2
 10
-13.358475
 20
-202.715942
 30
685.0
  0
VERTEX
  5
6F6
  8
STANDARDEBENE
 62
     2
 10
-14.893875
 20
-204.122375
 30
685.0
  0
VERTEX
  5
6F7
  8
STANDARDEBENE
 62
     2
 10
-16.300339
 20
-205.657776
 30
685.0
  0
VERTEX
  5
6F8
  8
STANDARDEBENE
 62
     2
 10
-17.570679
 20
-207.31018
 30
685.0
  0
VERTEX
  5
6F9
  8
STANDARDEBENE
 62
     2
 10
-18.688202
 20
-209.067688
 30
685.0
  0
VERTEX
  5
6FA
  8
STANDARDEBENE
 62
     2
 10
-19.650513
 20
-210.915893
 30
685.0
  0
VERTEX
  5
6FB
  8
STANDARDEBENE
 62
     2
 10
-20.448075
 20
-212.840515
 30
685.0
  0
VERTEX
  5
6FC
  8
STANDARDEBENE
 62
     2
 10
-21.073685
 20
-214.827209
 30
685.0
  0
VERTEX
  5
6FD
  8
STANDARDEBENE
 62
     2
 10
-21.524994
 20
-216.861694
 30
685.0
  0
VERTEX
  5
6FE
  8
STANDARDEBENE
 62
     2
 10
-21.797211
 20
-218.924804
 30
685.0
  0
VERTEX
  5
6FF
  8
STANDARDEBENE
 62
     2
 10
-21.887955
 20
-221.007019
 30
685.0
  0
VERTEX
  5
700
  8
STANDARDEBENE
 62
     2
 10
-21.797211
 20
-223.089233
 30
685.0
  0
VERTEX
  5
701
  8
STANDARDEBENE
 62
     2
 10
-21.524994
 20
-225.152344
 30
685.0
  0
VERTEX
  5
702
  8
STANDARDEBENE
 62
     2
 10
-21.073685
 20
-227.186828
 30
685.0
  0
VERTEX
  5
703
  8
STANDARDEBENE
 62
     2
 10
-20.448075
 20
-229.173523
 30
685.0
  0
VERTEX
  5
704
  8
STANDARDEBENE
 62
     2
 10
-19.650513
 20
-231.098144
 30
685.0
  0
VERTEX
  5
705
  8
STANDARDEBENE
 62
     2
 10
-18.688202
 20
-232.94635
 30
685.0
  0
VERTEX
  5
706
  8
STANDARDEBENE
 62
     2
 10
-17.570679
 20
-234.703857
 30
685.0
  0
VERTEX
  5
707
  8
STANDARDEBENE
 62
     2
 10
-16.300339
 20
-236.356262
 30
685.0
  0
VERTEX
  5
708
  8
STANDARDEBENE
 62
     2
 10
-14.893875
 20
-237.891662
 30
685.0
  0
VERTEX
  5
709
  8
STANDARDEBENE
 62
     2
 10
-13.358475
 20
-239.298096
 30
685.0
  0
VERTEX
  5
70A
  8
STANDARDEBENE
 62
     2
 10
-11.70607
 20
-240.568481
 30
685.0
  0
VERTEX
  5
70B
  8
STANDARDEBENE
 62
     2
 10
-9.948593
 20
-241.685974
 30
685.0
  0
VERTEX
  5
70C
  8
STANDARDEBENE
 62
     2
 10
-8.100388
 20
-242.648315
 30
685.0
  0
VERTEX
  5
70D
  8
STANDARDEBENE
 62
     2
 10
-6.175766
 20
-243.445862
 30
685.0
  0
VERTEX
  5
70E
  8
STANDARDEBENE
 62
     2
 10
-4.189057
 20
-244.071472
 30
685.0
  0
VERTEX
  5
70F
  8
STANDARDEBENE
 62
     2
 10
-2.154587
 20
-244.522766
 30
685.0
  0
VERTEX
  5
710
  8
STANDARDEBENE
 62
     2
 10
-0.091477
 20
-244.794983
 30
685.0
  0
VERTEX
  5
711
  8
STANDARDEBENE
 62
     2
 10
1.990753
 20
-244.885742
 30
685.0
  0
VERTEX
  5
712
  8
STANDARDEBENE
 62
     2
 10
4.072983
 20
-244.794983
 30
685.0
  0
VERTEX
  5
713
  8
STANDARDEBENE
 62
     2
 10
6.136093
 20
-244.522766
 30
685.0
  0
VERTEX
  5
714
  8
STANDARDEBENE
 62
     2
 10
8.170563
 20
-244.071472
 30
685.0
  0
VERTEX
  5
715
  8
STANDARDEBENE
 62
     2
 10
10.157272
 20
-243.445862
 30
685.0
  0
VERTEX
  5
716
  8
STANDARDEBENE
 62
     2
 10
12.081894
 20
-242.648315
 30
685.0
  0
VERTEX
  5
717
  8
STANDARDEBENE
 62
     2
 10
13.930099
 20
-241.685974
 30
685.0
  0
VERTEX
  5
718
  8
STANDARDEBENE
 62
     2
 10
15.687576
 20
-240.568481
 30
685.0
  0
VERTEX
  5
719
  8
STANDARDEBENE
 62
     2
 10
17.339981
 20
-239.298096
 30
685.0
  0
VERTEX
  5
71A
  8
STANDARDEBENE
 62
     2
 10
18.875381
 20
-237.891662
 30
685.0
  0
VERTEX
  5
71B
  8
STANDARDEBENE
 62
     2
 10
20.281845
 20
-236.356262
 30
685.0
  0
VERTEX
  5
71C
  8
STANDARDEBENE
 62
     2
 10
21.5522
 20
-234.703857
 30
685.0
  0
VERTEX
  5
71D
  8
STANDARDEBENE
 62
     2
 10
22.669723
 20
-232.94635
 30
685.0
  0
VERTEX
  5
71E
  8
STANDARDEBENE
 62
     2
 10
23.632034
 20
-231.098144
 30
685.0
  0
VERTEX
  5
71F
  8
STANDARDEBENE
 62
     2
 10
24.42958
 20
-229.173523
 30
685.0
  0
VERTEX
  5
720
  8
STANDARDEBENE
 62
     2
 10
25.055191
 20
-227.186828
 30
685.0
  0
VERTEX
  5
721
  8
STANDARDEBENE
 62
     2
 10
25.506515
 20
-225.152344
 30
685.0
  0
VERTEX
  5
722
  8
STANDARDEBENE
 62
     2
 10
25.778732
 20
-223.089233
 30
685.0
  0
VERTEX
  5
723
  8
STANDARDEBENE
 62
     2
 10
25.869461
 20
-221.007019
 30
685.0
  0
VERTEX
  5
724
  8
STANDARDEBENE
 62
     2
 10
25.869461
 20
-221.007019
 30
685.0
  0
SEQEND
  5
725
  8
STANDARDEBENE
 62
     2
  0
POLYLINE
  5
C6
  8
TEAM-DET1
 66
     1
 10
0.0
 20
0.0
 30
685.0
 70
     1
  0
VERTEX
  5
726
  8
TEAM-DET1
 10
38.819381
 20
-221.007019
 30
685.0
  0
VERTEX
  5
727
  8
TEAM-DET1
 10
38.679428
 20
-217.795532
 30
685.0
  0
VERTEX
  5
728
  8
TEAM-DET1
 10
38.259598
 20
-214.613586
 30
685.0
  0
VERTEX
  5
729
  8
TEAM-DET1
 10
37.563522
 20
-211.475769
 30
685.0
  0
VERTEX
  5
72A
  8
TEAM-DET1
 10
36.598617
 20
-208.411621
 30
685.0
  0
VERTEX
  5
72B
  8
TEAM-DET1
 10
35.368545
 20
-205.443237
 30
685.0
  0
VERTEX
  5
72C
  8
TEAM-DET1
 10
33.884353
 20
-202.592712
 30
685.0
  0
VERTEX
  5
72D
  8
TEAM-DET1
 10
32.160751
 20
-199.882141
 30
685.0
  0
VERTEX
  5
72E
  8
TEAM-DET1
 10
30.201492
 20
-197.333557
 30
685.0
  0
VERTEX
  5
72F
  8
TEAM-DET1
 10
28.032272
 20
-194.965515
 30
685.0
  0
VERTEX
  5
730
  8
TEAM-DET1
 10
25.6642
 20
-192.796264
 30
685.0
  0
VERTEX
  5
731
  8
TEAM-DET1
 10
23.115646
 20
-190.837036
 30
685.0
  0
VERTEX
  5
732
  8
TEAM-DET1
 10
20.405075
 20
-189.113403
 30
685.0
  0
VERTEX
  5
733
  8
TEAM-DET1
 10
17.554519
 20
-187.629211
 30
685.0
  0
VERTEX
  5
734
  8
TEAM-DET1
 10
14.586151
 20
-186.39917
 30
685.0
  0
VERTEX
  5
735
  8
TEAM-DET1
 10
11.522003
 20
-185.434265
 30
685.0
  0
VERTEX
  5
736
  8
TEAM-DET1
 10
8.384201
 20
-184.738159
 30
685.0
  0
VERTEX
  5
737
  8
TEAM-DET1
 10
5.202209
 20
-184.318359
 30
685.0
  0
VERTEX
  5
738
  8
TEAM-DET1
 10
1.990753
 20
-184.178406
 30
685.0
  0
VERTEX
  5
739
  8
TEAM-DET1
 10
-1.220703
 20
-184.318359
 30
685.0
  0
VERTEX
  5
73A
  8
TEAM-DET1
 10
-4.402695
 20
-184.738159
 30
685.0
  0
VERTEX
  5
73B
  8
TEAM-DET1
 10
-7.540497
 20
-185.434265
 30
685.0
  0
VERTEX
  5
73C
  8
TEAM-DET1
 10
-10.604645
 20
-186.39917
 30
685.0
  0
VERTEX
  5
73D
  8
TEAM-DET1
 10
-13.573029
 20
-187.629211
 30
685.0
  0
VERTEX
  5
73E
  8
TEAM-DET1
 10
-16.423569
 20
-189.113403
 30
685.0
  0
VERTEX
  5
73F
  8
TEAM-DET1
 10
-19.134155
 20
-190.837036
 30
685.0
  0
VERTEX
  5
740
  8
TEAM-DET1
 10
-21.682694
 20
-192.796264
 30
685.0
  0
VERTEX
  5
741
  8
TEAM-DET1
 10
-24.050766
 20
-194.965515
 30
685.0
  0
VERTEX
  5
742
  8
TEAM-DET1
 10
-26.219971
 20
-197.333557
 30
685.0
  0
VERTEX
  5
743
  8
TEAM-DET1
 10
-28.17926
 20
-199.882141
 30
685.0
  0
VERTEX
  5
744
  8
TEAM-DET1
 10
-29.902832
 20
-202.592712
 30
685.0
  0
VERTEX
  5
745
  8
TEAM-DET1
 10
-31.387039
 20
-205.443237
 30
685.0
  0
VERTEX
  5
746
  8
TEAM-DET1
 10
-32.617111
 20
-208.411621
 30
685.0
  0
VERTEX
  5
747
  8
TEAM-DET1
 10
-33.582016
 20
-211.475769
 30
685.0
  0
VERTEX
  5
748
  8
TEAM-DET1
 10
-34.278076
 20
-214.613586
 30
685.0
  0
VERTEX
  5
749
  8
TEAM-DET1
 10
-34.697922
 20
-217.795532
 30
685.0
  0
VERTEX
  5
74A
  8
TEAM-DET1
 10
-34.837876
 20
-221.007019
 30
685.0
  0
VERTEX
  5
74B
  8
TEAM-DET1
 10
-34.697922
 20
-224.218506
 30
685.0
  0
VERTEX
  5
74C
  8
TEAM-DET1
 10
-34.278076
 20
-227.400451
 30
685.0
  0
VERTEX
  5
74D
  8
TEAM-DET1
 10
-33.582016
 20
-230.538269
 30
685.0
  0
VERTEX
  5
74E
  8
TEAM-DET1
 10
-32.617111
 20
-233.602417
 30
685.0
  0
VERTEX
  5
74F
  8
TEAM-DET1
 10
-31.387039
 20
-236.570801
 30
685.0
  0
VERTEX
  5
750
  8
TEAM-DET1
 10
-29.902832
 20
-239.421325
 30
685.0
  0
VERTEX
  5
751
  8
TEAM-DET1
 10
-28.17926
 20
-242.131897
 30
685.0
  0
VERTEX
  5
752
  8
TEAM-DET1
 10
-26.219971
 20
-244.680481
 30
685.0
  0
VERTEX
  5
753
  8
TEAM-DET1
 10
-24.050766
 20
-247.048523
 30
685.0
  0
VERTEX
  5
754
  8
TEAM-DET1
 10
-21.682694
 20
-249.217773
 30
685.0
  0
VERTEX
  5
755
  8
TEAM-DET1
 10
-19.134155
 20
-251.177002
 30
685.0
  0
VERTEX
  5
756
  8
TEAM-DET1
 10
-16.423569
 20
-252.900635
 30
685.0
  0
VERTEX
  5
757
  8
TEAM-DET1
 10
-13.573029
 20
-254.384826
 30
685.0
  0
VERTEX
  5
758
  8
TEAM-DET1
 10
-10.604645
 20
-255.614868
 30
685.0
  0
VERTEX
  5
759
  8
TEAM-DET1
 10
-7.540497
 20
-256.579773
 30
685.0
  0
VERTEX
  5
75A
  8
TEAM-DET1
 10
-4.402695
 20
-257.275879
 30
685.0
  0
VERTEX
  5
75B
  8
TEAM-DET1
 10
-1.220703
 20
-257.695679
 30
685.0
  0
VERTEX
  5
75C
  8
TEAM-DET1
 10
1.990753
 20
-257.835632
 30
685.0
  0
VERTEX
  5
75D
  8
TEAM-DET1
 10
5.202209
 20
-257.695679
 30
685.0
  0
VERTEX
  5
75E
  8
TEAM-DET1
 10
8.384201
 20
-257.275879
 30
685.0
  0
VERTEX
  5
75F
  8
TEAM-DET1
 10
11.522003
 20
-256.579773
 30
685.0
  0
VERTEX
  5
760
  8
TEAM-DET1
 10
14.586151
 20
-255.614868
 30
685.0
  0
VERTEX
  5
761
  8
TEAM-DET1
 10
17.554519
 20
-254.384826
 30
685.0
  0
VERTEX
  5
762
  8
TEAM-DET1
 10
20.405075
 20
-252.900635
 30
685.0
  0
VERTEX
  5
763
  8
TEAM-DET1
 10
23.115646
 20
-251.177002
 30
685.0
  0
VERTEX
  5
764
  8
TEAM-DET1
 10
25.6642
 20
-249.217773
 30
685.0
  0
VERTEX
  5
765
  8
TEAM-DET1
 10
28.032272
 20
-247.048523
 30
685.0
  0
VERTEX
  5
766
  8
TEAM-DET1
 10
30.201492
 20
-244.680481
 30
685.0
  0
VERTEX
  5
767
  8
TEAM-DET1
 10
32.160751
 20
-242.131897
 30
685.0
  0
VERTEX
  5
768
  8
TEAM-DET1
 10
33.884353
 20
-239.421325
 30
685.0
  0
VERTEX
  5
769
  8
TEAM-DET1
 10
35.368545
 20
-236.570801
 30
685.0
  0
VERTEX
  5
76A
  8
TEAM-DET1
 10
36.598617
 20
-233.602417
 30
685.0
  0
VERTEX
  5
76B
  8
TEAM-DET1
 10
37.563522
 20
-230.538269
 30
685.0
  0
VERTEX
  5
76C
  8
TEAM-DET1
 10
38.259598
 20
-227.400451
 30
685.0
  0
VERTEX
  5
76D
  8
TEAM-DET1
 10
38.679428
 20
-224.218506
 30
685.0
  0
VERTEX
  5
76E
  8
TEAM-DET1
 10
38.819381
 20
-221.007019
 30
685.0
  0
VERTEX
  5
76F
  8
TEAM-DET1
 10
38.819381
 20
-221.007019
 30
685.0
  0
SEQEND
  5
770
  8
TEAM-DET1
  0
POLYLINE
  5
C7
  8
TEAM-DET1
 66
     1
 10
0.0
 20
0.0
 30
830.0
 70
     1
  0
VERTEX
  5
771
  8
TEAM-DET1
 10
15.091156
 20
-48.733154
 30
830.0
  0
VERTEX
  5
772
  8
TEAM-DET1
 10
14.900818
 20
-47.64624
 30
830.0
  0
VERTEX
  5
773
  8
TEAM-DET1
 10
14.336075
 20
-46.591858
 30
830.0
  0
VERTEX
  5
774
  8
TEAM-DET1
 10
13.413193
 20
-45.6026
 30
830.0
  0
VERTEX
  5
775
  8
TEAM-DET1
 10
12.16098
 20
-44.708557
 30
830.0
  0
VERTEX
  5
776
  8
TEAM-DET1
 10
10.618255
 20
-43.937195
 30
830.0
  0
VERTEX
  5
777
  8
TEAM-DET1
 10
8.830093
 20
-43.311096
 30
830.0
  0
VERTEX
  5
778
  8
TEAM-DET1
 10
6.851608
 20
-42.84967
 30
830.0
  0
VERTEX
  5
779
  8
TEAM-DET1
 10
4.742889
 20
-42.567261
 30
830.0
  0
VERTEX
  5
77A
  8
TEAM-DET1
 10
2.569046
 20
-42.472107
 30
830.0
  0
VERTEX
  5
77B
  8
TEAM-DET1
 10
0.395202
 20
-42.567261
 30
830.0
  0
VERTEX
  5
77C
  8
TEAM-DET1
 10
-1.713516
 20
-42.84967
 30
830.0
  0
VERTEX
  5
77D
  8
TEAM-DET1
 10
-3.692002
 20
-43.311096
 30
830.0
  0
VERTEX
  5
77E
  8
TEAM-DET1
 10
-5.480164
 20
-43.937195
 30
830.0
  0
VERTEX
  5
77F
  8
TEAM-DET1
 10
-7.022888
 20
-44.708557
 30
830.0
  0
VERTEX
  5
780
  8
TEAM-DET1
 10
-8.275101
 20
-45.6026
 30
830.0
  0
VERTEX
  5
781
  8
TEAM-DET1
 10
-9.197983
 20
-46.591858
 30
830.0
  0
VERTEX
  5
782
  8
TEAM-DET1
 10
-9.762726
 20
-47.64624
 30
830.0
  0
VERTEX
  5
783
  8
TEAM-DET1
 10
-9.953064
 20
-48.733154
 30
830.0
  0
VERTEX
  5
784
  8
TEAM-DET1
 10
-9.762726
 20
-49.820068
 30
830.0
  0
VERTEX
  5
785
  8
TEAM-DET1
 10
-9.197983
 20
-50.87445
 30
830.0
  0
VERTEX
  5
786
  8
TEAM-DET1
 10
-8.275101
 20
-51.863708
 30
830.0
  0
VERTEX
  5
787
  8
TEAM-DET1
 10
-7.022888
 20
-52.757751
 30
830.0
  0
VERTEX
  5
788
  8
TEAM-DET1
 10
-5.480164
 20
-53.529114
 30
830.0
  0
VERTEX
  5
789
  8
TEAM-DET1
 10
-3.692002
 20
-54.155212
 30
830.0
  0
VERTEX
  5
78A
  8
TEAM-DET1
 10
-1.713516
 20
-54.616638
 30
830.0
  0
VERTEX
  5
78B
  8
TEAM-DET1
 10
0.395202
 20
-54.899048
 30
830.0
  0
VERTEX
  5
78C
  8
TEAM-DET1
 10
2.569046
 20
-54.994201
 30
830.0
  0
VERTEX
  5
78D
  8
TEAM-DET1
 10
4.742889
 20
-54.899048
 30
830.0
  0
VERTEX
  5
78E
  8
TEAM-DET1
 10
6.851608
 20
-54.616638
 30
830.0
  0
VERTEX
  5
78F
  8
TEAM-DET1
 10
8.830093
 20
-54.155212
 30
830.0
  0
VERTEX
  5
790
  8
TEAM-DET1
 10
10.618255
 20
-53.529114
 30
830.0
  0
VERTEX
  5
791
  8
TEAM-DET1
 10
12.16098
 20
-52.757751
 30
830.0
  0
VERTEX
  5
792
  8
TEAM-DET1
 10
13.413193
 20
-51.863708
 30
830.0
  0
VERTEX
  5
793
  8
TEAM-DET1
 10
14.336075
 20
-50.87445
 30
830.0
  0
VERTEX
  5
794
  8
TEAM-DET1
 10
14.900818
 20
-49.820068
 30
830.0
  0
VERTEX
  5
795
  8
TEAM-DET1
 10
15.091156
 20
-48.733154
 30
830.0
  0
VERTEX
  5
796
  8
TEAM-DET1
 10
15.091156
 20
-48.733154
 30
830.0
  0
SEQEND
  5
797
  8
TEAM-DET1
  0
TEXT
  5
C8
  8
TEAM-TXT
 10
-85.19933
 20
-121.729814
 30
850.0
 40
24.999999
  1
team 211120
 41
0.8
 51
15.0
  7
TEAM
  0
POLYLINE
  5
CB
  8
TEAM-NET
 66
     1
 10
0.0
 20
0.0
 30
0.0
 70
    16
 71
     2
 72
    37
  0
VERTEX
  5
CC
  8
TEAM-NET
 10
209.622588
 20
-219.178558
 30
850.0
 70
    64
  0
VERTEX
  5
CD
  8
TEAM-NET
 10
204.86747
 20
-255.325137
 30
850.0
 70
    64
  0
VERTEX
  5
CE
  8
TEAM-NET
 10
193.93573
 20
-290.105888
 30
850.0
 70
    64
  0
VERTEX
  5
CF
  8
TEAM-NET
 10
177.149037
 20
-322.47056
 30
850.0
 70
    64
  0
VERTEX
  5
D0
  8
TEAM-NET
 10
155.005324
 20
-351.433015
 30
850.0
 70
    64
  0
VERTEX
  5
D1
  8
TEAM-NET
 10
128.190024
 20
-376.135042
 30
850.0
 70
    64
  0
VERTEX
  5
D2
  8
TEAM-NET
 10
97.498291
 20
-395.811888
 30
850.0
 70
    64
  0
VERTEX
  5
D3
  8
TEAM-NET
 10
63.866187
 20
-409.885952
 30
850.0
 70
    64
  0
VERTEX
  5
D4
  8
TEAM-NET
 10
28.304824
 20
-417.926894
 30
850.0
 70
    64
  0
VERTEX
  5
D5
  8
TEAM-NET
 10
-8.111033
 20
-419.689758
 30
850.0
 70
    64
  0
VERTEX
  5
D6
  8
TEAM-NET
 10
-44.281468
 20
-415.115799
 30
850.0
 70
    64
  0
VERTEX
  5
D7
  8
TEAM-NET
 10
-79.117125
 20
-404.358123
 30
850.0
 70
    64
  0
VERTEX
  5
D8
  8
TEAM-NET
 10
-111.565519
 20
-387.732393
 30
850.0
 70
    64
  0
VERTEX
  5
D9
  8
TEAM-NET
 10
-140.639426
 20
-365.73408
 30
850.0
 70
    64
  0
VERTEX
  5
DA
  8
TEAM-NET
 10
-165.475354
 20
-339.041612
 30
850.0
 70
    64
  0
VERTEX
  5
DB
  8
TEAM-NET
 10
-185.306793
 20
-308.448475
 30
850.0
 70
    64
  0
VERTEX
  5
DC
  8
TEAM-NET
 10
-199.54988
 20
-274.886355
 30
850.0
 70
    64
  0
VERTEX
  5
DD
  8
TEAM-NET
 10
-207.768347
 20
-239.364343
 30
850.0
 70
    64
  0
VERTEX
  5
DE
  8
TEAM-NET
 10
-209.713741
 20
-202.956489
 30
850.0
 70
    64
  0
VERTEX
  5
DF
  8
TEAM-NET
 10
-205.32092
 20
-166.762202
 30
850.0
 70
    64
  0
VERTEX
  5
E0
  8
TEAM-NET
 10
-194.737293
 20
-131.871639
 30
850.0
 70
    64
  0
VERTEX
  5
E1
  8
TEAM-NET
 10
-178.272526
 20
-99.339526
 30
850.0
 70
    64
  0
VERTEX
  5
E2
  8
TEAM-NET
 10
-156.419622
 20
-70.154161
 30
850.0
 70
    64
  0
VERTEX
  5
E3
  8
TEAM-NET
 10
-129.849991
 20
-45.184328
 30
850.0
 70
    64
  0
VERTEX
  5
E4
  8
TEAM-NET
 10
-99.355448
 20
-25.198293
 30
850.0
 70
    64
  0
VERTEX
  5
E5
  8
TEAM-NET
 10
-65.863308
 20
-10.786194
 30
850.0
 70
    64
  0
VERTEX
  5
E6
  8
TEAM-NET
 10
-30.380643
 20
-2.390204
 30
850.0
 70
    64
  0
VERTEX
  5
E7
  8
TEAM-NET
 10
6.019207
 20
-0.262289
 30
850.0
 70
    64
  0
VERTEX
  5
E8
  8
TEAM-NET
 10
42.237342
 20
-4.473973
 30
850.0
 70
    64
  0
VERTEX
  5
E9
  8
TEAM-NET
 10
77.182814
 20
-14.883541
 30
850.0
 70
    64
  0
VERTEX
  5
EA
  8
TEAM-NET
 10
109.798653
 20
-31.187332
 30
850.0
 70
    64
  0
VERTEX
  5
EB
  8
TEAM-NET
 10
139.095479
 20
-52.894823
 30
850.0
 70
    64
  0
VERTEX
  5
EC
  8
TEAM-NET
 10
164.199198
 20
-79.34164
 30
850.0
 70
    64
  0
VERTEX
  5
ED
  8
TEAM-NET
 10
184.339836
 20
-109.73758
 30
850.0
 70
    64
  0
VERTEX
  5
EE
  8
TEAM-NET
 10
198.920973
 20
-143.159731
 30
850.0
 70
    64
  0
VERTEX
  5
EF
  8
TEAM-NET
 10
207.494464
 20
-178.60305
 30
850.0
 70
    64
  0
VERTEX
  5
F0
  8
TEAM-NET
 10
209.8049
 20
-214.994898
 30
850.0
 70
    64
  0
VERTEX
  5
F1
  8
TEAM-NET
 10
196.68298
 20
-219.178558
 30
850.0
 70
    64
  0
VERTEX
  5
F2
  8
TEAM-NET
 10
192.124679
 20
-253.078257
 30
850.0
 70
    64
  0
VERTEX
  5
F3
  8
TEAM-NET
 10
181.7765
 20
-285.680273
 30
850.0
 70
    64
  0
VERTEX
  5
F4
  8
TEAM-NET
 10
165.943264
 20
-316.000867
 30
850.0
 70
    64
  0
VERTEX
  5
F5
  8
TEAM-NET
 10
145.093244
 20
-343.11581
 30
850.0
 70
    64
  0
VERTEX
  5
F6
  8
TEAM-NET
 10
119.87284
 20
-366.222993
 30
850.0
 70
    64
  0
VERTEX
  5
F7
  8
TEAM-NET
 10
91.0286
 20
-384.606125
 30
850.0
 70
    64
  0
VERTEX
  5
F8
  8
TEAM-NET
 10
59.440552
 20
-397.72668
 30
850.0
 70
    64
  0
VERTEX
  5
F9
  8
TEAM-NET
 10
26.057924
 20
-405.184045
 30
850.0
 70
    64
  0
VERTEX
  5
FA
  8
TEAM-NET
 10
-8.111039
 20
-406.750165
 30
850.0
 70
    64
  0
VERTEX
  5
FB
  8
TEAM-NET
 10
-42.03459
 20
-402.372995
 30
850.0
 70
    64
  0
VERTEX
  5
FC
  8
TEAM-NET
 10
-74.691514
 20
-392.198875
 30
850.0
 70
    64
  0
VERTEX
  5
FD
  8
TEAM-NET
 10
-105.095836
 20
-376.526617
 30
850.0
 70
    64
  0
VERTEX
  5
FE
  8
TEAM-NET
 10
-132.322226
 20
-355.821989
 30
850.0
 70
    64
  0
VERTEX
  5
FF
  8
TEAM-NET
 10
-155.563322
 20
-330.724431
 30
850.0
 70
    64
  0
VERTEX
  5
100
  8
TEAM-NET
 10
-174.101046
 20
-301.978784
 30
850.0
 70
    64
  0
VERTEX
  5
101
  8
TEAM-NET
 10
-187.390624
 20
-270.46072
 30
850.0
 70
    64
  0
VERTEX
  5
102
  8
TEAM-NET
 10
-195.025498
 20
-237.117439
 30
850.0
 70
    64
  0
VERTEX
  5
103
  8
TEAM-NET
 10
-196.774135
 20
-202.956477
 30
850.0
 70
    64
  0
VERTEX
  5
104
  8
TEAM-NET
 10
-192.578117
 20
-169.009074
 30
850.0
 70
    64
  0
VERTEX
  5
105
  8
TEAM-NET
 10
-182.578054
 20
-136.297243
 30
850.0
 70
    64
  0
VERTEX
  5
106
  8
TEAM-NET
 10
-167.066763
 20
-105.809199
 30
850.0
 70
    64
  0
VERTEX
  5
107
  8
TEAM-NET
 10
-146.50754
 20
-78.471356
 30
850.0
 70
    64
  0
VERTEX
  5
108
  8
TEAM-NET
 10
-121.532808
 20
-55.096364
 30
850.0
 70
    64
  0
VERTEX
  5
109
  8
TEAM-NET
 10
-92.885754
 20
-36.40405
 30
850.0
 70
    64
  0
VERTEX
  5
10A
  8
TEAM-NET
 10
-61.437687
 20
-22.94542
 30
850.0
 70
    64
  0
VERTEX
  5
10B
  8
TEAM-NET
 10
-28.133746
 20
-15.133049
 30
850.0
 70
    64
  0
VERTEX
  5
10C
  8
TEAM-NET
 10
6.019211
 20
-13.201876
 30
850.0
 70
    64
  0
VERTEX
  5
10D
  8
TEAM-NET
 10
39.990464
 20
-17.216767
 30
850.0
 70
    64
  0
VERTEX
  5
10E
  8
TEAM-NET
 10
72.757205
 20
-27.042756
 30
850.0
 70
    64
  0
VERTEX
  5
10F
  8
TEAM-NET
 10
103.328967
 20
-42.393095
 30
850.0
 70
    64
  0
VERTEX
  5
110
  8
TEAM-NET
 10
130.778266
 20
-62.806912
 30
850.0
 70
    64
  0
VERTEX
  5
111
  8
TEAM-NET
 10
154.287159
 20
-87.658813
 30
850.0
 70
    64
  0
VERTEX
  5
112
  8
TEAM-NET
 10
173.13407
 20
-116.20727
 30
850.0
 70
    64
  0
VERTEX
  5
113
  8
TEAM-NET
 10
186.761726
 20
-147.585351
 30
850.0
 70
    64
  0
VERTEX
  5
114
  8
TEAM-NET
 10
194.751614
 20
-180.849942
 30
850.0
 70
    64
  0
VERTEX
  5
115
  8
TEAM-NET
 10
196.865293
 20
-214.994898
 30
850.0
 70
    64
  0
SEQEND
  5
116
  8
TEAM-NET
  0
POLYLINE
  5
117
  8
STANDARDEBENE
 62
     2
 66
     1
 10
0.0
 20
0.0
 30
850.0
  0
VERTEX
  5
798
  8
STANDARDEBENE
 62
     2
 10
209.8049
 20
-214.994898
 30
850.0
  0
VERTEX
  5
799
  8
STANDARDEBENE
 62
     2
 10
210.021621
 20
-210.021606
 30
850.0
  0
VERTEX
  5
79A
  8
STANDARDEBENE
 62
     2
 10
210.021621
 20
-210.021606
 30
850.0
  0
VERTEX
  5
79B
  8
STANDARDEBENE
 62
     2
 10
210.021621
 20
-210.021606
 30
850.0
  0
VERTEX
  5
79C
  8
STANDARDEBENE
 62
     2
 10
209.223556
 20
-191.707702
 30
850.0
  0
VERTEX
  5
79D
  8
STANDARDEBENE
 62
     2
 10
206.8293
 20
-173.561828
 30
850.0
  0
VERTEX
  5
79E
  8
STANDARDEBENE
 62
     2
 10
202.859878
 20
-155.66803
 30
850.0
  0
VERTEX
  5
79F
  8
STANDARDEBENE
 62
     2
 10
197.357315
 20
-138.194214
 30
850.0
  0
VERTEX
  5
7A0
  8
STANDARDEBENE
 62
     2
 10
190.342605
 20
-121.266479
 30
850.0
  0
VERTEX
  5
7A1
  8
STANDARDEBENE
 62
     2
 10
181.878738
 20
-105.010803
 30
850.0
  0
VERTEX
  5
7A2
  8
STANDARDEBENE
 62
     2
 10
172.049698
 20
-89.553222
 30
850.0
  0
VERTEX
  5
7A3
  8
STANDARDEBENE
 62
     2
 10
160.876571
 20
-75.019714
 30
850.0
  0
VERTEX
  5
7A4
  8
STANDARDEBENE
 62
     2
 10
148.506271
 20
-61.51532
 30
850.0
  0
VERTEX
  5
7A5
  8
STANDARDEBENE
 62
     2
 10
135.001907
 20
-49.145019
 30
850.0
  0
VERTEX
  5
7A6
  8
STANDARDEBENE
 62
     2
 10
120.468399
 20
-37.971924
 30
850.0
  0
VERTEX
  5
7A7
  8
STANDARDEBENE
 62
     2
 10
105.010818
 20
-28.142883
 30
850.0
  0
VERTEX
  5
7A8
  8
STANDARDEBENE
 62
     2
 10
88.755142
 20
-19.679016
 30
850.0
  0
VERTEX
  5
7A9
  8
STANDARDEBENE
 62
     2
 10
71.827408
 20
-12.664306
 30
850.0
  0
VERTEX
  5
7AA
  8
STANDARDEBENE
 62
     2
 10
54.353592
 20
-7.161743
 30
850.0
  0
VERTEX
  5
7AB
  8
STANDARDEBENE
 62
     2
 10
36.459762
 20
-3.192322
 30
850.0
  0
VERTEX
  5
7AC
  8
STANDARDEBENE
 62
     2
 10
18.313888
 20
-0.798034
 30
850.0
  0
VERTEX
  5
7AD
  8
STANDARDEBENE
 62
     2
 10
0.0
 20
0.0
 30
850.0
  0
VERTEX
  5
7AE
  8
STANDARDEBENE
 62
     2
 10
-18.313889
 20
-0.798034
 30
850.0
  0
VERTEX
  5
7AF
  8
STANDARDEBENE
 62
     2
 10
-36.459748
 20
-3.192322
 30
850.0
  0
VERTEX
  5
7B0
  8
STANDARDEBENE
 62
     2
 10
-54.353592
 20
-7.161743
 30
850.0
  0
VERTEX
  5
7B1
  8
STANDARDEBENE
 62
     2
 10
-71.827393
 20
-12.664306
 30
850.0
  0
VERTEX
  5
7B2
  8
STANDARDEBENE
 62
     2
 10
-88.755142
 20
-19.679016
 30
850.0
  0
VERTEX
  5
7B3
  8
STANDARDEBENE
 62
     2
 10
-105.010819
 20
-28.142883
 30
850.0
  0
VERTEX
  5
7B4
  8
STANDARDEBENE
 62
     2
 10
-120.468399
 20
-37.971924
 30
850.0
  0
VERTEX
  5
7B5
  8
STANDARDEBENE
 62
     2
 10
-135.001892
 20
-49.145019
 30
850.0
  0
VERTEX
  5
7B6
  8
STANDARDEBENE
 62
     2
 10
-148.506287
 20
-61.51532
 30
850.0
  0
VERTEX
  5
7B7
  8
STANDARDEBENE
 62
     2
 10
-160.876557
 20
-75.019714
 30
850.0
  0
VERTEX
  5
7B8
  8
STANDARDEBENE
 62
     2
 10
-172.049706
 20
-89.553222
 30
850.0
  0
VERTEX
  5
7B9
  8
STANDARDEBENE
 62
     2
 10
-181.878723
 20
-105.010803
 30
850.0
  0
VERTEX
  5
7BA
  8
STANDARDEBENE
 62
     2
 10
-190.342598
 20
-121.266479
 30
850.0
  0
VERTEX
  5
7BB
  8
STANDARDEBENE
 62
     2
 10
-197.357319
 20
-138.194214
 30
850.0
  0
VERTEX
  5
7BC
  8
STANDARDEBENE
 62
     2
 10
-202.859886
 20
-155.66803
 30
850.0
  0
VERTEX
  5
7BD
  8
STANDARDEBENE
 62
     2
 10
-206.829289
 20
-173.561828
 30
850.0
  0
VERTEX
  5
7BE
  8
STANDARDEBENE
 62
     2
 10
-209.223545
 20
-191.707702
 30
850.0
  0
VERTEX
  5
7BF
  8
STANDARDEBENE
 62
     2
 10
-210.021622
 20
-210.021606
 30
850.0
  0
VERTEX
  5
7C0
  8
STANDARDEBENE
 62
     2
 10
-209.223545
 20
-228.33551
 30
850.0
  0
VERTEX
  5
7C1
  8
STANDARDEBENE
 62
     2
 10
-206.829289
 20
-246.481384
 30
850.0
  0
VERTEX
  5
7C2
  8
STANDARDEBENE
 62
     2
 10
-202.859886
 20
-264.375183
 30
850.0
  0
VERTEX
  5
7C3
  8
STANDARDEBENE
 62
     2
 10
-197.357319
 20
-281.848999
 30
850.0
  0
VERTEX
  5
7C4
  8
STANDARDEBENE
 62
     2
 10
-190.342598
 20
-298.776733
 30
850.0
  0
VERTEX
  5
7C5
  8
STANDARDEBENE
 62
     2
 10
-181.878723
 20
-315.032409
 30
850.0
  0
VERTEX
  5
7C6
  8
STANDARDEBENE
 62
     2
 10
-172.049706
 20
-330.490021
 30
850.0
  0
VERTEX
  5
7C7
  8
STANDARDEBENE
 62
     2
 10
-160.876557
 20
-345.023498
 30
850.0
  0
VERTEX
  5
7C8
  8
STANDARDEBENE
 62
     2
 10
-148.506287
 20
-358.527893
 30
850.0
  0
VERTEX
  5
7C9
  8
STANDARDEBENE
 62
     2
 10
-135.001892
 20
-370.898163
 30
850.0
  0
VERTEX
  5
7CA
  8
STANDARDEBENE
 62
     2
 10
-120.468399
 20
-382.071319
 30
850.0
  0
VERTEX
  5
7CB
  8
STANDARDEBENE
 62
     2
 10
-105.010819
 20
-391.900329
 30
850.0
  0
VERTEX
  5
7CC
  8
STANDARDEBENE
 62
     2
 10
-88.755142
 20
-400.364197
 30
850.0
  0
VERTEX
  5
7CD
  8
STANDARDEBENE
 62
     2
 10
-71.827393
 20
-407.378937
 30
850.0
  0
VERTEX
  5
7CE
  8
STANDARDEBENE
 62
     2
 10
-54.353592
 20
-412.8815
 30
850.0
  0
VERTEX
  5
7CF
  8
STANDARDEBENE
 62
     2
 10
-36.459748
 20
-416.850891
 30
850.0
  0
VERTEX
  5
7D0
  8
STANDARDEBENE
 62
     2
 10
-18.313889
 20
-419.245148
 30
850.0
  0
VERTEX
  5
7D1
  8
STANDARDEBENE
 62
     2
 10
0.0
 20
-420.043213
 30
850.0
  0
VERTEX
  5
7D2
  8
STANDARDEBENE
 62
     2
 10
18.313888
 20
-419.245148
 30
850.0
  0
VERTEX
  5
7D3
  8
STANDARDEBENE
 62
     2
 10
36.459762
 20
-416.850891
 30
850.0
  0
VERTEX
  5
7D4
  8
STANDARDEBENE
 62
     2
 10
54.353592
 20
-412.8815
 30
850.0
  0
VERTEX
  5
7D5
  8
STANDARDEBENE
 62
     2
 10
71.827408
 20
-407.378937
 30
850.0
  0
VERTEX
  5
7D6
  8
STANDARDEBENE
 62
     2
 10
88.755142
 20
-400.364197
 30
850.0
  0
VERTEX
  5
7D7
  8
STANDARDEBENE
 62
     2
 10
105.010818
 20
-391.900329
 30
850.0
  0
VERTEX
  5
7D8
  8
STANDARDEBENE
 62
     2
 10
120.468399
 20
-382.071319
 30
850.0
  0
VERTEX
  5
7D9
  8
STANDARDEBENE
 62
     2
 10
135.001907
 20
-370.898163
 30
850.0
  0
VERTEX
  5
7DA
  8
STANDARDEBENE
 62
     2
 10
148.506271
 20
-358.527893
 30
850.0
  0
VERTEX
  5
7DB
  8
STANDARDEBENE
 62
     2
 10
160.876571
 20
-345.023498
 30
850.0
  0
VERTEX
  5
7DC
  8
STANDARDEBENE
 62
     2
 10
172.049698
 20
-330.490021
 30
850.0
  0
VERTEX
  5
7DD
  8
STANDARDEBENE
 62
     2
 10
181.878738
 20
-315.032409
 30
850.0
  0
VERTEX
  5
7DE
  8
STANDARDEBENE
 62
     2
 10
190.342605
 20
-298.776733
 30
850.0
  0
VERTEX
  5
7DF
  8
STANDARDEBENE
 62
     2
 10
197.357315
 20
-281.848999
 30
850.0
  0
VERTEX
  5
7E0
  8
STANDARDEBENE
 62
     2
 10
202.859878
 20
-264.375183
 30
850.0
  0
VERTEX
  5
7E1
  8
STANDARDEBENE
 62
     2
 10
206.8293
 20
-246.481384
 30
850.0
  0
VERTEX
  5
7E2
  8
STANDARDEBENE
 62
     2
 10
209.223556
 20
-228.33551
 30
850.0
  0
VERTEX
  5
7E3
  8
STANDARDEBENE
 62
     2
 10
209.622588
 20
-219.178558
 30
850.0
  0
SEQEND
  5
7E4
  8
STANDARDEBENE
 62
     2
  0
POLYLINE
  5
118
  8
STANDARDEBENE
 62
     2
 66
     1
 10
0.0
 20
0.0
 30
850.0
  0
VERTEX
  5
7E5
  8
STANDARDEBENE
 62
     2
 10
196.865293
 20
-214.994898
 30
850.0
  0
VERTEX
  5
7E6
  8
STANDARDEBENE
 62
     2
 10
197.082016
 20
-210.021606
 30
850.0
  0
VERTEX
  5
7E7
  8
STANDARDEBENE
 62
     2
 10
197.082016
 20
-210.021606
 30
850.0
  0
VERTEX
  5
7E8
  8
STANDARDEBENE
 62
     2
 10
197.082016
 20
-210.021606
 30
850.0
  0
VERTEX
  5
7E9
  8
STANDARDEBENE
 62
     2
 10
196.333114
 20
-192.836059
 30
850.0
  0
VERTEX
  5
7EA
  8
STANDARDEBENE
 62
     2
 10
194.08638
 20
-175.808166
 30
850.0
  0
VERTEX
  5
7EB
  8
STANDARDEBENE
 62
     2
 10
190.361526
 20
-159.016784
 30
850.0
  0
VERTEX
  5
7EC
  8
STANDARDEBENE
 62
     2
 10
185.197983
 20
-142.619568
 30
850.0
  0
VERTEX
  5
7ED
  8
STANDARDEBENE
 62
     2
 10
178.615433
 20
-126.734741
 30
850.0
  0
VERTEX
  5
7EE
  8
STANDARDEBENE
 62
     2
 10
170.673019
 20
-111.480591
 30
850.0
  0
VERTEX
  5
7EF
  8
STANDARDEBENE
 62
     2
 10
161.449569
 20
-96.975342
 30
850.0
  0
VERTEX
  5
7F0
  8
STANDARDEBENE
 62
     2
 10
150.964828
 20
-83.33728
 30
850.0
  0
VERTEX
  5
7F1
  8
STANDARDEBENE
 62
     2
 10
139.356674
 20
-70.664917
 30
850.0
  0
VERTEX
  5
7F2
  8
STANDARDEBENE
 62
     2
 10
126.684311
 20
-59.056762
 30
850.0
  0
VERTEX
  5
7F3
  8
STANDARDEBENE
 62
     2
 10
113.046249
 20
-48.572021
 30
850.0
  0
VERTEX
  5
7F4
  8
STANDARDEBENE
 62
     2
 10
98.541
 20
-39.348572
 30
850.0
  0
VERTEX
  5
7F5
  8
STANDARDEBENE
 62
     2
 10
83.28685
 20
-31.406189
 30
850.0
  0
VERTEX
  5
7F6
  8
STANDARDEBENE
 62
     2
 10
67.402054
 20
-24.823608
 30
850.0
  0
VERTEX
  5
7F7
  8
STANDARDEBENE
 62
     2
 10
51.004837
 20
-19.660095
 30
850.0
  0
VERTEX
  5
7F8
  8
STANDARDEBENE
 62
     2
 10
34.213424
 20
-15.935241
 30
850.0
  0
VERTEX
  5
7F9
  8
STANDARDEBENE
 62
     2
 10
17.185562
 20
-13.688476
 30
850.0
  0
VERTEX
  5
7FA
  8
STANDARDEBENE
 62
     2
 10
0.0
 20
-12.939575
 30
850.0
  0
VERTEX
  5
7FB
  8
STANDARDEBENE
 62
     2
 10
-17.185547
 20
-13.688476
 30
850.0
  0
VERTEX
  5
7FC
  8
STANDARDEBENE
 62
     2
 10
-34.21344
 20
-15.935241
 30
850.0
  0
VERTEX
  5
7FD
  8
STANDARDEBENE
 62
     2
 10
-51.004822
 20
-19.660095
 30
850.0
  0
VERTEX
  5
7FE
  8
STANDARDEBENE
 62
     2
 10
-67.402054
 20
-24.823608
 30
850.0
  0
VERTEX
  5
7FF
  8
STANDARDEBENE
 62
     2
 10
-83.286865
 20
-31.406189
 30
850.0
  0
VERTEX
  5
800
  8
STANDARDEBENE
 62
     2
 10
-98.541001
 20
-39.348572
 30
850.0
  0
VERTEX
  5
801
  8
STANDARDEBENE
 62
     2
 10
-113.046242
 20
-48.572021
 30
850.0
  0
VERTEX
  5
802
  8
STANDARDEBENE
 62
     2
 10
-126.684311
 20
-59.056762
 30
850.0
  0
VERTEX
  5
803
  8
STANDARDEBENE
 62
     2
 10
-139.35669
 20
-70.664917
 30
850.0
  0
VERTEX
  5
804
  8
STANDARDEBENE
 62
     2
 10
-150.964821
 20
-83.33728
 30
850.0
  0
VERTEX
  5
805
  8
STANDARDEBENE
 62
     2
 10
-161.449585
 20
-96.975342
 30
850.0
  0
VERTEX
  5
806
  8
STANDARDEBENE
 62
     2
 10
-170.673027
 20
-111.480591
 30
850.0
  0
VERTEX
  5
807
  8
STANDARDEBENE
 62
     2
 10
-178.615433
 20
-126.734741
 30
850.0
  0
VERTEX
  5
808
  8
STANDARDEBENE
 62
     2
 10
-185.197972
 20
-142.619568
 30
850.0
  0
VERTEX
  5
809
  8
STANDARDEBENE
 62
     2
 10
-190.361519
 20
-159.016784
 30
850.0
  0
VERTEX
  5
80A
  8
STANDARDEBENE
 62
     2
 10
-194.086365
 20
-175.808166
 30
850.0
  0
VERTEX
  5
80B
  8
STANDARDEBENE
 62
     2
 10
-196.333111
 20
-192.836059
 30
850.0
  0
VERTEX
  5
80C
  8
STANDARDEBENE
 62
     2
 10
-197.082016
 20
-210.021606
 30
850.0
  0
VERTEX
  5
80D
  8
STANDARDEBENE
 62
     2
 10
-196.333111
 20
-227.207153
 30
850.0
  0
VERTEX
  5
80E
  8
STANDARDEBENE
 62
     2
 10
-194.086365
 20
-244.235046
 30
850.0
  0
VERTEX
  5
80F
  8
STANDARDEBENE
 62
     2
 10
-190.361519
 20
-261.026428
 30
850.0
  0
VERTEX
  5
810
  8
STANDARDEBENE
 62
     2
 10
-185.197972
 20
-277.423645
 30
850.0
  0
VERTEX
  5
811
  8
STANDARDEBENE
 62
     2
 10
-178.615433
 20
-293.308471
 30
850.0
  0
VERTEX
  5
812
  8
STANDARDEBENE
 62
     2
 10
-170.673027
 20
-308.562622
 30
850.0
  0
VERTEX
  5
813
  8
STANDARDEBENE
 62
     2
 10
-161.449585
 20
-323.067871
 30
850.0
  0
VERTEX
  5
814
  8
STANDARDEBENE
 62
     2
 10
-150.964821
 20
-336.705932
 30
850.0
  0
VERTEX
  5
815
  8
STANDARDEBENE
 62
     2
 10
-139.35669
 20
-349.378296
 30
850.0
  0
VERTEX
  5
816
  8
STANDARDEBENE
 62
     2
 10
-126.684311
 20
-360.986419
 30
850.0
  0
VERTEX
  5
817
  8
STANDARDEBENE
 62
     2
 10
-113.046242
 20
-371.471191
 30
850.0
  0
VERTEX
  5
818
  8
STANDARDEBENE
 62
     2
 10
-98.541001
 20
-380.694641
 30
850.0
  0
VERTEX
  5
819
  8
STANDARDEBENE
 62
     2
 10
-83.286865
 20
-388.637024
 30
850.0
  0
VERTEX
  5
81A
  8
STANDARDEBENE
 62
     2
 10
-67.402054
 20
-395.219574
 30
850.0
  0
VERTEX
  5
81B
  8
STANDARDEBENE
 62
     2
 10
-51.004822
 20
-400.383117
 30
850.0
  0
VERTEX
  5
81C
  8
STANDARDEBENE
 62
     2
 10
-34.21344
 20
-404.107971
 30
850.0
  0
VERTEX
  5
81D
  8
STANDARDEBENE
 62
     2
 10
-17.185547
 20
-406.354706
 30
850.0
  0
VERTEX
  5
81E
  8
STANDARDEBENE
 62
     2
 10
0.0
 20
-407.103637
 30
850.0
  0
VERTEX
  5
81F
  8
STANDARDEBENE
 62
     2
 10
17.185562
 20
-406.354706
 30
850.0
  0
VERTEX
  5
820
  8
STANDARDEBENE
 62
     2
 10
34.213424
 20
-404.107971
 30
850.0
  0
VERTEX
  5
821
  8
STANDARDEBENE
 62
     2
 10
51.004837
 20
-400.383117
 30
850.0
  0
VERTEX
  5
822
  8
STANDARDEBENE
 62
     2
 10
67.402054
 20
-395.219574
 30
850.0
  0
VERTEX
  5
823
  8
STANDARDEBENE
 62
     2
 10
83.28685
 20
-388.637024
 30
850.0
  0
VERTEX
  5
824
  8
STANDARDEBENE
 62
     2
 10
98.541
 20
-380.694641
 30
850.0
  0
VERTEX
  5
825
  8
STANDARDEBENE
 62
     2
 10
113.046249
 20
-371.471191
 30
850.0
  0
VERTEX
  5
826
  8
STANDARDEBENE
 62
     2
 10
126.684311
 20
-360.986419
 30
850.0
  0
VERTEX
  5
827
  8
STANDARDEBENE
 62
     2
 10
139.356674
 20
-349.378296
 30
850.0
  0
VERTEX
  5
828
  8
STANDARDEBENE
 62
     2
 10
150.964828
 20
-336.705932
 30
850.0
  0
VERTEX
  5
829
  8
STANDARDEBENE
 62
     2
 10
161.449569
 20
-323.067871
 30
850.0
  0
VERTEX
  5
82A
  8
STANDARDEBENE
 62
     2
 10
170.673019
 20
-308.562622
 30
850.0
  0
VERTEX
  5
82B
  8
STANDARDEBENE
 62
     2
 10
178.615433
 20
-293.308471
 30
850.0
  0
VERTEX
  5
82C
  8
STANDARDEBENE
 62
     2
 10
185.197983
 20
-277.423645
 30
850.0
  0
VERTEX
  5
82D
  8
STANDARDEBENE
 62
     2
 10
190.361526
 20
-261.026428
 30
850.0
  0
VERTEX
  5
82E
  8
STANDARDEBENE
 62
     2
 10
194.08638
 20
-244.235046
 30
850.0
  0
VERTEX
  5
82F
  8
STANDARDEBENE
 62
     2
 10
196.333114
 20
-227.207153
 30
850.0
  0
VERTEX
  5
830
  8
STANDARDEBENE
 62
     2
 10
196.68298
 20
-219.178558
 30
850.0
  0
SEQEND
  5
831
  8
STANDARDEBENE
 62
     2
  0
ENDSEC
  0
EOF
