  0
SECTION
  2
HEADER
  9
$ACADVER
  1
AC1009
  9
$INSBASE
 10
0.0
 20
0.0
 30
0.0
  9
$EXTMIN
 10
-255.325916
 20
-480.739061
 30
-0.063589
  9
$EXTMAX
 10
262.019748
 20
20.912282
 30
894.833533
  9
$LIMMIN
 10
-10000.0
 20
-10000.0
  9
$LIMMAX
 10
50000.0
 20
50000.0
  9
$ORTHOMODE
 70
     1
  9
$REGENMODE
 70
     1
  9
$FILLMODE
 70
     1
  9
$QTEXTMODE
 70
     0
  9
$MIRRTEXT
 70
     0
  9
$DRAGMODE
 70
     2
  9
$LTSCALE
 40
50.0
  9
$OSMODE
 70
     0
  9
$ATTMODE
 70
     1
  9
$TEXTSIZE
 40
200.0
  9
$TRACEWID
 40
1.0
  9
$TEXTSTYLE
  7
STANDARD
  9
$CLAYER
  8
TEAM-MAS
  9
$CELTYPE
  6
BYLAYER
  9
$CECOLOR
 62
   256
  9
$DIMSCALE
 40
0.0
  9
$DIMASZ
 40
20.0
  9
$DIMEXO
 40
10.0
  9
$DIMDLI
 40
1.0
  9
$DIMRND
 40
0.0
  9
$DIMDLE
 40
0.0
  9
$DIMEXE
 40
1.0
  9
$DIMTP
 40
0.0
  9
$DIMTM
 40
0.0
  9
$DIMTXT
 40
35.0
  9
$DIMCEN
 40
1.0
  9
$DIMTSZ
 40
0.0
  9
$DIMTOL
 70
     0
  9
$DIMLIM
 70
     0
  9
$DIMTIH
 70
     0
  9
$DIMTOH
 70
     0
  9
$DIMSE1
 70
     0
  9
$DIMSE2
 70
     0
  9
$DIMTAD
 70
     0
  9
$DIMZIN
 70
     0
  9
$DIMBLK
  1

  9
$DIMASO
 70
     1
  9
$DIMSHO
 70
     0
  9
$DIMPOST
  1

  9
$DIMAPOST
  1

  9
$DIMALT
 70
     0
  9
$DIMALTD
 70
     2
  9
$DIMALTF
 40
25.4
  9
$DIMLFAC
 40
1.0
  9
$DIMTOFL
 70
     0
  9
$DIMTVP
 40
0.0
  9
$DIMTIX
 70
     0
  9
$DIMSOXD
 70
     0
  9
$DIMSAH
 70
     0
  9
$DIMBLK1
  1

  9
$DIMBLK2
  1

  9
$DIMSTYLE
  2
TEAM
  9
$DIMCLRD
 70
     9
  9
$DIMCLRE
 70
     9
  9
$DIMCLRT
 70
    11
  9
$DIMTFAC
 40
1.0
  9
$DIMGAP
 40
7.0
  9
$LUNITS
 70
     2
  9
$LUPREC
 70
     1
  9
$SKETCHINC
 40
1.0
  9
$FILLETRAD
 40
30.0
  9
$AUNITS
 70
     0
  9
$AUPREC
 70
     0
  9
$MENU
  1
ROPLANS
  9
$ELEVATION
 40
0.0
  9
$PELEVATION
 40
0.0
  9
$THICKNESS
 40
0.0
  9
$LIMCHECK
 70
     0
  9
$BLIPMODE
 70
     1
  9
$CHAMFERA
 40
0.0
  9
$CHAMFERB
 40
0.0
  9
$SKPOLY
 70
     0
  9
$TDCREATE
 40
2450392.957851
  9
$TDUPDATE
 40
2457954.618655
  9
$TDINDWG
 40
2.211323
  9
$TDUSRTIMER
 40
2.211323
  9
$USRTIMER
 70
     1
  9
$ANGBASE
 50
0.0
  9
$ANGDIR
 70
     0
  9
$PDMODE
 70
     0
  9
$PDSIZE
 40
0.0
  9
$PLINEWID
 40
0.0
  9
$COORDS
 70
     2
  9
$SPLFRAME
 70
     0
  9
$SPLINETYPE
 70
     6
  9
$SPLINESEGS
 70
     8
  9
$ATTDIA
 70
     0
  9
$ATTREQ
 70
     0
  9
$HANDLING
 70
     1
  9
$HANDSEED
  5
366
  9
$SURFTAB1
 70
    24
  9
$SURFTAB2
 70
    24
  9
$SURFTYPE
 70
     6
  9
$SURFU
 70
     6
  9
$SURFV
 70
     6
  9
$UCSNAME
  2

  9
$UCSORG
 10
0.0
 20
0.0
 30
0.0
  9
$UCSXDIR
 10
1.0
 20
0.0
 30
0.0
  9
$UCSYDIR
 10
0.0
 20
1.0
 30
0.0
  9
$PUCSNAME
  2

  9
$PUCSORG
 10
0.0
 20
0.0
 30
0.0
  9
$PUCSXDIR
 10
1.0
 20
0.0
 30
0.0
  9
$PUCSYDIR
 10
0.0
 20
1.0
 30
0.0
  9
$USERI1
 70
     0
  9
$USERI2
 70
     0
  9
$USERI3
 70
     0
  9
$USERI4
 70
     0
  9
$USERI5
 70
     0
  9
$USERR1
 40
0.0
  9
$USERR2
 40
0.0
  9
$USERR3
 40
0.0
  9
$USERR4
 40
0.0
  9
$USERR5
 40
0.0
  9
$WORLDVIEW
 70
     1
  9
$SHADEDGE
 70
     0
  9
$SHADEDIF
 70
    70
  9
$TILEMODE
 70
     1
  9
$MAXACTVP
 70
    16
  9
$PLIMCHECK
 70
     0
  9
$PEXTMIN
 10
-0.805942
 20
0.005011
 30
0.0
  9
$PEXTMAX
 10
20.250094
 20
11.356329
 30
0.0
  9
$PLIMMIN
 10
0.0
 20
0.0
  9
$PLIMMAX
 10
12.0
 20
9.0
  9
$UNITMODE
 70
     0
  9
$VISRETAIN
 70
     0
  9
$PLINEGEN
 70
     0
  9
$PSLTSCALE
 70
     0
  0
ENDSEC
  0
SECTION
  2
TABLES
  0
TABLE
  2
VPORT
 70
     5
  0
VPORT
  2
*ACTIVE
 70
     0
 10
0.0
 20
0.0
 11
1.0
 21
1.0
 12
3.346916
 22
-229.91339
 13
0.0
 23
0.0
 14
1.0
 24
1.0
 15
50.0
 25
50.0
 16
0.0
 26
0.0
 36
1.0
 17
0.0
 27
0.0
 37
0.0
 40
504.867057
 41
1.942246
 42
50.0
 43
0.0
 44
0.0
 50
0.0
 51
0.0
 71
     0
 72
   100
 73
     1
 74
     1
 75
     0
 76
     0
 77
     0
 78
     0
  0
ENDTAB
  0
TABLE
  2
LTYPE
 70
     1
  0
LTYPE
  2
CONTINUOUS
 70
     0
  3
Solid Line
 72
    65
 73
     0
 40
0.0
  0
ENDTAB
  0
TABLE
  2
LAYER
 70
     5
  0
LAYER
  2
0
 70
     0
 62
     7
  6
CONTINUOUS
  0
LAYER
  2
TEAM-MAS
 70
     0
 62
     9
  6
CONTINUOUS
  0
LAYER
  2
TEAM-TXT
 70
     0
 62
    11
  6
CONTINUOUS
  0
LAYER
  2
TEAM-NET
 70
     0
 62
    15
  6
CONTINUOUS
  0
LAYER
  2
TEAM-INSP
 70
     0
 62
     5
  6
CONTINUOUS
  0
ENDTAB
  0
TABLE
  2
STYLE
 70
     2
  0
STYLE
  2
STANDARD
 70
     0
 40
0.0
 41
1.0
 50
0.0
 71
     0
 42
200.0
  3
txt
  4

  0
STYLE
  2
TEAM
 70
     0
 40
0.0
 41
0.8
 50
15.0
 71
     0
 42
7.0
  3
ROMANS.shx
  4

  0
ENDTAB
  0
TABLE
  2
VIEW
 70
     0
  0
ENDTAB
  0
TABLE
  2
UCS
 70
     0
  0
ENDTAB
  0
TABLE
  2
APPID
 70
     1
  0
APPID
  2
ACAD
 70
     0
  0
ENDTAB
  0
TABLE
  2
DIMSTYLE
 70
     1
  0
DIMSTYLE
  2
TEAM
 70
     0
  3

  4

  5

  6

  7

 40
0.0
 41
20.0
 42
10.0
 43
1.0
 44
1.0
 45
0.0
 46
0.0
 47
0.0
 48
0.0
140
35.0
141
1.0
142
0.0
143
25.4
144
1.0
145
0.0
146
1.0
147
7.0
 71
     0
 72
     0
 73
     0
 74
     0
 75
     0
 76
     0
 77
     0
 78
     0
170
     0
171
     2
172
     0
173
     0
174
     0
175
     0
176
     9
177
     9
178
    11
  0
ENDTAB
  0
ENDSEC
  0
SECTION
  2
BLOCKS
  0
BLOCK
  8
0
  2
$MODEL_SPACE
 70
     0
 10
0.0
 20
0.0
 30
0.0
  3
$MODEL_SPACE
  1

  0
ENDBLK
  5
6
  8
0
  0
BLOCK
 67
     1
  8
0
  2
$PAPER_SPACE
 70
     0
 10
0.0
 20
0.0
 30
0.0
  3
$PAPER_SPACE
  1

  0
ENDBLK
  5
9
 67
     1
  8
0
  0
ENDSEC
  0
SECTION
  2
ENTITIES
  0
CIRCLE
  5
20
  8
TEAM-INSP
 10
0.0
 20
0.0
 30
0.0
 40
10.0
  0
ARC
  5
22
  8
TEAM-NET
 10
-1.181801
 20
862.632548
 30
120.0
 40
15.5
210
0.0
220
-1.0
230
0.0
 50
270.0
 51
0.0
  0
ARC
  5
24
  8
TEAM-NET
 10
-1.181801
 20
862.632548
 30
120.0
 40
15.5
210
0.0
220
-1.0
230
0.0
 50
270.0
 51
0.0
  0
LINE
  5
25
  8
TEAM-NET
 10
214.001925
 20
-20.0
 30
780.0
 11
214.001925
 21
-20.0
 31
862.632548
210
0.0
220
-1.0
230
0.0
  0
LINE
  5
26
  8
TEAM-NET
 10
214.001925
 20
-20.0
 30
780.0
 11
214.001925
 21
-20.0
 31
862.632548
210
-1.0
220
0.0
230
0.0
  0
LINE
  5
27
  8
TEAM-NET
 10
-213.998075
 20
-20.0
 30
780.392382
 11
-213.998075
 21
-20.0
 31
862.632548
210
1.0
220
0.0
230
0.0
  0
LINE
  5
28
  8
TEAM-NET
 10
-213.998075
 20
-20.0
 30
780.392382
 11
-213.998075
 21
-20.0
 31
862.632548
210
0.0
220
-1.0
230
0.0
  0
LINE
  5
29
  8
TEAM-NET
 10
214.001925
 20
-95.0
 30
757.632548
 11
214.001925
 21
-95.0
 31
862.632548
210
-1.0
220
0.0
230
0.0
  0
LINE
  5
2A
  8
TEAM-NET
 10
214.001925
 20
-95.0
 30
757.632548
 11
214.001925
 21
-95.0
 31
862.632548
210
0.0
220
1.0
230
0.0
  0
LINE
  5
2B
  8
TEAM-NET
 10
-213.998075
 20
-95.0
 30
757.632548
 11
-213.998075
 21
-95.0
 31
862.632548
210
1.0
220
0.0
230
0.0
  0
LINE
  5
2C
  8
TEAM-NET
 10
-213.998075
 20
-95.0
 30
757.632548
 11
-213.998075
 21
-95.0
 31
862.632548
210
0.0
220
1.0
230
0.0
  0
LINE
  5
2D
  8
TEAM-NET
 10
200.001925
 20
-430.0
 30
802.122193
 11
200.001925
 21
-430.0
 31
887.632548
210
0.0
220
1.0
230
0.0
  0
LINE
  5
2E
  8
TEAM-NET
 10
210.001925
 20
-130.0
 30
802.122193
 11
210.001925
 21
-130.0
 31
887.632548
  0
LINE
  5
2F
  8
TEAM-NET
 10
200.001925
 20
-120.0
 30
887.632548
 11
200.001925
 21
-120.0
 31
802.122193
  0
LINE
  5
30
  8
TEAM-NET
 10
210.001925
 20
-420.0
 30
887.632548
 11
210.001925
 21
-420.0
 31
802.122193
210
-1.0
220
0.0
230
0.0
  0
LINE
  5
31
  8
TEAM-NET
 10
210.001925
 20
-130.0
 30
802.122193
 11
210.001925
 21
-130.0
 31
887.632548
210
-1.0
220
0.0
230
0.0
  0
LINE
  5
32
  8
TEAM-NET
 10
200.001925
 20
-430.0
 30
802.122193
 11
200.001925
 21
-430.0
 31
887.632548
  0
LINE
  5
33
  8
TEAM-NET
 10
210.001925
 20
-420.0
 30
887.632548
 11
210.001925
 21
-420.0
 31
802.122193
  0
LINE
  5
34
  8
TEAM-NET
 10
200.001925
 20
-120.0
 30
887.632548
 11
200.001925
 21
-120.0
 31
802.122193
210
0.0
220
-1.0
230
0.0
  0
LINE
  5
35
  8
TEAM-NET
 10
250.001925
 20
-460.0
 30
767.632548
 11
250.001925
 21
-460.0
 31
882.632548
  0
LINE
  5
36
  8
TEAM-NET
 10
240.001925
 20
-470.0
 30
882.632548
 11
240.001925
 21
-470.0
 31
767.632548
  0
LINE
  5
37
  8
TEAM-NET
 10
250.001925
 20
0.0
 30
767.632548
 11
250.001925
 21
0.0
 31
882.632548
210
0.0
220
1.0
230
0.0
  0
LINE
  5
38
  8
TEAM-NET
 10
250.001925
 20
0.0
 30
767.632548
 11
250.001925
 21
0.0
 31
882.632548
210
1.0
220
0.0
230
0.0
  0
LINE
  5
39
  8
TEAM-NET
 10
250.001925
 20
-460.0
 30
767.632548
 11
250.001925
 21
-460.0
 31
882.632548
210
1.0
220
0.0
230
0.0
  0
LINE
  5
3A
  8
TEAM-NET
 10
240.001925
 20
-470.0
 30
882.632548
 11
240.001925
 21
-470.0
 31
767.632548
210
0.0
220
-1.0
230
0.0
  0
LINE
  5
3B
  8
TEAM-NET
 10
-199.998075
 20
-120.0
 30
802.122193
 11
-199.998075
 21
-120.0
 31
887.632548
  0
LINE
  5
3C
  8
TEAM-NET
 10
-209.998075
 20
-130.0
 30
887.632548
 11
-209.998075
 21
-130.0
 31
802.122193
  0
LINE
  5
3D
  8
TEAM-NET
 10
-209.998075
 20
-130.0
 30
887.632548
 11
-209.998075
 21
-130.0
 31
802.122193
210
1.0
220
0.0
230
0.0
  0
LINE
  5
3E
  8
TEAM-NET
 10
-209.998075
 20
-420.0
 30
802.122193
 11
-209.998075
 21
-420.0
 31
887.632548
210
1.0
220
0.0
230
0.0
  0
LINE
  5
3F
  8
TEAM-NET
 10
-209.998075
 20
-420.0
 30
802.122193
 11
-209.998075
 21
-420.0
 31
887.632548
  0
LINE
  5
40
  8
TEAM-NET
 10
-199.998075
 20
-430.0
 30
887.632548
 11
-199.998075
 21
-430.0
 31
802.122193
  0
LINE
  5
41
  8
TEAM-NET
 10
-199.998075
 20
-430.0
 30
887.632548
 11
-199.998075
 21
-430.0
 31
802.122193
210
0.0
220
1.0
230
0.0
  0
LINE
  5
42
  8
TEAM-NET
 10
-199.998075
 20
-120.0
 30
802.122193
 11
-199.998075
 21
-120.0
 31
887.632548
210
0.0
220
-1.0
230
0.0
  0
LINE
  5
43
  8
TEAM-NET
 10
-249.998075
 20
-460.0
 30
882.632548
 11
-249.998075
 21
-460.0
 31
757.632548
  0
LINE
  5
44
  8
TEAM-NET
 10
-239.998075
 20
-470.0
 30
767.632548
 11
-239.998075
 21
-470.0
 31
882.632548
  0
LINE
  5
45
  8
TEAM-NET
 10
-249.998075
 20
0.0
 30
757.632548
 11
-249.998075
 21
0.0
 31
882.632548
210
0.0
220
1.0
230
0.0
  0
LINE
  5
46
  8
TEAM-NET
 10
-239.998075
 20
-470.0
 30
767.632548
 11
-239.998075
 21
-470.0
 31
882.632548
210
0.0
220
-1.0
230
0.0
  0
LINE
  5
47
  8
TEAM-NET
 10
-249.998075
 20
-460.0
 30
882.632548
 11
-249.998075
 21
-460.0
 31
757.632548
210
-1.0
220
0.0
230
0.0
  0
LINE
  5
48
  8
TEAM-NET
 10
-249.998075
 20
0.0
 30
757.632548
 11
-249.998075
 21
0.0
 31
882.632548
210
-1.0
220
0.0
230
0.0
  0
POLYLINE
  5
49
  8
TEAM-NET
 66
     1
 10
0.0
 20
0.0
 30
0.001925
 70
   128
210
1.0
220
0.0
230
0.0
  0
VERTEX
  5
2D9
  8
TEAM-NET
 10
-130.0
 20
773.765747
 30
0.001925
  0
VERTEX
  5
2DA
  8
TEAM-NET
 10
-128.049097
 20
773.958158
 30
0.001925
  0
VERTEX
  5
2DB
  8
TEAM-NET
 10
-126.173166
 20
774.527997
 30
0.001925
  0
VERTEX
  5
2DC
  8
TEAM-NET
 10
-124.444298
 20
775.453364
 30
0.001925
  0
VERTEX
  5
2DD
  8
TEAM-NET
 10
-122.928932
 20
776.698699
 30
0.001925
  0
VERTEX
  5
2DE
  8
TEAM-NET
 10
-121.685304
 20
778.216144
 30
0.001925
  0
VERTEX
  5
2DF
  8
TEAM-NET
 10
-120.761205
 20
779.947385
 30
0.001925
  0
VERTEX
  5
2E0
  8
TEAM-NET
 10
-120.192147
 20
781.82589
 30
0.001925
  0
VERTEX
  5
2E1
  8
TEAM-NET
 10
-120.0
 20
783.779471
 30
0.001925
  0
SEQEND
  5
2E2
  8
TEAM-NET
  0
POLYLINE
  5
4A
  8
TEAM-NET
 66
     1
 10
0.0
 20
0.0
 30
0.001925
 70
   128
210
1.0
220
0.0
230
0.0
  0
VERTEX
  5
2E3
  8
TEAM-NET
 10
-130.0
 20
773.765747
 30
0.001925
  0
VERTEX
  5
2E4
  8
TEAM-NET
 10
-128.049097
 20
773.958158
 30
0.001925
  0
VERTEX
  5
2E5
  8
TEAM-NET
 10
-126.173166
 20
774.527997
 30
0.001925
  0
VERTEX
  5
2E6
  8
TEAM-NET
 10
-124.444298
 20
775.453364
 30
0.001925
  0
VERTEX
  5
2E7
  8
TEAM-NET
 10
-122.928932
 20
776.698699
 30
0.001925
  0
VERTEX
  5
2E8
  8
TEAM-NET
 10
-121.685304
 20
778.216144
 30
0.001925
  0
VERTEX
  5
2E9
  8
TEAM-NET
 10
-120.761205
 20
779.947385
 30
0.001925
  0
VERTEX
  5
2EA
  8
TEAM-NET
 10
-120.192147
 20
781.82589
 30
0.001925
  0
VERTEX
  5
2EB
  8
TEAM-NET
 10
-120.0
 20
783.779471
 30
0.001925
  0
SEQEND
  5
2EC
  8
TEAM-NET
  0
POLYLINE
  5
4B
  8
TEAM-NET
 66
     1
 10
0.0
 20
0.0
 30
0.001925
 70
   128
210
1.0
220
0.0
230
0.0
  0
VERTEX
  5
2ED
  8
TEAM-NET
 10
-430.0
 20
783.779471
 30
0.001925
  0
VERTEX
  5
2EE
  8
TEAM-NET
 10
-429.848078
 20
782.040606
 30
0.001925
  0
VERTEX
  5
2EF
  8
TEAM-NET
 10
-429.396926
 20
780.354576
 30
0.001925
  0
VERTEX
  5
2F0
  8
TEAM-NET
 10
-428.660254
 20
778.772609
 30
0.001925
  0
VERTEX
  5
2F1
  8
TEAM-NET
 10
-427.660444
 20
777.342773
 30
0.001925
  0
VERTEX
  5
2F2
  8
TEAM-NET
 10
-426.427876
 20
776.108513
 30
0.001925
  0
VERTEX
  5
2F3
  8
TEAM-NET
 10
-425.0
 20
775.107332
 30
0.001925
  0
VERTEX
  5
2F4
  8
TEAM-NET
 10
-423.420201
 20
774.369649
 30
0.001925
  0
VERTEX
  5
2F5
  8
TEAM-NET
 10
-421.736482
 20
773.917878
 30
0.001925
  0
VERTEX
  5
2F6
  8
TEAM-NET
 10
-420.0
 20
773.765747
 30
0.001925
  0
SEQEND
  5
2F7
  8
TEAM-NET
  0
POLYLINE
  5
4C
  8
TEAM-NET
 66
     1
 10
0.0
 20
0.0
 30
0.001925
 70
   128
210
1.0
220
0.0
230
0.0
  0
VERTEX
  5
2F8
  8
TEAM-NET
 10
-430.0
 20
783.779471
 30
0.001925
  0
VERTEX
  5
2F9
  8
TEAM-NET
 10
-429.848078
 20
782.040606
 30
0.001925
  0
VERTEX
  5
2FA
  8
TEAM-NET
 10
-429.396926
 20
780.354576
 30
0.001925
  0
VERTEX
  5
2FB
  8
TEAM-NET
 10
-428.660254
 20
778.772609
 30
0.001925
  0
VERTEX
  5
2FC
  8
TEAM-NET
 10
-427.660444
 20
777.342773
 30
0.001925
  0
VERTEX
  5
2FD
  8
TEAM-NET
 10
-426.427876
 20
776.108513
 30
0.001925
  0
VERTEX
  5
2FE
  8
TEAM-NET
 10
-425.0
 20
775.107332
 30
0.001925
  0
VERTEX
  5
2FF
  8
TEAM-NET
 10
-423.420201
 20
774.369649
 30
0.001925
  0
VERTEX
  5
300
  8
TEAM-NET
 10
-421.736482
 20
773.917878
 30
0.001925
  0
VERTEX
  5
301
  8
TEAM-NET
 10
-420.0
 20
773.765747
 30
0.001925
  0
SEQEND
  5
302
  8
TEAM-NET
  0
LINE
  5
4D
  8
TEAM-NET
 10
0.001925
 20
-130.0
 30
773.765747
 11
200.525284
 21
-130.0
 31
792.135898
  0
LINE
  5
4E
  8
TEAM-NET
 10
200.525284
 20
-420.0
 30
792.135898
 11
0.001925
 21
-420.0
 31
773.765747
  0
LINE
  5
4F
  8
TEAM-NET
 10
200.525284
 20
-420.0
 30
792.135898
 11
0.001925
 21
-420.0
 31
773.765747
210
-0.052336
220
0.0
230
0.99863
  0
LINE
  5
50
  8
TEAM-NET
 10
0.001925
 20
-130.0
 30
773.765747
 11
200.525284
 21
-130.0
 31
792.135898
210
-0.052336
220
0.0
230
0.99863
  0
LINE
  5
51
  8
TEAM-NET
 10
-200.521435
 20
-130.0
 30
792.135898
 11
0.001925
 21
-130.0
 31
773.765747
210
0.052336
220
0.0
230
0.99863
  0
LINE
  5
52
  8
TEAM-NET
 10
0.001925
 20
-420.0
 30
773.765747
 11
-200.521435
 21
-420.0
 31
792.135898
210
0.052336
220
0.0
230
0.99863
  0
LINE
  5
53
  8
TEAM-NET
 10
0.001925
 20
-420.0
 30
773.765747
 11
-200.521435
 21
-420.0
 31
792.135898
  0
LINE
  5
54
  8
TEAM-NET
 10
-200.521435
 20
-130.0
 30
792.135898
 11
0.001925
 21
-130.0
 31
773.765747
  0
LINE
  5
55
  8
TEAM-NET
 10
214.001925
 20
0.0
 30
757.632548
 11
214.001925
 21
0.0
 31
780.0
210
0.0
220
1.0
230
0.0
  0
LINE
  5
56
  8
TEAM-NET
 10
214.001925
 20
0.0
 30
757.632548
 11
214.001925
 21
0.0
 31
780.0
210
-1.0
220
0.0
230
0.0
  0
LINE
  5
57
  8
TEAM-NET
 10
-214.001925
 20
0.0
 30
780.0
 11
-214.001925
 21
0.0
 31
757.632548
210
1.0
220
0.0
230
0.0
  0
LINE
  5
58
  8
TEAM-NET
 10
-214.001925
 20
-30.0
 30
757.632548
 11
-214.001925
 21
-30.0
 31
780.0
210
1.0
220
0.0
230
0.0
  0
LINE
  5
59
  8
TEAM-NET
 10
-214.001925
 20
-30.0
 30
757.632548
 11
-214.001925
 21
-30.0
 31
780.0
210
0.0
220
1.0
230
0.0
  0
LINE
  5
5A
  8
TEAM-NET
 10
-213.998075
 20
-30.0
 30
757.632548
 11
-213.998075
 21
-30.0
 31
780.392382
210
0.0
220
1.0
230
0.0
  0
LINE
  5
5B
  8
TEAM-NET
 10
-214.001925
 20
0.0
 30
780.0
 11
-214.001925
 21
0.0
 31
757.632548
210
0.0
220
1.0
230
0.0
  0
LINE
  5
5C
  8
TEAM-NET
 10
-213.998075
 20
-30.0
 30
757.632548
 11
-213.998075
 21
-30.0
 31
780.392382
210
1.0
220
0.0
230
0.0
  0
LINE
  5
5D
  8
TEAM-NET
 10
27.501925
 20
-195.0
 30
769.957536
 11
36.878182
 21
-195.0
 31
775.370921
  0
LINE
  5
5E
  8
TEAM-NET
 10
-27.498075
 20
-195.0
 30
769.957536
 11
-36.874332
 21
-195.0
 31
775.370921
  0
LINE
  5
5F
  8
TEAM-NET
 10
27.501925
 20
-195.0
 30
769.957536
 11
36.878182
 21
-195.0
 31
775.370921
  0
LINE
  5
60
  8
TEAM-NET
 10
-27.498075
 20
-195.0
 30
769.957536
 11
-36.874332
 21
-195.0
 31
775.370921
  0
LINE
  5
61
  8
TEAM-NET
 10
31.897458
 20
-195.0
 30
776.483576
 11
21.001925
 21
-195.0
 31
767.799918
  0
LINE
  5
62
  8
TEAM-NET
 10
-31.893608
 20
-195.0
 30
776.483576
 11
-20.998075
 21
-195.0
 31
767.799918
  0
LINE
  5
63
  8
TEAM-NET
 10
32.699691
 20
-195.0
 30
776.483576
 11
22.001925
 21
-195.0
 31
767.957536
  0
LINE
  5
64
  8
TEAM-NET
 10
-32.695842
 20
-195.0
 30
776.483576
 11
-21.998075
 21
-195.0
 31
767.957536
  0
LINE
  5
65
  8
TEAM-NET
 10
32.699691
 20
-195.0
 30
776.483576
 11
22.001925
 21
-195.0
 31
767.957536
  0
LINE
  5
66
  8
TEAM-NET
 10
-32.695842
 20
-195.0
 30
776.483576
 11
-21.998075
 21
-195.0
 31
767.957536
  0
LINE
  5
67
  8
TEAM-NET
 10
31.897458
 20
-195.0
 30
776.483576
 11
21.001925
 21
-195.0
 31
767.799918
  0
LINE
  5
68
  8
TEAM-NET
 10
-31.893608
 20
-195.0
 30
776.483576
 11
-20.998075
 21
-195.0
 31
767.799918
  0
POLYLINE
  5
69
  8
TEAM-NET
 66
     1
 10
0.0
 20
0.0
 30
772.705227
 70
   128
210
-0.052336
220
-0.0
230
0.99863
  0
VERTEX
  5
303
  8
TEAM-NET
 10
229.906631
 20
40.497692
 30
772.705227
  0
VERTEX
  5
304
  8
TEAM-NET
 10
229.831163
 20
47.355241
 30
772.705227
  0
VERTEX
  5
305
  8
TEAM-NET
 10
228.435886
 20
54.068167
 30
772.705227
  0
VERTEX
  5
306
  8
TEAM-NET
 10
225.773668
 20
60.382105
 30
772.705227
  0
VERTEX
  5
307
  8
TEAM-NET
 10
221.945387
 20
66.057812
 30
772.705227
  0
VERTEX
  5
308
  8
TEAM-NET
 10
217.0961
 20
70.880224
 30
772.705227
  0
VERTEX
  5
309
  8
TEAM-NET
 10
211.409557
 20
74.666613
 30
772.705227
  0
VERTEX
  5
30A
  8
TEAM-NET
 10
205.101229
 20
77.273506
 30
772.705227
  0
VERTEX
  5
30B
  8
TEAM-NET
 10
198.410148
 20
78.602125
 30
772.705227
  0
VERTEX
  5
30C
  8
TEAM-NET
 10
191.589852
 20
78.602125
 30
772.705227
  0
VERTEX
  5
30D
  8
TEAM-NET
 10
184.898771
 20
77.273506
 30
772.705227
  0
VERTEX
  5
30E
  8
TEAM-NET
 10
178.590443
 20
74.666613
 30
772.705227
  0
VERTEX
  5
30F
  8
TEAM-NET
 10
172.9039
 20
70.880224
 30
772.705227
  0
VERTEX
  5
310
  8
TEAM-NET
 10
168.054613
 20
66.057812
 30
772.705227
  0
VERTEX
  5
311
  8
TEAM-NET
 10
164.226332
 20
60.382105
 30
772.705227
  0
VERTEX
  5
312
  8
TEAM-NET
 10
161.564114
 20
54.068167
 30
772.705227
  0
VERTEX
  5
313
  8
TEAM-NET
 10
160.168837
 20
47.355241
 30
772.705227
  0
VERTEX
  5
314
  8
TEAM-NET
 10
160.093369
 20
40.497692
 30
772.705227
  0
SEQEND
  5
315
  8
TEAM-NET
  0
POLYLINE
  5
6A
  8
TEAM-NET
 66
     1
 10
0.0
 20
0.0
 30
772.705429
 70
   128
210
0.052336
220
-0.0
230
0.99863
  0
VERTEX
  5
316
  8
TEAM-NET
 10
-160.093369
 20
40.493848
 30
772.705429
  0
VERTEX
  5
317
  8
TEAM-NET
 10
-160.168837
 20
47.351397
 30
772.705429
  0
VERTEX
  5
318
  8
TEAM-NET
 10
-161.564114
 20
54.064322
 30
772.705429
  0
VERTEX
  5
319
  8
TEAM-NET
 10
-164.226332
 20
60.378261
 30
772.705429
  0
VERTEX
  5
31A
  8
TEAM-NET
 10
-168.054613
 20
66.053967
 30
772.705429
  0
VERTEX
  5
31B
  8
TEAM-NET
 10
-172.9039
 20
70.87638
 30
772.705429
  0
VERTEX
  5
31C
  8
TEAM-NET
 10
-178.590443
 20
74.662769
 30
772.705429
  0
VERTEX
  5
31D
  8
TEAM-NET
 10
-184.898771
 20
77.269662
 30
772.705429
  0
VERTEX
  5
31E
  8
TEAM-NET
 10
-191.589852
 20
78.598281
 30
772.705429
  0
VERTEX
  5
31F
  8
TEAM-NET
 10
-198.410148
 20
78.598281
 30
772.705429
  0
VERTEX
  5
320
  8
TEAM-NET
 10
-205.101229
 20
77.269662
 30
772.705429
  0
VERTEX
  5
321
  8
TEAM-NET
 10
-211.409557
 20
74.662769
 30
772.705429
  0
VERTEX
  5
322
  8
TEAM-NET
 10
-217.0961
 20
70.87638
 30
772.705429
  0
VERTEX
  5
323
  8
TEAM-NET
 10
-221.945387
 20
66.053967
 30
772.705429
  0
VERTEX
  5
324
  8
TEAM-NET
 10
-225.773668
 20
60.378261
 30
772.705429
  0
VERTEX
  5
325
  8
TEAM-NET
 10
-228.435886
 20
54.064322
 30
772.705429
  0
VERTEX
  5
326
  8
TEAM-NET
 10
-229.831163
 20
47.351397
 30
772.705429
  0
VERTEX
  5
327
  8
TEAM-NET
 10
-229.906631
 20
40.493848
 30
772.705429
  0
SEQEND
  5
328
  8
TEAM-NET
  0
POLYLINE
  5
6B
  8
TEAM-NET
 66
     1
 10
0.0
 20
0.0
 30
0.0
 70
     8
  0
VERTEX
  5
6C
  8
TEAM-NET
 10
0.001925
 20
-161.607268
 30
773.359706
 70
    32
  0
VERTEX
  5
6D
  8
TEAM-NET
 10
6.988293
 20
-161.669547
 30
773.741974
 70
    32
  0
VERTEX
  5
6E
  8
TEAM-NET
 10
13.816794
 20
-163.167578
 30
774.115009
 70
    32
  0
VERTEX
  5
6F
  8
TEAM-NET
 10
20.191381
 20
-166.039987
 30
774.462748
 70
    32
  0
VERTEX
  5
70
  8
TEAM-NET
 10
25.836206
 20
-170.164369
 30
774.770295
 70
    32
  0
VERTEX
  5
71
  8
TEAM-NET
 10
30.504166
 20
-175.364754
 30
775.024361
 70
    32
  0
VERTEX
  5
72
  8
TEAM-NET
 10
33.993236
 20
-181.416074
 30
775.214115
 70
    32
  0
VERTEX
  5
73
  8
TEAM-NET
 10
36.148725
 20
-188.057488
 30
775.33128
 70
    32
  0
VERTEX
  5
74
  8
TEAM-NET
 10
36.877997
 20
-195.0
 30
775.370911
 70
    32
  0
SEQEND
  5
75
  8
TEAM-NET
  0
POLYLINE
  5
76
  8
TEAM-NET
 66
     1
 10
0.0
 20
0.0
 30
0.0
 70
     8
  0
VERTEX
  5
77
  8
TEAM-NET
 10
36.877997
 20
-195.0
 30
775.370911
 70
    32
  0
VERTEX
  5
78
  8
TEAM-NET
 10
36.148615
 20
-201.942439
 30
775.331274
 70
    32
  0
VERTEX
  5
79
  8
TEAM-NET
 10
33.992711
 20
-208.583635
 30
775.214086
 70
    32
  0
VERTEX
  5
7A
  8
TEAM-NET
 10
30.504131
 20
-214.635184
 30
775.024359
 70
    32
  0
VERTEX
  5
7B
  8
TEAM-NET
 10
25.836396
 20
-219.835866
 30
774.770305
 70
    32
  0
VERTEX
  5
7C
  8
TEAM-NET
 10
20.191847
 20
-223.960505
 30
774.462773
 70
    32
  0
VERTEX
  5
7D
  8
TEAM-NET
 10
13.816775
 20
-226.832414
 30
774.115008
 70
    32
  0
VERTEX
  5
7E
  8
TEAM-NET
 10
6.988444
 20
-228.330607
 30
773.741982
 70
    32
  0
VERTEX
  5
7F
  8
TEAM-NET
 10
0.001925
 20
-228.392732
 30
773.359706
 70
    32
  0
SEQEND
  5
80
  8
TEAM-NET
  0
POLYLINE
  5
81
  8
TEAM-NET
 66
     1
 10
0.0
 20
0.0
 30
772.705227
 70
   128
210
-0.052336
220
-0.0
230
0.99863
  0
VERTEX
  5
329
  8
TEAM-NET
 10
229.906631
 20
40.497692
 30
772.705227
  0
VERTEX
  5
32A
  8
TEAM-NET
 10
229.831163
 20
47.355241
 30
772.705227
  0
VERTEX
  5
32B
  8
TEAM-NET
 10
228.435886
 20
54.068167
 30
772.705227
  0
VERTEX
  5
32C
  8
TEAM-NET
 10
225.773668
 20
60.382105
 30
772.705227
  0
VERTEX
  5
32D
  8
TEAM-NET
 10
221.945387
 20
66.057812
 30
772.705227
  0
VERTEX
  5
32E
  8
TEAM-NET
 10
217.0961
 20
70.880224
 30
772.705227
  0
VERTEX
  5
32F
  8
TEAM-NET
 10
211.409557
 20
74.666613
 30
772.705227
  0
VERTEX
  5
330
  8
TEAM-NET
 10
205.101229
 20
77.273506
 30
772.705227
  0
VERTEX
  5
331
  8
TEAM-NET
 10
198.410148
 20
78.602125
 30
772.705227
  0
VERTEX
  5
332
  8
TEAM-NET
 10
191.589852
 20
78.602125
 30
772.705227
  0
VERTEX
  5
333
  8
TEAM-NET
 10
184.898771
 20
77.273506
 30
772.705227
  0
VERTEX
  5
334
  8
TEAM-NET
 10
178.590443
 20
74.666613
 30
772.705227
  0
VERTEX
  5
335
  8
TEAM-NET
 10
172.9039
 20
70.880224
 30
772.705227
  0
VERTEX
  5
336
  8
TEAM-NET
 10
168.054613
 20
66.057812
 30
772.705227
  0
VERTEX
  5
337
  8
TEAM-NET
 10
164.226332
 20
60.382105
 30
772.705227
  0
VERTEX
  5
338
  8
TEAM-NET
 10
161.564114
 20
54.068167
 30
772.705227
  0
VERTEX
  5
339
  8
TEAM-NET
 10
160.168837
 20
47.355241
 30
772.705227
  0
VERTEX
  5
33A
  8
TEAM-NET
 10
160.093369
 20
40.497692
 30
772.705227
  0
SEQEND
  5
33B
  8
TEAM-NET
  0
POLYLINE
  5
82
  8
TEAM-NET
 66
     1
 10
0.0
 20
0.0
 30
0.0
 70
     8
  0
VERTEX
  5
83
  8
TEAM-NET
 10
0.001925
 20
-228.392732
 30
773.359706
 70
    32
  0
VERTEX
  5
84
  8
TEAM-NET
 10
-6.984506
 20
-228.330533
 30
773.741977
 70
    32
  0
VERTEX
  5
85
  8
TEAM-NET
 10
-13.812783
 20
-226.832329
 30
774.115
 70
    32
  0
VERTEX
  5
86
  8
TEAM-NET
 10
-20.187681
 20
-223.960265
 30
774.462756
 70
    32
  0
VERTEX
  5
87
  8
TEAM-NET
 10
-25.83233
 20
-219.835556
 30
774.770293
 70
    32
  0
VERTEX
  5
88
  8
TEAM-NET
 10
-30.500455
 20
-214.635288
 30
775.024368
 70
    32
  0
VERTEX
  5
89
  8
TEAM-NET
 10
-33.989443
 20
-208.583934
 30
775.214118
 70
    32
  0
VERTEX
  5
8A
  8
TEAM-NET
 10
-36.144963
 20
-201.942541
 30
775.331285
 70
    32
  0
VERTEX
  5
8B
  8
TEAM-NET
 10
-36.874197
 20
-195.0
 30
775.370913
 70
    32
  0
SEQEND
  5
8C
  8
TEAM-NET
  0
POLYLINE
  5
8D
  8
TEAM-NET
 66
     1
 10
0.0
 20
0.0
 30
0.0
 70
     8
  0
VERTEX
  5
8E
  8
TEAM-NET
 10
-36.874197
 20
-195.0
 30
775.370913
 70
    32
  0
VERTEX
  5
8F
  8
TEAM-NET
 10
-36.144803
 20
-188.057559
 30
775.331276
 70
    32
  0
VERTEX
  5
90
  8
TEAM-NET
 10
-33.988899
 20
-181.416364
 30
775.214088
 70
    32
  0
VERTEX
  5
91
  8
TEAM-NET
 10
-30.500302
 20
-175.364824
 30
775.02436
 70
    32
  0
VERTEX
  5
92
  8
TEAM-NET
 10
-25.832549
 20
-170.164149
 30
774.770305
 70
    32
  0
VERTEX
  5
93
  8
TEAM-NET
 10
-20.187994
 20
-166.039509
 30
774.462773
 70
    32
  0
VERTEX
  5
94
  8
TEAM-NET
 10
-13.81292
 20
-163.167594
 30
774.115008
 70
    32
  0
VERTEX
  5
95
  8
TEAM-NET
 10
-6.984593
 20
-161.669395
 30
773.741982
 70
    32
  0
VERTEX
  5
96
  8
TEAM-NET
 10
0.001925
 20
-161.607268
 30
773.359706
 70
    32
  0
SEQEND
  5
97
  8
TEAM-NET
  0
POLYLINE
  5
98
  8
TEAM-NET
 66
     1
 10
0.0
 20
0.0
 30
772.705429
 70
   128
210
0.052336
220
-0.0
230
0.99863
  0
VERTEX
  5
33C
  8
TEAM-NET
 10
-160.093369
 20
40.493848
 30
772.705429
  0
VERTEX
  5
33D
  8
TEAM-NET
 10
-160.168837
 20
47.351397
 30
772.705429
  0
VERTEX
  5
33E
  8
TEAM-NET
 10
-161.564114
 20
54.064322
 30
772.705429
  0
VERTEX
  5
33F
  8
TEAM-NET
 10
-164.226332
 20
60.378261
 30
772.705429
  0
VERTEX
  5
340
  8
TEAM-NET
 10
-168.054613
 20
66.053967
 30
772.705429
  0
VERTEX
  5
341
  8
TEAM-NET
 10
-172.9039
 20
70.87638
 30
772.705429
  0
VERTEX
  5
342
  8
TEAM-NET
 10
-178.590443
 20
74.662769
 30
772.705429
  0
VERTEX
  5
343
  8
TEAM-NET
 10
-184.898771
 20
77.269662
 30
772.705429
  0
VERTEX
  5
344
  8
TEAM-NET
 10
-191.589852
 20
78.598281
 30
772.705429
  0
VERTEX
  5
345
  8
TEAM-NET
 10
-198.410148
 20
78.598281
 30
772.705429
  0
VERTEX
  5
346
  8
TEAM-NET
 10
-205.101229
 20
77.269662
 30
772.705429
  0
VERTEX
  5
347
  8
TEAM-NET
 10
-211.409557
 20
74.662769
 30
772.705429
  0
VERTEX
  5
348
  8
TEAM-NET
 10
-217.0961
 20
70.87638
 30
772.705429
  0
VERTEX
  5
349
  8
TEAM-NET
 10
-221.945387
 20
66.053967
 30
772.705429
  0
VERTEX
  5
34A
  8
TEAM-NET
 10
-225.773668
 20
60.378261
 30
772.705429
  0
VERTEX
  5
34B
  8
TEAM-NET
 10
-228.435886
 20
54.064322
 30
772.705429
  0
VERTEX
  5
34C
  8
TEAM-NET
 10
-229.831163
 20
47.351397
 30
772.705429
  0
VERTEX
  5
34D
  8
TEAM-NET
 10
-229.906631
 20
40.493848
 30
772.705429
  0
SEQEND
  5
34E
  8
TEAM-NET
  0
POLYLINE
  5
99
  8
TEAM-NET
 66
     1
 10
0.0
 20
0.0
 30
0.0
 70
     8
  0
VERTEX
  5
9A
  8
TEAM-NET
 10
0.001925
 20
-228.392732
 30
773.359706
 70
    32
  0
VERTEX
  5
9B
  8
TEAM-NET
 10
-6.984506
 20
-228.330533
 30
773.741977
 70
    32
  0
VERTEX
  5
9C
  8
TEAM-NET
 10
-13.812783
 20
-226.832329
 30
774.115
 70
    32
  0
VERTEX
  5
9D
  8
TEAM-NET
 10
-20.187681
 20
-223.960265
 30
774.462756
 70
    32
  0
VERTEX
  5
9E
  8
TEAM-NET
 10
-25.83233
 20
-219.835556
 30
774.770293
 70
    32
  0
VERTEX
  5
9F
  8
TEAM-NET
 10
-30.500455
 20
-214.635288
 30
775.024368
 70
    32
  0
VERTEX
  5
A0
  8
TEAM-NET
 10
-33.989443
 20
-208.583934
 30
775.214118
 70
    32
  0
VERTEX
  5
A1
  8
TEAM-NET
 10
-36.144963
 20
-201.942541
 30
775.331285
 70
    32
  0
VERTEX
  5
A2
  8
TEAM-NET
 10
-36.874197
 20
-195.0
 30
775.370913
 70
    32
  0
SEQEND
  5
A3
  8
TEAM-NET
  0
POLYLINE
  5
A4
  8
TEAM-NET
 66
     1
 10
0.0
 20
0.0
 30
0.0
 70
     8
  0
VERTEX
  5
A5
  8
TEAM-NET
 10
36.877997
 20
-195.0
 30
775.370911
 70
    32
  0
VERTEX
  5
A6
  8
TEAM-NET
 10
36.148615
 20
-201.942439
 30
775.331274
 70
    32
  0
VERTEX
  5
A7
  8
TEAM-NET
 10
33.992711
 20
-208.583635
 30
775.214086
 70
    32
  0
VERTEX
  5
A8
  8
TEAM-NET
 10
30.504131
 20
-214.635184
 30
775.024359
 70
    32
  0
VERTEX
  5
A9
  8
TEAM-NET
 10
25.836396
 20
-219.835866
 30
774.770305
 70
    32
  0
VERTEX
  5
AA
  8
TEAM-NET
 10
20.191847
 20
-223.960505
 30
774.462773
 70
    32
  0
VERTEX
  5
AB
  8
TEAM-NET
 10
13.816775
 20
-226.832414
 30
774.115008
 70
    32
  0
VERTEX
  5
AC
  8
TEAM-NET
 10
6.988444
 20
-228.330607
 30
773.741982
 70
    32
  0
VERTEX
  5
AD
  8
TEAM-NET
 10
0.001925
 20
-228.392732
 30
773.359706
 70
    32
  0
SEQEND
  5
AE
  8
TEAM-NET
  0
POLYLINE
  5
AF
  8
TEAM-NET
 66
     1
 10
0.0
 20
0.0
 30
0.0
 70
     8
  0
VERTEX
  5
B0
  8
TEAM-NET
 10
-36.874197
 20
-195.0
 30
775.370913
 70
    32
  0
VERTEX
  5
B1
  8
TEAM-NET
 10
-36.144803
 20
-188.057559
 30
775.331276
 70
    32
  0
VERTEX
  5
B2
  8
TEAM-NET
 10
-33.988899
 20
-181.416364
 30
775.214088
 70
    32
  0
VERTEX
  5
B3
  8
TEAM-NET
 10
-30.500302
 20
-175.364824
 30
775.02436
 70
    32
  0
VERTEX
  5
B4
  8
TEAM-NET
 10
-25.832549
 20
-170.164149
 30
774.770305
 70
    32
  0
VERTEX
  5
B5
  8
TEAM-NET
 10
-20.187994
 20
-166.039509
 30
774.462773
 70
    32
  0
VERTEX
  5
B6
  8
TEAM-NET
 10
-13.81292
 20
-163.167594
 30
774.115008
 70
    32
  0
VERTEX
  5
B7
  8
TEAM-NET
 10
-6.984593
 20
-161.669395
 30
773.741982
 70
    32
  0
VERTEX
  5
B8
  8
TEAM-NET
 10
0.001925
 20
-161.607268
 30
773.359706
 70
    32
  0
SEQEND
  5
B9
  8
TEAM-NET
  0
POLYLINE
  5
BA
  8
TEAM-NET
 66
     1
 10
0.0
 20
0.0
 30
0.0
 70
     8
  0
VERTEX
  5
BB
  8
TEAM-NET
 10
0.001925
 20
-161.607268
 30
773.359706
 70
    32
  0
VERTEX
  5
BC
  8
TEAM-NET
 10
6.988293
 20
-161.669547
 30
773.741974
 70
    32
  0
VERTEX
  5
BD
  8
TEAM-NET
 10
13.816794
 20
-163.167578
 30
774.115009
 70
    32
  0
VERTEX
  5
BE
  8
TEAM-NET
 10
20.191381
 20
-166.039987
 30
774.462748
 70
    32
  0
VERTEX
  5
BF
  8
TEAM-NET
 10
25.836206
 20
-170.164369
 30
774.770295
 70
    32
  0
VERTEX
  5
C0
  8
TEAM-NET
 10
30.504166
 20
-175.364754
 30
775.024361
 70
    32
  0
VERTEX
  5
C1
  8
TEAM-NET
 10
33.993236
 20
-181.416074
 30
775.214115
 70
    32
  0
VERTEX
  5
C2
  8
TEAM-NET
 10
36.148725
 20
-188.057488
 30
775.33128
 70
    32
  0
VERTEX
  5
C3
  8
TEAM-NET
 10
36.877997
 20
-195.0
 30
775.370911
 70
    32
  0
SEQEND
  5
C4
  8
TEAM-NET
  0
LINE
  5
C5
  8
TEAM-NET
 10
-3.504576
 20
-190.131278
 30
737.799918
 11
-3.504576
 21
-190.131278
 31
777.799918
210
0.702701
220
0.711485
230
0.0
  0
LINE
  5
C6
  8
TEAM-NET
 10
-14.21961
 20
-179.548529
 30
777.799918
 11
-14.21961
 21
-179.548529
 31
742.799918
210
0.702701
220
0.711485
230
0.0
  0
LINE
  5
C7
  8
TEAM-NET
 10
-14.21961
 20
-179.548529
 30
777.799918
 11
-14.21961
 21
-179.548529
 31
742.799918
  0
LINE
  5
C8
  8
TEAM-NET
 10
-15.625012
 20
-180.971499
 30
777.799918
 11
-15.625012
 21
-180.971499
 31
742.799918
  0
LINE
  5
C9
  8
TEAM-NET
 10
4.870646
 20
-191.493499
 30
737.799918
 11
4.870646
 21
-191.493499
 31
777.799918
210
0.711485
220
-0.702701
230
-0.0
  0
LINE
  5
CA
  8
TEAM-NET
 10
15.453396
 20
-180.778465
 30
777.799918
 11
15.453396
 21
-180.778465
 31
742.799918
210
0.711485
220
-0.702701
230
-0.0
  0
LINE
  5
CB
  8
TEAM-NET
 10
15.453396
 20
-180.778465
 30
777.799918
 11
15.453396
 21
-180.778465
 31
742.799918
  0
LINE
  5
CC
  8
TEAM-NET
 10
14.030426
 20
-179.373063
 30
777.799918
 11
14.030426
 21
-179.373063
 31
742.799918
  0
LINE
  5
CD
  8
TEAM-NET
 10
3.508426
 20
-199.868722
 30
737.799918
 11
3.508426
 21
-199.868722
 31
777.799918
210
-0.702701
220
-0.711485
230
-0.0
  0
LINE
  5
CE
  8
TEAM-NET
 10
14.223459
 20
-210.451471
 30
777.799918
 11
14.223459
 21
-210.451471
 31
742.799918
210
-0.702701
220
-0.711485
230
-0.0
  0
LINE
  5
CF
  8
TEAM-NET
 10
14.223459
 20
-210.451471
 30
777.799918
 11
14.223459
 21
-210.451471
 31
742.799918
  0
LINE
  5
D0
  8
TEAM-NET
 10
15.628862
 20
-209.028501
 30
777.799918
 11
15.628862
 21
-209.028501
 31
742.799918
  0
LINE
  5
D1
  8
TEAM-NET
 10
-4.866797
 20
-198.506501
 30
777.799918
 11
-4.866797
 21
-198.506501
 31
737.799918
210
-0.711485
220
0.702701
230
0.0
  0
LINE
  5
D2
  8
TEAM-NET
 10
-15.449546
 20
-209.221535
 30
777.799918
 11
-15.449546
 21
-209.221535
 31
742.799918
210
-0.711485
220
0.702701
230
0.0
  0
LINE
  5
D3
  8
TEAM-NET
 10
-15.449546
 20
-209.221535
 30
777.799918
 11
-15.449546
 21
-209.221535
 31
742.799918
  0
LINE
  5
D4
  8
TEAM-NET
 10
-14.026576
 20
-210.626937
 30
777.799918
 11
-14.026576
 21
-210.626937
 31
742.799918
  0
LINE
  5
D5
  8
TEAM-NET
 10
4.913828
 20
-198.445752
 30
777.799918
 11
4.913828
 21
-198.445752
 31
737.799918
210
0.702701
220
0.711485
230
0.0
  0
LINE
  5
D6
  8
TEAM-NET
 10
15.628862
 20
-209.028501
 30
777.799918
 11
15.628862
 21
-209.028501
 31
742.799918
210
0.702701
220
0.711485
230
0.0
  0
LINE
  5
D7
  8
TEAM-NET
 10
-3.443827
 20
-199.911903
 30
777.799918
 11
-3.443827
 21
-199.911903
 31
737.799918
  0
LINE
  5
D8
  8
TEAM-NET
 10
3.508426
 20
-199.868722
 30
737.799918
 11
3.508426
 21
-199.868722
 31
777.799918
  0
LINE
  5
D9
  8
TEAM-NET
 10
3.447676
 20
-190.088097
 30
777.799918
 11
3.447676
 21
-190.088097
 31
737.799918
210
-0.711485
220
0.702701
230
0.0
  0
LINE
  5
DA
  8
TEAM-NET
 10
14.030426
 20
-179.373063
 30
777.799918
 11
14.030426
 21
-179.373063
 31
742.799918
210
-0.711485
220
0.702701
230
0.0
  0
LINE
  5
DB
  8
TEAM-NET
 10
4.870646
 20
-191.493499
 30
737.799918
 11
4.870646
 21
-191.493499
 31
777.799918
  0
LINE
  5
DC
  8
TEAM-NET
 10
4.913828
 20
-198.445752
 30
777.799918
 11
4.913828
 21
-198.445752
 31
737.799918
  0
LINE
  5
DD
  8
TEAM-NET
 10
-4.909979
 20
-191.554248
 30
777.799918
 11
-4.909979
 21
-191.554248
 31
737.799918
210
-0.702701
220
-0.711485
230
-0.0
  0
LINE
  5
DE
  8
TEAM-NET
 10
-15.625012
 20
-180.971499
 30
777.799918
 11
-15.625012
 21
-180.971499
 31
742.799918
210
-0.702701
220
-0.711485
230
-0.0
  0
LINE
  5
DF
  8
TEAM-NET
 10
-4.866797
 20
-198.506501
 30
777.799918
 11
-4.866797
 21
-198.506501
 31
737.799918
  0
LINE
  5
E0
  8
TEAM-NET
 10
-4.909979
 20
-191.554248
 30
777.799918
 11
-4.909979
 21
-191.554248
 31
737.799918
  0
LINE
  5
E1
  8
TEAM-NET
 10
-3.504576
 20
-190.131278
 30
737.799918
 11
-3.504576
 21
-190.131278
 31
777.799918
  0
LINE
  5
E2
  8
TEAM-NET
 10
3.447676
 20
-190.088097
 30
777.799918
 11
3.447676
 21
-190.088097
 31
737.799918
  0
LINE
  5
E3
  8
TEAM-NET
 10
-3.443827
 20
-199.911903
 30
777.799918
 11
-3.443827
 21
-199.911903
 31
737.799918
210
0.711485
220
-0.702701
230
-0.0
  0
LINE
  5
E4
  8
TEAM-NET
 10
-14.026576
 20
-210.626937
 30
777.799918
 11
-14.026576
 21
-210.626937
 31
742.799918
210
0.711485
220
-0.702701
230
-0.0
  0
LINE
  5
E5
  8
TEAM-NET
 10
250.001925
 20
0.0
 30
767.632548
 11
250.001925
 21
-460.0
 31
767.632548
  0
LINE
  5
E6
  8
TEAM-NET
 10
250.001925
 20
0.0
 30
767.632548
 11
250.001925
 21
-460.0
 31
767.632548
210
1.0
220
0.0
230
0.0
  0
LINE
  5
E7
  8
TEAM-NET
 10
240.001925
 20
-460.0
 30
757.632548
 11
240.001925
 21
0.0
 31
757.632548
  0
LINE
  5
E8
  8
TEAM-NET
 10
240.001925
 20
-460.0
 30
757.632548
 11
240.001925
 21
0.0
 31
757.632548
210
0.0
220
0.0
230
-1.0
  0
LINE
  5
E9
  8
TEAM-NET
 10
0.001925
 20
-229.906631
 30
773.765747
 11
0.001925
 21
-420.0
 31
773.765747
210
0.052336
220
0.0
230
0.99863
  0
LINE
  5
EA
  8
TEAM-NET
 10
0.001925
 20
-229.906631
 30
773.765747
 11
0.001925
 21
-420.0
 31
773.765747
210
-0.052336
220
0.0
230
0.99863
  0
LINE
  5
EB
  8
TEAM-NET
 10
-249.998075
 20
-460.0
 30
757.632548
 11
-249.998075
 21
0.0
 31
757.632548
210
0.0
220
0.0
230
-1.0
  0
LINE
  5
EC
  8
TEAM-NET
 10
-249.998075
 20
-460.0
 30
757.632548
 11
-249.998075
 21
0.0
 31
757.632548
210
-1.0
220
0.0
230
0.0
  0
LINE
  5
ED
  8
TEAM-NET
 10
-249.998075
 20
-460.0
 30
757.632548
 11
240.001925
 21
-460.0
 31
757.632548
  0
LINE
  5
EE
  8
TEAM-NET
 10
-249.998075
 20
-460.0
 30
757.632548
 11
240.001925
 21
-460.0
 31
757.632548
210
0.0
220
0.0
230
-1.0
  0
LINE
  5
EF
  8
TEAM-NET
 10
240.001925
 20
-470.0
 30
767.632548
 11
-239.998075
 21
-470.0
 31
767.632548
  0
LINE
  5
F0
  8
TEAM-NET
 10
240.001925
 20
-470.0
 30
767.632548
 11
-239.998075
 21
-470.0
 31
767.632548
210
0.0
220
-1.0
230
0.0
  0
POLYLINE
  5
F1
  8
TEAM-NET
 66
     1
 10
0.0
 20
0.0
 30
-712.502446
 70
   128
210
0.707107
220
0.0
230
-0.707107
  0
VERTEX
  5
34F
  8
TEAM-NET
 10
-470.0
 20
373.093913
 30
-712.502446
  0
VERTEX
  5
350
  8
TEAM-NET
 10
-469.848078
 20
370.638157
 30
-712.502446
  0
VERTEX
  5
351
  8
TEAM-NET
 10
-469.396926
 20
368.257018
 30
-712.502446
  0
VERTEX
  5
352
  8
TEAM-NET
 10
-468.660254
 20
366.022846
 30
-712.502446
  0
VERTEX
  5
353
  8
TEAM-NET
 10
-467.660444
 20
364.003524
 30
-712.502446
  0
VERTEX
  5
354
  8
TEAM-NET
 10
-466.427876
 20
362.260409
 30
-712.502446
  0
VERTEX
  5
355
  8
TEAM-NET
 10
-465.0
 20
360.846465
 30
-712.502446
  0
VERTEX
  5
356
  8
TEAM-NET
 10
-463.420201
 20
359.804653
 30
-712.502446
  0
VERTEX
  5
357
  8
TEAM-NET
 10
-461.736482
 20
359.166629
 30
-712.502446
  0
VERTEX
  5
358
  8
TEAM-NET
 10
-460.0
 20
358.951778
 30
-712.502446
  0
SEQEND
  5
359
  8
TEAM-NET
  0
POLYLINE
  5
F2
  8
TEAM-NET
 66
     1
 10
0.0
 20
0.0
 30
-712.502446
 70
   128
210
0.707107
220
0.0
230
-0.707107
  0
VERTEX
  5
35A
  8
TEAM-NET
 10
-470.0
 20
373.093913
 30
-712.502446
  0
VERTEX
  5
35B
  8
TEAM-NET
 10
-469.848078
 20
370.638157
 30
-712.502446
  0
VERTEX
  5
35C
  8
TEAM-NET
 10
-469.396926
 20
368.257018
 30
-712.502446
  0
VERTEX
  5
35D
  8
TEAM-NET
 10
-468.660254
 20
366.022846
 30
-712.502446
  0
VERTEX
  5
35E
  8
TEAM-NET
 10
-467.660444
 20
364.003524
 30
-712.502446
  0
VERTEX
  5
35F
  8
TEAM-NET
 10
-466.427876
 20
362.260409
 30
-712.502446
  0
VERTEX
  5
360
  8
TEAM-NET
 10
-465.0
 20
360.846465
 30
-712.502446
  0
VERTEX
  5
361
  8
TEAM-NET
 10
-463.420201
 20
359.804653
 30
-712.502446
  0
VERTEX
  5
362
  8
TEAM-NET
 10
-461.736482
 20
359.166629
 30
-712.502446
  0
VERTEX
  5
363
  8
TEAM-NET
 10
-460.0
 20
358.951778
 30
-712.502446
  0
SEQEND
  5
364
  8
TEAM-NET
  0
ARC
  5
F3
  8
TEAM-NET
 10
240.001925
 20
-460.0
 30
767.632548
 40
10.0
 50
270.0
 51
360.0
  0
ARC
  5
F4
  8
TEAM-NET
 10
240.001925
 20
-460.0
 30
767.632548
 40
10.0
 50
270.0
 51
360.0
  0
ARC
  5
F5
  8
TEAM-NET
 10
460.0
 20
767.632548
 30
-240.001925
 40
10.0
210
-1.0
220
0.0
230
0.0
 50
270.0
 51
360.0
  0
ARC
  5
F6
  8
TEAM-NET
 10
240.001925
 20
767.632548
 30
460.0
 40
10.0
210
0.0
220
-1.0
230
0.0
 50
270.0
 51
0.0
  0
ARC
  5
F7
  8
TEAM-NET
 10
460.0
 20
767.632548
 30
-240.001925
 40
10.0
210
-1.0
220
0.0
230
0.0
 50
270.0
 51
360.0
  0
ARC
  5
F8
  8
TEAM-NET
 10
240.001925
 20
767.632548
 30
460.0
 40
10.0
210
0.0
220
-1.0
230
0.0
 50
270.0
 51
0.0
  0
POLYLINE
  5
F9
  8
TEAM-NET
 66
     1
 10
0.0
 20
0.0
 30
0.0
 70
     8
  0
VERTEX
  5
FA
  8
TEAM-NET
 10
-10.507829
 20
-207.064206
 30
737.799918
 70
    32
  0
VERTEX
  5
FB
  8
TEAM-NET
 10
-11.854096
 20
-208.427301
 30
738.180047
 70
    32
  0
VERTEX
  5
FC
  8
TEAM-NET
 10
-12.995277
 20
-209.582747
 30
739.263019
 70
    32
  0
VERTEX
  5
FD
  8
TEAM-NET
 10
-13.758637
 20
-210.355649
 30
740.885806
 70
    32
  0
VERTEX
  5
FE
  8
TEAM-NET
 10
-14.026576
 20
-210.626937
 30
742.799918
 70
    32
  0
SEQEND
  5
FF
  8
TEAM-NET
  0
POLYLINE
  5
100
  8
TEAM-NET
 66
     1
 10
0.0
 20
0.0
 30
0.0
 70
     8
  0
VERTEX
  5
101
  8
TEAM-NET
 10
-12.062281
 20
-184.490246
 30
737.799918
 70
    32
  0
VERTEX
  5
102
  8
TEAM-NET
 10
-13.425376
 20
-183.143979
 30
738.180047
 70
    32
  0
VERTEX
  5
103
  8
TEAM-NET
 10
-14.580822
 20
-182.002798
 30
739.263019
 70
    32
  0
VERTEX
  5
104
  8
TEAM-NET
 10
-15.353724
 20
-181.239438
 30
740.885806
 70
    32
  0
VERTEX
  5
105
  8
TEAM-NET
 10
-15.625012
 20
-180.971499
 30
742.799918
 70
    32
  0
SEQEND
  5
106
  8
TEAM-NET
  0
POLYLINE
  5
107
  8
TEAM-NET
 66
     1
 10
0.0
 20
0.0
 30
0.0
 70
     8
  0
VERTEX
  5
108
  8
TEAM-NET
 10
10.511679
 20
-182.935794
 30
737.799918
 70
    32
  0
VERTEX
  5
109
  8
TEAM-NET
 10
11.857945
 20
-181.572699
 30
738.180047
 70
    32
  0
VERTEX
  5
10A
  8
TEAM-NET
 10
12.999126
 20
-180.417253
 30
739.263019
 70
    32
  0
VERTEX
  5
10B
  8
TEAM-NET
 10
13.762486
 20
-179.644351
 30
740.885806
 70
    32
  0
VERTEX
  5
10C
  8
TEAM-NET
 10
14.030426
 20
-179.373063
 30
742.799918
 70
    32
  0
SEQEND
  5
10D
  8
TEAM-NET
  0
POLYLINE
  5
10E
  8
TEAM-NET
 66
     1
 10
0.0
 20
0.0
 30
0.0
 70
     8
  0
VERTEX
  5
10F
  8
TEAM-NET
 10
12.066131
 20
-205.509754
 30
737.799918
 70
    32
  0
VERTEX
  5
110
  8
TEAM-NET
 10
13.429226
 20
-206.856021
 30
738.180047
 70
    32
  0
VERTEX
  5
111
  8
TEAM-NET
 10
14.584671
 20
-207.997202
 30
739.263019
 70
    32
  0
VERTEX
  5
112
  8
TEAM-NET
 10
15.357573
 20
-208.760562
 30
740.885806
 70
    32
  0
VERTEX
  5
113
  8
TEAM-NET
 10
15.628862
 20
-209.028501
 30
742.799918
 70
    32
  0
SEQEND
  5
114
  8
TEAM-NET
  0
POLYLINE
  5
115
  8
TEAM-NET
 66
     1
 10
0.0
 20
0.0
 30
0.0
 70
     8
  0
VERTEX
  5
116
  8
TEAM-NET
 10
-15.449546
 20
-209.221535
 30
742.799918
 70
    32
  0
VERTEX
  5
117
  8
TEAM-NET
 10
-15.181311
 20
-208.949947
 30
740.884784
 70
    32
  0
VERTEX
  5
118
  8
TEAM-NET
 10
-14.418242
 20
-208.177339
 30
739.263012
 70
    32
  0
VERTEX
  5
119
  8
TEAM-NET
 10
-13.276348
 20
-207.021172
 30
738.179695
 70
    32
  0
VERTEX
  5
11A
  8
TEAM-NET
 10
-11.930799
 20
-205.658804
 30
737.799918
 70
    32
  0
SEQEND
  5
11B
  8
TEAM-NET
  0
POLYLINE
  5
11C
  8
TEAM-NET
 66
     1
 10
0.0
 20
0.0
 30
0.0
 70
     8
  0
VERTEX
  5
11D
  8
TEAM-NET
 10
14.223459
 20
-210.451471
 30
742.799918
 70
    32
  0
VERTEX
  5
11E
  8
TEAM-NET
 10
13.951871
 20
-210.183236
 30
740.884784
 70
    32
  0
VERTEX
  5
11F
  8
TEAM-NET
 10
13.179264
 20
-209.420167
 30
739.263012
 70
    32
  0
VERTEX
  5
120
  8
TEAM-NET
 10
12.023096
 20
-208.278273
 30
738.179695
 70
    32
  0
VERTEX
  5
121
  8
TEAM-NET
 10
10.660728
 20
-206.932724
 30
737.799918
 70
    32
  0
SEQEND
  5
122
  8
TEAM-NET
  0
POLYLINE
  5
123
  8
TEAM-NET
 66
     1
 10
0.0
 20
0.0
 30
0.0
 70
     8
  0
VERTEX
  5
124
  8
TEAM-NET
 10
15.453396
 20
-180.778465
 30
742.799918
 70
    32
  0
VERTEX
  5
125
  8
TEAM-NET
 10
15.185161
 20
-181.050053
 30
740.884784
 70
    32
  0
VERTEX
  5
126
  8
TEAM-NET
 10
14.422092
 20
-181.822661
 30
739.263012
 70
    32
  0
VERTEX
  5
127
  8
TEAM-NET
 10
13.280198
 20
-182.978828
 30
738.179695
 70
    32
  0
VERTEX
  5
128
  8
TEAM-NET
 10
11.934649
 20
-184.341196
 30
737.799918
 70
    32
  0
SEQEND
  5
129
  8
TEAM-NET
  0
POLYLINE
  5
12A
  8
TEAM-NET
 66
     1
 10
0.0
 20
0.0
 30
0.0
 70
     8
  0
VERTEX
  5
12B
  8
TEAM-NET
 10
-14.21961
 20
-179.548529
 30
742.799918
 70
    32
  0
VERTEX
  5
12C
  8
TEAM-NET
 10
-13.948022
 20
-179.816764
 30
740.884784
 70
    32
  0
VERTEX
  5
12D
  8
TEAM-NET
 10
-13.175414
 20
-180.579833
 30
739.263012
 70
    32
  0
VERTEX
  5
12E
  8
TEAM-NET
 10
-12.019247
 20
-181.721727
 30
738.179695
 70
    32
  0
VERTEX
  5
12F
  8
TEAM-NET
 10
-10.656879
 20
-183.067276
 30
737.799918
 70
    32
  0
SEQEND
  5
130
  8
TEAM-NET
  0
POLYLINE
  5
131
  8
TEAM-NET
 66
     1
 10
0.0
 20
0.0
 30
0.0
 70
     8
  0
VERTEX
  5
132
  8
TEAM-NET
 10
-10.507829
 20
-207.064206
 30
737.799918
 70
    32
  0
VERTEX
  5
133
  8
TEAM-NET
 10
-11.854096
 20
-208.427301
 30
738.180047
 70
    32
  0
VERTEX
  5
134
  8
TEAM-NET
 10
-12.995277
 20
-209.582747
 30
739.263019
 70
    32
  0
VERTEX
  5
135
  8
TEAM-NET
 10
-13.758637
 20
-210.355649
 30
740.885806
 70
    32
  0
VERTEX
  5
136
  8
TEAM-NET
 10
-14.026576
 20
-210.626937
 30
742.799918
 70
    32
  0
SEQEND
  5
137
  8
TEAM-NET
  0
POLYLINE
  5
138
  8
TEAM-NET
 66
     1
 10
0.0
 20
0.0
 30
0.0
 70
     8
  0
VERTEX
  5
139
  8
TEAM-NET
 10
-15.449546
 20
-209.221535
 30
742.799918
 70
    32
  0
VERTEX
  5
13A
  8
TEAM-NET
 10
-15.181311
 20
-208.949947
 30
740.884784
 70
    32
  0
VERTEX
  5
13B
  8
TEAM-NET
 10
-14.418242
 20
-208.177339
 30
739.263012
 70
    32
  0
VERTEX
  5
13C
  8
TEAM-NET
 10
-13.276348
 20
-207.021172
 30
738.179695
 70
    32
  0
VERTEX
  5
13D
  8
TEAM-NET
 10
-11.930799
 20
-205.658804
 30
737.799918
 70
    32
  0
SEQEND
  5
13E
  8
TEAM-NET
  0
POLYLINE
  5
13F
  8
TEAM-NET
 66
     1
 10
0.0
 20
0.0
 30
0.0
 70
     8
  0
VERTEX
  5
140
  8
TEAM-NET
 10
12.066131
 20
-205.509754
 30
737.799918
 70
    32
  0
VERTEX
  5
141
  8
TEAM-NET
 10
13.429226
 20
-206.856021
 30
738.180047
 70
    32
  0
VERTEX
  5
142
  8
TEAM-NET
 10
14.584671
 20
-207.997202
 30
739.263019
 70
    32
  0
VERTEX
  5
143
  8
TEAM-NET
 10
15.357573
 20
-208.760562
 30
740.885806
 70
    32
  0
VERTEX
  5
144
  8
TEAM-NET
 10
15.628862
 20
-209.028501
 30
742.799918
 70
    32
  0
SEQEND
  5
145
  8
TEAM-NET
  0
POLYLINE
  5
146
  8
TEAM-NET
 66
     1
 10
0.0
 20
0.0
 30
0.0
 70
     8
  0
VERTEX
  5
147
  8
TEAM-NET
 10
14.223459
 20
-210.451471
 30
742.799918
 70
    32
  0
VERTEX
  5
148
  8
TEAM-NET
 10
13.951871
 20
-210.183236
 30
740.884784
 70
    32
  0
VERTEX
  5
149
  8
TEAM-NET
 10
13.179264
 20
-209.420167
 30
739.263012
 70
    32
  0
VERTEX
  5
14A
  8
TEAM-NET
 10
12.023096
 20
-208.278273
 30
738.179695
 70
    32
  0
VERTEX
  5
14B
  8
TEAM-NET
 10
10.660728
 20
-206.932724
 30
737.799918
 70
    32
  0
SEQEND
  5
14C
  8
TEAM-NET
  0
POLYLINE
  5
14D
  8
TEAM-NET
 66
     1
 10
0.0
 20
0.0
 30
0.0
 70
     8
  0
VERTEX
  5
14E
  8
TEAM-NET
 10
10.511679
 20
-182.935794
 30
737.799918
 70
    32
  0
VERTEX
  5
14F
  8
TEAM-NET
 10
11.857945
 20
-181.572699
 30
738.180047
 70
    32
  0
VERTEX
  5
150
  8
TEAM-NET
 10
12.999126
 20
-180.417253
 30
739.263019
 70
    32
  0
VERTEX
  5
151
  8
TEAM-NET
 10
13.762486
 20
-179.644351
 30
740.885806
 70
    32
  0
VERTEX
  5
152
  8
TEAM-NET
 10
14.030426
 20
-179.373063
 30
742.799918
 70
    32
  0
SEQEND
  5
153
  8
TEAM-NET
  0
POLYLINE
  5
154
  8
TEAM-NET
 66
     1
 10
0.0
 20
0.0
 30
0.0
 70
     8
  0
VERTEX
  5
155
  8
TEAM-NET
 10
15.453396
 20
-180.778465
 30
742.799918
 70
    32
  0
VERTEX
  5
156
  8
TEAM-NET
 10
15.185161
 20
-181.050053
 30
740.884784
 70
    32
  0
VERTEX
  5
157
  8
TEAM-NET
 10
14.422092
 20
-181.822661
 30
739.263012
 70
    32
  0
VERTEX
  5
158
  8
TEAM-NET
 10
13.280198
 20
-182.978828
 30
738.179695
 70
    32
  0
VERTEX
  5
159
  8
TEAM-NET
 10
11.934649
 20
-184.341196
 30
737.799918
 70
    32
  0
SEQEND
  5
15A
  8
TEAM-NET
  0
POLYLINE
  5
15B
  8
TEAM-NET
 66
     1
 10
0.0
 20
0.0
 30
0.0
 70
     8
  0
VERTEX
  5
15C
  8
TEAM-NET
 10
-12.062281
 20
-184.490246
 30
737.799918
 70
    32
  0
VERTEX
  5
15D
  8
TEAM-NET
 10
-13.425376
 20
-183.143979
 30
738.180047
 70
    32
  0
VERTEX
  5
15E
  8
TEAM-NET
 10
-14.580822
 20
-182.002798
 30
739.263019
 70
    32
  0
VERTEX
  5
15F
  8
TEAM-NET
 10
-15.353724
 20
-181.239438
 30
740.885806
 70
    32
  0
VERTEX
  5
160
  8
TEAM-NET
 10
-15.625012
 20
-180.971499
 30
742.799918
 70
    32
  0
SEQEND
  5
161
  8
TEAM-NET
  0
POLYLINE
  5
162
  8
TEAM-NET
 66
     1
 10
0.0
 20
0.0
 30
0.0
 70
     8
  0
VERTEX
  5
163
  8
TEAM-NET
 10
-14.21961
 20
-179.548529
 30
742.799918
 70
    32
  0
VERTEX
  5
164
  8
TEAM-NET
 10
-13.948022
 20
-179.816764
 30
740.884784
 70
    32
  0
VERTEX
  5
165
  8
TEAM-NET
 10
-13.175414
 20
-180.579833
 30
739.263012
 70
    32
  0
VERTEX
  5
166
  8
TEAM-NET
 10
-12.019247
 20
-181.721727
 30
738.179695
 70
    32
  0
VERTEX
  5
167
  8
TEAM-NET
 10
-10.656879
 20
-183.067276
 30
737.799918
 70
    32
  0
SEQEND
  5
168
  8
TEAM-NET
  0
ARC
  5
169
  8
TEAM-NET
 10
-59.324245
 20
737.632548
 30
195.0
 40
20.0
210
0.0
220
-1.0
230
0.0
 50
5.0
 51
90.0
  0
ARC
  5
16A
  8
TEAM-NET
 10
-59.328095
 20
737.632548
 30
-195.0
 40
20.0
210
0.0
220
1.0
230
0.0
 50
5.0
 51
90.0
  0
ARC
  5
16B
  8
TEAM-NET
 10
-59.324245
 20
737.632548
 30
195.0
 40
20.0
210
0.0
220
-1.0
230
0.0
 50
5.0
 51
90.0
  0
ARC
  5
16C
  8
TEAM-NET
 10
-59.328095
 20
737.632548
 30
-195.0
 40
20.0
210
0.0
220
1.0
230
0.0
 50
5.0
 51
90.0
  0
LINE
  5
16D
  8
TEAM-NET
 10
21.001925
 20
-195.0
 30
767.799918
 11
21.001925
 21
-195.0
 31
737.957536
  0
LINE
  5
16E
  8
TEAM-NET
 10
-20.998075
 20
-195.0
 30
767.799918
 11
-20.998075
 21
-195.0
 31
737.957536
  0
LINE
  5
16F
  8
TEAM-NET
 10
22.001925
 20
-195.0
 30
767.957536
 11
22.001925
 21
-195.0
 31
737.957536
  0
LINE
  5
170
  8
TEAM-NET
 10
-21.998075
 20
-195.0
 30
767.957536
 11
-21.998075
 21
-195.0
 31
737.957536
  0
LINE
  5
171
  8
TEAM-NET
 10
22.001925
 20
-195.0
 30
767.957536
 11
22.001925
 21
-195.0
 31
737.957536
  0
LINE
  5
172
  8
TEAM-NET
 10
-21.998075
 20
-195.0
 30
767.957536
 11
-21.998075
 21
-195.0
 31
737.957536
  0
LINE
  5
173
  8
TEAM-NET
 10
21.001925
 20
-195.0
 30
767.799918
 11
21.001925
 21
-195.0
 31
737.957536
  0
LINE
  5
174
  8
TEAM-NET
 10
-20.998075
 20
-195.0
 30
767.799918
 11
-20.998075
 21
-195.0
 31
737.957536
  0
LINE
  5
175
  8
TEAM-NET
 10
-25.998075
 20
-195.0
 30
717.632548
 11
-25.998075
 21
-195.0
 31
767.35946
  0
LINE
  5
176
  8
TEAM-NET
 10
26.001925
 20
-195.0
 30
717.632548
 11
26.001925
 21
-195.0
 31
767.35946
  0
LINE
  5
177
  8
TEAM-NET
 10
-25.998075
 20
-195.0
 30
717.632548
 11
-25.998075
 21
-195.0
 31
767.35946
  0
LINE
  5
178
  8
TEAM-NET
 10
26.001925
 20
-195.0
 30
717.632548
 11
26.001925
 21
-195.0
 31
767.35946
  0
ARC
  5
179
  8
TEAM-NET
 10
0.001925
 20
-195.0
 30
739.375663
 40
39.402276
 50
0.0
 51
180.0
  0
ARC
  5
17A
  8
TEAM-NET
 10
0.001925
 20
-195.0
 30
739.375663
 40
39.402276
 50
180.0
 51
0.0
  0
ARC
  5
17B
  8
TEAM-NET
 10
0.001925
 20
-195.0
 30
739.375663
 40
39.402276
 50
0.0
 51
180.0
  0
ARC
  5
17C
  8
TEAM-NET
 10
0.001925
 20
-195.0
 30
739.375663
 40
39.402276
 50
180.0
 51
0.0
  0
ARC
  5
17D
  8
TEAM-NET
 10
0.001925
 20
-195.0
 30
737.799918
 40
16.0
 50
131.772548
 51
138.939192
  0
ARC
  5
17E
  8
TEAM-NET
 10
0.001925
 20
-195.0
 30
737.799918
 40
16.0
 50
41.772548
 51
48.939192
  0
ARC
  5
17F
  8
TEAM-NET
 10
0.001925
 20
-195.0
 30
737.799918
 40
16.0
 50
311.772548
 51
318.939192
  0
ARC
  5
180
  8
TEAM-NET
 10
0.001925
 20
-195.0
 30
737.799918
 40
16.0
 50
221.772548
 51
228.939192
  0
ARC
  5
181
  8
TEAM-NET
 10
-0.001925
 20
-195.0
 30
-737.799918
 40
16.0
210
0.0
220
0.0
230
-1.0
 50
221.060808
 51
228.227452
  0
LINE
  5
182
  8
TEAM-NET
 10
3.508426
 20
-199.868722
 30
737.799918
 11
10.660728
 21
-206.932724
 31
737.799918
210
0.0
220
0.0
230
-1.0
  0
LINE
  5
183
  8
TEAM-NET
 10
12.066131
 20
-205.509754
 30
737.799918
 11
4.913828
 21
-198.445752
 31
737.799918
210
0.0
220
0.0
230
-1.0
  0
ARC
  5
184
  8
TEAM-NET
 10
-0.001925
 20
-195.0
 30
-737.799918
 40
6.0
210
0.0
220
0.0
230
-1.0
 50
234.238198
 51
305.050062
  0
ARC
  5
185
  8
TEAM-NET
 10
-0.001925
 20
-195.0
 30
-737.799918
 40
6.0
210
0.0
220
0.0
230
-1.0
 50
144.238198
 51
215.050062
  0
LINE
  5
186
  8
TEAM-NET
 10
-10.507829
 20
-207.064206
 30
737.799918
 11
-3.443827
 21
-199.911903
 31
737.799918
210
0.0
220
0.0
230
-1.0
  0
LINE
  5
187
  8
TEAM-NET
 10
4.870646
 20
-191.493499
 30
737.799918
 11
11.934649
 21
-184.341196
 31
737.799918
210
0.0
220
0.0
230
-1.0
  0
ARC
  5
188
  8
TEAM-NET
 10
-0.001925
 20
-195.0
 30
-737.799918
 40
16.0
210
0.0
220
0.0
230
-1.0
 50
311.060808
 51
318.227452
  0
ARC
  5
189
  8
TEAM-NET
 10
-0.001925
 20
-195.0
 30
-737.799918
 40
16.0
210
0.0
220
0.0
230
-1.0
 50
131.060808
 51
138.227452
  0
LINE
  5
18A
  8
TEAM-NET
 10
-4.866797
 20
-198.506501
 30
737.799918
 11
-11.930799
 21
-205.658804
 31
737.799918
210
0.0
220
0.0
230
-1.0
  0
LINE
  5
18B
  8
TEAM-NET
 10
10.511679
 20
-182.935794
 30
737.799918
 11
3.447676
 21
-190.088097
 31
737.799918
210
0.0
220
0.0
230
-1.0
  0
ARC
  5
18C
  8
TEAM-NET
 10
-0.001925
 20
-195.0
 30
-737.799918
 40
6.0
210
0.0
220
0.0
230
-1.0
 50
324.238198
 51
35.050062
  0
ARC
  5
18D
  8
TEAM-NET
 10
-0.001925
 20
-195.0
 30
-737.799918
 40
6.0
210
0.0
220
0.0
230
-1.0
 50
54.238198
 51
125.050062
  0
LINE
  5
18E
  8
TEAM-NET
 10
-12.062281
 20
-184.490246
 30
737.799918
 11
-4.909979
 21
-191.554248
 31
737.799918
210
0.0
220
0.0
230
-1.0
  0
LINE
  5
18F
  8
TEAM-NET
 10
-3.504576
 20
-190.131278
 30
737.799918
 11
-10.656879
 21
-183.067276
 31
737.799918
210
0.0
220
0.0
230
-1.0
  0
ARC
  5
190
  8
TEAM-NET
 10
-0.001925
 20
-195.0
 30
-737.799918
 40
16.0
210
0.0
220
0.0
230
-1.0
 50
41.060808
 51
48.227452
  0
ARC
  5
191
  8
TEAM-NET
 10
-0.001925
 20
-195.0
 30
-737.957536
 40
21.0
210
0.0
220
0.0
230
-1.0
 50
0.0
 51
180.0
  0
ARC
  5
192
  8
TEAM-NET
 10
-0.001925
 20
-195.0
 30
-737.957536
 40
21.0
210
0.0
220
0.0
230
-1.0
 50
180.0
 51
0.0
  0
ARC
  5
193
  8
TEAM-NET
 10
-0.001925
 20
-195.0
 30
-737.957536
 40
22.0
210
0.0
220
0.0
230
-1.0
 50
0.0
 51
180.0
  0
ARC
  5
194
  8
TEAM-NET
 10
-0.001925
 20
-195.0
 30
-737.957536
 40
22.0
210
0.0
220
0.0
230
-1.0
 50
180.0
 51
0.0
  0
LINE
  5
195
  8
TEAM-NET
 10
-3.504576
 20
-190.131278
 30
737.799918
 11
-10.656879
 21
-183.067276
 31
737.799918
210
0.702701
220
0.711485
230
0.0
  0
LINE
  5
196
  8
TEAM-NET
 10
4.870646
 20
-191.493499
 30
737.799918
 11
11.934649
 21
-184.341196
 31
737.799918
210
0.711485
220
-0.702701
230
-0.0
  0
LINE
  5
197
  8
TEAM-NET
 10
3.508426
 20
-199.868722
 30
737.799918
 11
10.660728
 21
-206.932724
 31
737.799918
210
-0.702701
220
-0.711485
230
-0.0
  0
LINE
  5
198
  8
TEAM-NET
 10
-4.866797
 20
-198.506501
 30
737.799918
 11
-11.930799
 21
-205.658804
 31
737.799918
210
-0.711485
220
0.702701
230
0.0
  0
LINE
  5
199
  8
TEAM-NET
 10
12.066131
 20
-205.509754
 30
737.799918
 11
4.913828
 21
-198.445752
 31
737.799918
210
0.702701
220
0.711485
230
0.0
  0
ARC
  5
19A
  8
TEAM-NET
 10
0.001925
 20
-195.0
 30
737.799918
 40
6.0
 50
234.949938
 51
305.761802
  0
LINE
  5
19B
  8
TEAM-NET
 10
10.511679
 20
-182.935794
 30
737.799918
 11
3.447676
 21
-190.088097
 31
737.799918
210
-0.711485
220
0.702701
230
0.0
  0
ARC
  5
19C
  8
TEAM-NET
 10
0.001925
 20
-195.0
 30
737.799918
 40
6.0
 50
324.949938
 51
35.761802
  0
LINE
  5
19D
  8
TEAM-NET
 10
-12.062281
 20
-184.490246
 30
737.799918
 11
-4.909979
 21
-191.554248
 31
737.799918
210
-0.702701
220
-0.711485
230
-0.0
  0
ARC
  5
19E
  8
TEAM-NET
 10
0.001925
 20
-195.0
 30
737.799918
 40
6.0
 50
144.949938
 51
215.761802
  0
ARC
  5
19F
  8
TEAM-NET
 10
0.001925
 20
-195.0
 30
737.799918
 40
6.0
 50
54.949938
 51
125.761802
  0
LINE
  5
1A0
  8
TEAM-NET
 10
-10.507829
 20
-207.064206
 30
737.799918
 11
-3.443827
 21
-199.911903
 31
737.799918
210
0.711485
220
-0.702701
230
-0.0
  0
ARC
  5
1A1
  8
TEAM-NET
 10
0.001925
 20
-195.0
 30
737.957536
 40
21.0
 50
180.0
 51
0.0
  0
ARC
  5
1A2
  8
TEAM-NET
 10
0.001925
 20
-195.0
 30
737.957536
 40
22.0
 50
360.0
 51
180.0
  0
ARC
  5
1A3
  8
TEAM-NET
 10
0.001925
 20
-195.0
 30
737.957536
 40
22.0
 50
180.0
 51
0.0
  0
ARC
  5
1A4
  8
TEAM-NET
 10
0.001925
 20
-195.0
 30
737.957536
 40
21.0
 50
360.0
 51
180.0
  0
ARC
  5
1A5
  8
TEAM-NET
 10
-0.001925
 20
-195.0
 30
-717.632548
 40
26.0
210
0.0
220
0.0
230
-1.0
 50
360.0
 51
180.0
  0
ARC
  5
1A6
  8
TEAM-NET
 10
-0.001925
 20
-195.0
 30
-717.632548
 40
26.0
210
0.0
220
0.0
230
-1.0
 50
180.0
 51
0.0
  0
ARC
  5
1A7
  8
TEAM-NET
 10
-0.001925
 20
-195.0
 30
-717.632548
 40
37.5
210
0.0
220
0.0
230
-1.0
 50
360.0
 51
180.0
  0
ARC
  5
1A8
  8
TEAM-NET
 10
-0.001925
 20
-195.0
 30
-717.632548
 40
37.5
210
0.0
220
0.0
230
-1.0
 50
180.0
 51
0.0
  0
ARC
  5
1A9
  8
TEAM-NET
 10
0.001925
 20
-195.0
 30
717.632548
 40
37.5
 50
0.0
 51
180.0
  0
ARC
  5
1AA
  8
TEAM-NET
 10
0.001925
 20
-195.0
 30
717.632548
 40
37.5
 50
180.0
 51
0.0
  0
ARC
  5
1AB
  8
TEAM-NET
 10
0.001925
 20
-195.0
 30
717.632548
 40
26.0
 50
180.0
 51
0.0
  0
ARC
  5
1AC
  8
TEAM-NET
 10
0.001925
 20
-195.0
 30
717.632548
 40
26.0
 50
0.0
 51
180.0
  0
LINE
  5
1AD
  8
TEAM-NET
 10
-37.498075
 20
-195.0
 30
717.632548
 11
-39.400351
 21
-195.0
 31
739.375663
  0
LINE
  5
1AE
  8
TEAM-NET
 10
37.501925
 20
-195.0
 30
717.632548
 11
39.404201
 21
-195.0
 31
739.375663
  0
LINE
  5
1AF
  8
TEAM-NET
 10
-37.498075
 20
-195.0
 30
717.632548
 11
-39.400351
 21
-195.0
 31
739.375663
  0
LINE
  5
1B0
  8
TEAM-NET
 10
37.501925
 20
-195.0
 30
717.632548
 11
39.404201
 21
-195.0
 31
739.375663
  0
LINE
  5
1B1
  8
TEAM-NET
 10
-213.998075
 20
-95.0
 30
757.632548
 11
214.001925
 21
-95.0
 31
757.632548
210
0.0
220
0.0
230
-1.0
  0
LINE
  5
1B2
  8
TEAM-NET
 10
-213.998075
 20
-95.0
 30
757.632548
 11
214.001925
 21
-95.0
 31
757.632548
210
0.0
220
1.0
230
0.0
  0
LINE
  5
1B3
  8
TEAM-NET
 10
-214.001925
 20
0.0
 30
757.632548
 11
-214.001925
 21
-30.0
 31
757.632548
210
1.0
220
0.0
230
0.0
  0
LINE
  5
1B4
  8
TEAM-NET
 10
-214.001925
 20
-30.0
 30
757.632548
 11
-213.998075
 21
-30.0
 31
757.632548
210
0.0
220
1.0
230
0.0
  0
LINE
  5
1B5
  8
TEAM-NET
 10
-213.998075
 20
-30.0
 30
757.632548
 11
-213.998075
 21
-95.0
 31
757.632548
210
0.0
220
0.0
230
-1.0
  0
LINE
  5
1B6
  8
TEAM-NET
 10
-214.001925
 20
-30.0
 30
757.632548
 11
-213.998075
 21
-30.0
 31
757.632548
210
0.0
220
0.0
230
-1.0
  0
LINE
  5
1B7
  8
TEAM-NET
 10
-214.001925
 20
0.0
 30
757.632548
 11
-214.001925
 21
-30.0
 31
757.632548
210
0.0
220
0.0
230
-1.0
  0
LINE
  5
1B8
  8
TEAM-NET
 10
-249.998075
 20
0.0
 30
757.632548
 11
-214.001925
 21
0.0
 31
757.632548
210
0.0
220
0.0
230
-1.0
  0
LINE
  5
1B9
  8
TEAM-NET
 10
-249.998075
 20
0.0
 30
757.632548
 11
-214.001925
 21
0.0
 31
757.632548
210
0.0
220
1.0
230
0.0
  0
LINE
  5
1BA
  8
TEAM-NET
 10
-213.998075
 20
-30.0
 30
757.632548
 11
-213.998075
 21
-95.0
 31
757.632548
210
1.0
220
0.0
230
0.0
  0
LINE
  5
1BB
  8
TEAM-NET
 10
214.001925
 20
-95.0
 30
757.632548
 11
214.001925
 21
0.0
 31
757.632548
210
0.0
220
0.0
230
-1.0
  0
LINE
  5
1BC
  8
TEAM-NET
 10
214.001925
 20
0.0
 30
757.632548
 11
240.001925
 21
0.0
 31
757.632548
210
0.0
220
0.0
230
-1.0
  0
LINE
  5
1BD
  8
TEAM-NET
 10
214.001925
 20
0.0
 30
757.632548
 11
240.001925
 21
0.0
 31
757.632548
210
0.0
220
1.0
230
0.0
  0
LINE
  5
1BE
  8
TEAM-NET
 10
214.001925
 20
-95.0
 30
757.632548
 11
214.001925
 21
0.0
 31
757.632548
210
-1.0
220
0.0
230
0.0
  0
ARC
  5
1BF
  8
TEAM-NET
 10
0.001925
 20
-195.0
 30
769.957536
 40
27.5
 50
0.0
 51
180.0
  0
ARC
  5
1C0
  8
TEAM-NET
 10
0.001925
 20
-195.0
 30
769.957536
 40
27.5
 50
180.0
 51
0.0
  0
ARC
  5
1C1
  8
TEAM-NET
 10
0.001925
 20
-195.0
 30
767.799918
 40
21.0
 50
180.0
 51
0.0
  0
ARC
  5
1C2
  8
TEAM-NET
 10
0.001925
 20
-195.0
 30
767.957536
 40
22.0
 50
360.0
 51
180.0
  0
ARC
  5
1C3
  8
TEAM-NET
 10
0.001925
 20
-195.0
 30
767.957536
 40
22.0
 50
180.0
 51
0.0
  0
ARC
  5
1C4
  8
TEAM-NET
 10
0.001925
 20
-195.0
 30
767.799918
 40
21.0
 50
360.0
 51
180.0
  0
ARC
  5
1C5
  8
TEAM-NET
 10
0.001925
 20
-195.0
 30
769.957536
 40
27.5
 50
180.0
 51
0.0
  0
ARC
  5
1C6
  8
TEAM-NET
 10
0.001925
 20
-195.0
 30
769.957536
 40
27.5
 50
0.0
 51
180.0
  0
LINE
  5
1C7
  8
TEAM-NET
 10
0.001925
 20
-130.0
 30
773.765747
 11
0.001925
 21
-160.093369
 31
773.765747
210
0.052336
220
0.0
230
0.99863
  0
LINE
  5
1C8
  8
TEAM-NET
 10
0.001925
 20
-130.0
 30
773.765747
 11
0.001925
 21
-160.093369
 31
773.765747
210
-0.052336
220
0.0
230
0.99863
  0
ARC
  5
1C9
  8
TEAM-NET
 10
0.001925
 20
-195.0
 30
767.799918
 40
21.0
 50
180.0
 51
0.0
  0
ARC
  5
1CA
  8
TEAM-NET
 10
0.001925
 20
-195.0
 30
767.957536
 40
22.0
 50
360.0
 51
180.0
  0
ARC
  5
1CB
  8
TEAM-NET
 10
0.001925
 20
-195.0
 30
767.957536
 40
22.0
 50
180.0
 51
0.0
  0
ARC
  5
1CC
  8
TEAM-NET
 10
0.001925
 20
-195.0
 30
767.799918
 40
21.0
 50
360.0
 51
180.0
  0
LINE
  5
1CD
  8
TEAM-NET
 10
0.001925
 20
-161.607268
 30
773.359706
 11
0.001925
 21
-160.093369
 31
773.765747
  0
LINE
  5
1CE
  8
TEAM-NET
 10
0.001925
 20
-228.392732
 30
773.359706
 11
0.001925
 21
-229.906631
 31
773.765747
  0
LINE
  5
1CF
  8
TEAM-NET
 10
0.001925
 20
-228.392732
 30
773.359706
 11
0.001925
 21
-229.906631
 31
773.765747
  0
LINE
  5
1D0
  8
TEAM-NET
 10
0.001925
 20
-161.607268
 30
773.359706
 11
0.001925
 21
-160.093369
 31
773.765747
  0
ARC
  5
1D1
  8
TEAM-NET
 10
-0.001925
 20
-195.0
 30
-767.35946
 40
26.0
210
0.0
220
0.0
230
-1.0
 50
180.0
 51
0.0
  0
ARC
  5
1D2
  8
TEAM-NET
 10
-0.001925
 20
-195.0
 30
-767.35946
 40
26.0
210
0.0
220
0.0
230
-1.0
 50
360.0
 51
180.0
  0
ARC
  5
1D3
  8
TEAM-NET
 10
-0.001925
 20
-195.0
 30
-767.35946
 40
26.0
210
0.0
220
0.0
230
-1.0
 50
180.0
 51
0.0
  0
ARC
  5
1D4
  8
TEAM-NET
 10
-0.001925
 20
-195.0
 30
-767.35946
 40
26.0
210
0.0
220
0.0
230
-1.0
 50
360.0
 51
180.0
  0
ARC
  5
1D5
  8
TEAM-NET
 10
-28.998075
 20
767.35946
 30
195.0
 40
3.0
210
0.0
220
-1.0
230
0.0
 50
360.0
 51
60.0
  0
ARC
  5
1D6
  8
TEAM-NET
 10
-29.001925
 20
767.35946
 30
-195.0
 40
3.0
210
0.0
220
1.0
230
0.0
 50
360.0
 51
60.0
  0
ARC
  5
1D7
  8
TEAM-NET
 10
-28.998075
 20
767.35946
 30
195.0
 40
3.0
210
0.0
220
-1.0
230
0.0
 50
360.0
 51
60.0
  0
ARC
  5
1D8
  8
TEAM-NET
 10
-29.001925
 20
767.35946
 30
-195.0
 40
3.0
210
0.0
220
1.0
230
0.0
 50
360.0
 51
60.0
  0
ARC
  5
1D9
  8
TEAM-NET
 10
-0.001925
 20
-195.0
 30
-757.632548
 40
59.32617
210
0.0
220
0.0
230
-1.0
 50
180.0
 51
0.0
  0
ARC
  5
1DA
  8
TEAM-NET
 10
-0.001925
 20
-195.0
 30
-757.632548
 40
59.32617
210
0.0
220
0.0
230
-1.0
 50
360.0
 51
180.0
  0
ARC
  5
1DB
  8
TEAM-NET
 10
-0.001925
 20
-195.0
 30
-757.632548
 40
59.32617
210
0.0
220
0.0
230
-1.0
 50
360.0
 51
180.0
  0
ARC
  5
1DC
  8
TEAM-NET
 10
-0.001925
 20
-195.0
 30
-757.632548
 40
59.32617
210
0.0
220
0.0
230
-1.0
 50
180.0
 51
0.0
  0
ARC
  5
1DD
  8
TEAM-NET
 10
-0.001925
 20
-195.0
 30
-742.799918
 40
21.0
210
0.0
220
0.0
230
-1.0
 50
41.914727
 51
47.373533
  0
ARC
  5
1DE
  8
TEAM-NET
 10
-0.001925
 20
-195.0
 30
-742.799918
 40
21.0
210
0.0
220
0.0
230
-1.0
 50
131.914727
 51
137.373533
  0
ARC
  5
1DF
  8
TEAM-NET
 10
-0.001925
 20
-195.0
 30
-742.799918
 40
21.0
210
0.0
220
0.0
230
-1.0
 50
221.914727
 51
227.373533
  0
ARC
  5
1E0
  8
TEAM-NET
 10
-0.001925
 20
-195.0
 30
-742.799918
 40
21.0
210
0.0
220
0.0
230
-1.0
 50
311.914727
 51
317.373533
  0
ARC
  5
1E1
  8
TEAM-NET
 10
-0.001925
 20
-195.0
 30
-742.799918
 40
21.0
210
0.0
220
0.0
230
-1.0
 50
41.914727
 51
47.373533
  0
ARC
  5
1E2
  8
TEAM-NET
 10
-0.001925
 20
-195.0
 30
-742.799918
 40
21.0
210
0.0
220
0.0
230
-1.0
 50
131.914727
 51
137.373533
  0
ARC
  5
1E3
  8
TEAM-NET
 10
-0.001925
 20
-195.0
 30
-742.799918
 40
21.0
210
0.0
220
0.0
230
-1.0
 50
221.914727
 51
227.373533
  0
ARC
  5
1E4
  8
TEAM-NET
 10
-0.001925
 20
-195.0
 30
-742.799918
 40
21.0
210
0.0
220
0.0
230
-1.0
 50
311.914727
 51
317.373533
  0
ARC
  5
1E5
  8
TEAM-NET
 10
240.001925
 20
767.632548
 30
0.0
 40
10.0
210
0.0
220
-1.0
230
0.0
 50
270.0
 51
0.0
  0
ARC
  5
1E6
  8
TEAM-NET
 10
-240.001925
 20
767.632548
 30
0.0
 40
10.0
210
0.0
220
1.0
230
0.0
 50
180.0
 51
270.0
  0
LINE
  5
1E7
  8
TEAM-NET
 10
210.001925
 20
-420.0
 30
802.122193
 11
210.001925
 21
-130.0
 31
802.122193
  0
LINE
  5
1E8
  8
TEAM-NET
 10
210.001925
 20
-420.0
 30
802.122193
 11
210.001925
 21
-130.0
 31
802.122193
210
-1.0
220
0.0
230
0.0
  0
LINE
  5
1E9
  8
TEAM-NET
 10
-209.998075
 20
-130.0
 30
802.122193
 11
-209.998075
 21
-420.0
 31
802.122193
  0
LINE
  5
1EA
  8
TEAM-NET
 10
-209.998075
 20
-130.0
 30
802.122193
 11
-209.998075
 21
-420.0
 31
802.122193
210
1.0
220
0.0
230
0.0
  0
LINE
  5
1EB
  8
TEAM-NET
 10
200.525284
 20
-130.0
 30
792.135898
 11
200.525284
 21
-420.0
 31
792.135898
  0
LINE
  5
1EC
  8
TEAM-NET
 10
200.525284
 20
-130.0
 30
792.135898
 11
200.525284
 21
-420.0
 31
792.135898
210
-0.052336
220
0.0
230
0.99863
  0
LINE
  5
1ED
  8
TEAM-NET
 10
-200.521435
 20
-420.0
 30
792.135898
 11
-200.521435
 21
-130.0
 31
792.135898
  0
LINE
  5
1EE
  8
TEAM-NET
 10
-200.521435
 20
-420.0
 30
792.135898
 11
-200.521435
 21
-130.0
 31
792.135898
210
0.052336
220
0.0
230
0.99863
  0
LINE
  5
1EF
  8
TEAM-NET
 10
-199.998075
 20
-430.0
 30
802.122193
 11
0.001925
 21
-430.0
 31
783.779471
  0
LINE
  5
1F0
  8
TEAM-NET
 10
-199.998075
 20
-430.0
 30
802.122193
 11
0.001925
 21
-430.0
 31
783.779471
210
0.0
220
1.0
230
0.0
  0
ARC
  5
1F1
  8
TEAM-NET
 10
-199.998075
 20
-420.0
 30
802.122193
 40
10.0
 50
180.0
 51
270.0
  0
ARC
  5
1F2
  8
TEAM-NET
 10
-199.998075
 20
-420.0
 30
802.122193
 40
10.0
 50
180.0
 51
270.0
  0
ARC
  5
1F3
  8
TEAM-NET
 10
-420.0
 20
790.555822
 30
-241.703817
 40
10.0
210
0.99863
220
0.0
230
-0.052336
 50
180.0
 51
270.0
  0
ARC
  5
1F4
  8
TEAM-NET
 10
199.998075
 20
802.122193
 30
-420.0
 40
10.0
210
0.0
220
1.0
230
0.0
 50
273.0
 51
0.0
  0
ARC
  5
1F5
  8
TEAM-NET
 10
199.998075
 20
802.122193
 30
-420.0
 40
10.0
210
0.0
220
1.0
230
0.0
 50
273.0
 51
0.0
  0
ARC
  5
1F6
  8
TEAM-NET
 10
-420.0
 20
790.555822
 30
-241.703817
 40
10.0
210
0.99863
220
0.0
230
-0.052336
 50
180.0
 51
270.0
  0
ARC
  5
1F7
  8
TEAM-NET
 10
200.001925
 20
-420.0
 30
802.122193
 40
10.0
 50
270.0
 51
0.0
  0
ARC
  5
1F8
  8
TEAM-NET
 10
200.001925
 20
-420.0
 30
802.122193
 40
10.0
 50
270.0
 51
0.0
  0
ARC
  5
1F9
  8
TEAM-NET
 10
420.0
 20
790.555621
 30
-241.707661
 40
10.0
210
-0.99863
220
0.0
230
-0.052336
 50
270.0
 51
0.0
  0
ARC
  5
1FA
  8
TEAM-NET
 10
200.001925
 20
802.122193
 30
420.0
 40
10.0
210
0.0
220
-1.0
230
0.0
 50
273.0
 51
0.0
  0
ARC
  5
1FB
  8
TEAM-NET
 10
200.001925
 20
802.122193
 30
420.0
 40
10.0
210
0.0
220
-1.0
230
0.0
 50
273.0
 51
0.0
  0
ARC
  5
1FC
  8
TEAM-NET
 10
420.0
 20
790.555621
 30
-241.707661
 40
10.0
210
-0.99863
220
0.0
230
-0.052336
 50
270.0
 51
0.0
  0
LINE
  5
1FD
  8
TEAM-NET
 10
0.001925
 20
-430.0
 30
783.779471
 11
200.001925
 21
-430.0
 31
802.122193
  0
LINE
  5
1FE
  8
TEAM-NET
 10
0.001925
 20
-430.0
 30
783.779471
 11
200.001925
 21
-430.0
 31
802.122193
210
0.0
220
1.0
230
0.0
  0
LINE
  5
1FF
  8
TEAM-NET
 10
-194.001925
 20
-20.0
 30
800.0
 11
194.001925
 21
-20.0
 31
800.0
210
0.0
220
0.0
230
-1.0
  0
LINE
  5
200
  8
TEAM-NET
 10
194.001925
 20
0.0
 30
800.0
 11
-194.001925
 21
0.0
 31
800.0
210
0.0
220
0.0
230
-1.0
  0
LINE
  5
201
  8
TEAM-NET
 10
194.001925
 20
0.0
 30
800.0
 11
-194.001925
 21
0.0
 31
800.0
210
0.0
220
1.0
230
0.0
  0
LINE
  5
202
  8
TEAM-NET
 10
-194.001925
 20
-20.0
 30
800.0
 11
194.001925
 21
-20.0
 31
800.0
210
0.0
220
-1.0
230
0.0
  0
LINE
  5
203
  8
TEAM-NET
 10
0.001925
 20
-120.0
 30
783.779471
 11
-199.998075
 21
-120.0
 31
802.122193
  0
LINE
  5
204
  8
TEAM-NET
 10
0.001925
 20
-120.0
 30
783.779471
 11
-199.998075
 21
-120.0
 31
802.122193
210
0.0
220
-1.0
230
0.0
  0
ARC
  5
205
  8
TEAM-NET
 10
-199.998075
 20
-130.0
 30
802.122193
 40
10.0
 50
90.0
 51
180.0
  0
LINE
  5
206
  8
TEAM-NET
 10
-194.001925
 20
0.0
 30
800.0
 11
-194.001925
 21
-20.0
 31
800.0
210
0.0
220
0.0
230
-1.0
  0
LINE
  5
207
  8
TEAM-NET
 10
-194.001925
 20
0.0
 30
800.0
 11
-194.001925
 21
-20.0
 31
800.0
  0
ARC
  5
208
  8
TEAM-NET
 10
-199.998075
 20
-130.0
 30
802.122193
 40
10.0
 50
90.0
 51
180.0
  0
LINE
  5
209
  8
TEAM-NET
 10
-214.001925
 20
-30.0
 30
780.0
 11
-214.001925
 21
0.0
 31
780.0
210
1.0
220
0.0
230
0.0
  0
ARC
  5
20A
  8
TEAM-NET
 10
194.001925
 20
780.0
 30
-30.0
 40
20.0
210
0.0
220
1.0
230
0.0
 50
0.0
 51
1.124164
  0
LINE
  5
20B
  8
TEAM-NET
 10
-213.998075
 20
-20.0
 30
780.392382
 11
-213.998075
 21
-30.0
 31
780.392382
  0
LINE
  5
20C
  8
TEAM-NET
 10
-214.001925
 20
-30.0
 30
780.0
 11
-214.001925
 21
0.0
 31
780.0
  0
ARC
  5
20D
  8
TEAM-NET
 10
194.001925
 20
780.0
 30
-30.0
 40
20.0
210
0.0
220
1.0
230
0.0
 50
0.0
 51
1.124164
  0
LINE
  5
20E
  8
TEAM-NET
 10
-213.998075
 20
-20.0
 30
780.392382
 11
-213.998075
 21
-30.0
 31
780.392382
210
1.0
220
0.0
230
0.0
  0
ARC
  5
20F
  8
TEAM-NET
 10
194.001925
 20
780.0
 30
-20.0
 40
20.0
210
0.0
220
1.0
230
0.0
 50
1.124164
 51
90.0
  0
ARC
  5
210
  8
TEAM-NET
 10
194.001925
 20
780.0
 30
0.0
 40
20.0
210
0.0
220
1.0
230
0.0
 50
0.0
 51
90.0
  0
ARC
  5
211
  8
TEAM-NET
 10
194.001925
 20
780.0
 30
0.0
 40
20.0
210
0.0
220
1.0
230
0.0
 50
0.0
 51
90.0
  0
ARC
  5
212
  8
TEAM-NET
 10
-194.001925
 20
780.0
 30
20.0
 40
20.0
210
0.0
220
-1.0
230
0.0
 50
90.0
 51
178.875836
  0
ARC
  5
213
  8
TEAM-NET
 10
-130.0
 20
790.555822
 30
-241.703817
 40
10.0
210
0.99863
220
-0.0
230
-0.052336
 50
270.0
 51
0.0
  0
ARC
  5
214
  8
TEAM-NET
 10
199.998075
 20
802.122193
 30
-130.0
 40
10.0
210
0.0
220
1.0
230
0.0
 50
273.0
 51
0.0
  0
ARC
  5
215
  8
TEAM-NET
 10
199.998075
 20
802.122193
 30
-130.0
 40
10.0
210
0.0
220
1.0
230
0.0
 50
273.0
 51
0.0
  0
ARC
  5
216
  8
TEAM-NET
 10
-130.0
 20
790.555822
 30
-241.703817
 40
10.0
210
0.99863
220
-0.0
230
-0.052336
 50
270.0
 51
0.0
  0
ARC
  5
217
  8
TEAM-NET
 10
200.001925
 20
-130.0
 30
802.122193
 40
10.0
 50
0.0
 51
90.0
  0
LINE
  5
218
  8
TEAM-NET
 10
194.001925
 20
-20.0
 30
800.0
 11
194.001925
 21
0.0
 31
800.0
210
0.0
220
0.0
230
-1.0
  0
LINE
  5
219
  8
TEAM-NET
 10
194.001925
 20
-20.0
 30
800.0
 11
194.001925
 21
0.0
 31
800.0
  0
ARC
  5
21A
  8
TEAM-NET
 10
200.001925
 20
-130.0
 30
802.122193
 40
10.0
 50
0.0
 51
90.0
  0
LINE
  5
21B
  8
TEAM-NET
 10
214.001925
 20
0.0
 30
780.0
 11
214.001925
 21
-20.0
 31
780.0
  0
LINE
  5
21C
  8
TEAM-NET
 10
214.001925
 20
0.0
 30
780.0
 11
214.001925
 21
-20.0
 31
780.0
210
-1.0
220
0.0
230
0.0
  0
ARC
  5
21D
  8
TEAM-NET
 10
194.353571
 20
691.650622
 30
-0.001925
 40
91.7912
210
-1.0
220
0.0
230
0.0
 50
89.596498
 51
108.650003
  0
ARC
  5
21E
  8
TEAM-NET
 10
-195.646429
 20
691.650622
 30
0.001925
 40
91.7912
210
1.0
220
0.0
230
0.0
 50
89.596498
 51
108.650003
  0
ARC
  5
21F
  8
TEAM-NET
 10
194.353571
 20
691.650622
 30
-0.001925
 40
91.7912
210
-1.0
220
0.0
230
0.0
 50
89.596498
 51
108.650003
  0
ARC
  5
220
  8
TEAM-NET
 10
-195.646429
 20
691.650622
 30
0.001925
 40
91.7912
210
1.0
220
0.0
230
0.0
 50
89.596498
 51
108.650003
  0
ARC
  5
221
  8
TEAM-NET
 10
0.001925
 20
-195.0
 30
778.621838
 40
30.0
 50
90.0
 51
180.0
  0
ARC
  5
222
  8
TEAM-NET
 10
0.001925
 20
-195.0
 30
778.621838
 40
30.0
 50
180.0
 51
270.0
  0
LINE
  5
223
  8
TEAM-NET
 10
30.001925
 20
-195.0
 30
778.621838
 11
30.001925
 21
-195.0
 31
777.799918
  0
ARC
  5
224
  8
TEAM-NET
 10
0.001925
 20
-195.0
 30
778.621838
 40
30.0
 50
360.0
 51
90.0
  0
ARC
  5
225
  8
TEAM-NET
 10
0.001925
 20
-195.0
 30
777.799918
 40
30.0
 50
360.0
 51
180.0
  0
ARC
  5
226
  8
TEAM-NET
 10
0.001925
 20
-195.0
 30
778.621838
 40
30.0
 50
90.0
 51
180.0
  0
LINE
  5
227
  8
TEAM-NET
 10
-29.998075
 20
-195.0
 30
778.621838
 11
-29.998075
 21
-195.0
 31
777.799918
  0
LINE
  5
228
  8
TEAM-NET
 10
-15.625012
 20
-180.971499
 30
777.799918
 11
-4.909979
 21
-191.554248
 31
777.799918
210
0.0
220
0.0
230
-1.0
  0
ARC
  5
229
  8
TEAM-NET
 10
-0.001925
 20
-195.0
 30
-777.799918
 40
6.0
210
0.0
220
0.0
230
-1.0
 50
324.238198
 51
35.050062
  0
ARC
  5
22A
  8
TEAM-NET
 10
-0.001925
 20
-195.0
 30
-777.799918
 40
21.0
210
0.0
220
0.0
230
-1.0
 50
41.914727
 51
47.373533
  0
LINE
  5
22B
  8
TEAM-NET
 10
-4.866797
 20
-198.506501
 30
777.799918
 11
-15.449546
 21
-209.221535
 31
777.799918
210
0.0
220
0.0
230
-1.0
  0
LINE
  5
22C
  8
TEAM-NET
 10
-3.504576
 20
-190.131278
 30
777.799918
 11
-14.21961
 21
-179.548529
 31
777.799918
210
0.0
220
0.0
230
-1.0
  0
ARC
  5
22D
  8
TEAM-NET
 10
-0.001925
 20
-195.0
 30
-777.799918
 40
21.0
210
0.0
220
0.0
230
-1.0
 50
311.914727
 51
317.373533
  0
ARC
  5
22E
  8
TEAM-NET
 10
-0.001925
 20
-195.0
 30
-777.799918
 40
6.0
210
0.0
220
0.0
230
-1.0
 50
54.238198
 51
125.050062
  0
LINE
  5
22F
  8
TEAM-NET
 10
-14.026576
 20
-210.626937
 30
777.799918
 11
-3.443827
 21
-199.911903
 31
777.799918
210
0.0
220
0.0
230
-1.0
  0
LINE
  5
230
  8
TEAM-NET
 10
14.030426
 20
-179.373063
 30
777.799918
 11
3.447676
 21
-190.088097
 31
777.799918
210
0.0
220
0.0
230
-1.0
  0
ARC
  5
231
  8
TEAM-NET
 10
-0.001925
 20
-195.0
 30
-777.799918
 40
6.0
210
0.0
220
0.0
230
-1.0
 50
234.238198
 51
305.050062
  0
ARC
  5
232
  8
TEAM-NET
 10
-0.001925
 20
-195.0
 30
-777.799918
 40
21.0
210
0.0
220
0.0
230
-1.0
 50
131.914727
 51
137.373533
  0
LINE
  5
233
  8
TEAM-NET
 10
3.508426
 20
-199.868722
 30
777.799918
 11
14.223459
 21
-210.451471
 31
777.799918
210
0.0
220
0.0
230
-1.0
  0
LINE
  5
234
  8
TEAM-NET
 10
4.870646
 20
-191.493499
 30
777.799918
 11
15.453396
 21
-180.778465
 31
777.799918
210
0.0
220
0.0
230
-1.0
  0
ARC
  5
235
  8
TEAM-NET
 10
-0.001925
 20
-195.0
 30
-777.799918
 40
21.0
210
0.0
220
0.0
230
-1.0
 50
221.914727
 51
227.373533
  0
ARC
  5
236
  8
TEAM-NET
 10
-0.001925
 20
-195.0
 30
-777.799918
 40
6.0
210
0.0
220
0.0
230
-1.0
 50
144.238198
 51
215.050062
  0
LINE
  5
237
  8
TEAM-NET
 10
15.628862
 20
-209.028501
 30
777.799918
 11
4.913828
 21
-198.445752
 31
777.799918
210
0.0
220
0.0
230
-1.0
  0
ARC
  5
238
  8
TEAM-NET
 10
-0.001925
 20
-195.0
 30
-777.799918
 40
30.0
210
0.0
220
0.0
230
-1.0
 50
0.0
 51
180.0
  0
ARC
  5
239
  8
TEAM-NET
 10
-0.001925
 20
-195.0
 30
-777.799918
 40
30.0
210
0.0
220
0.0
230
-1.0
 50
180.0
 51
0.0
  0
ARC
  5
23A
  8
TEAM-NET
 10
0.001925
 20
-195.0
 30
778.621838
 40
30.0
 50
270.0
 51
0.0
  0
LINE
  5
23B
  8
TEAM-NET
 10
30.001925
 20
-195.0
 30
778.621838
 11
30.001925
 21
-195.0
 31
777.799918
  0
ARC
  5
23C
  8
TEAM-NET
 10
0.001925
 20
-195.0
 30
778.621838
 40
30.0
 50
180.0
 51
270.0
  0
ARC
  5
23D
  8
TEAM-NET
 10
0.001925
 20
-195.0
 30
777.799918
 40
30.0
 50
180.0
 51
0.0
  0
LINE
  5
23E
  8
TEAM-NET
 10
-29.998075
 20
-195.0
 30
778.621838
 11
-29.998075
 21
-195.0
 31
777.799918
  0
ARC
  5
23F
  8
TEAM-NET
 10
0.001925
 20
-195.0
 30
778.621838
 40
30.0
 50
360.0
 51
90.0
  0
ARC
  5
240
  8
TEAM-NET
 10
0.001925
 20
-195.0
 30
778.621838
 40
30.0
 50
270.0
 51
0.0
  0
ARC
  5
241
  8
TEAM-NET
 10
0.001925
 20
-195.0
 30
776.483576
 40
31.895533
 50
180.0
 51
0.0
  0
ARC
  5
242
  8
TEAM-NET
 10
0.001925
 20
-195.0
 30
776.483576
 40
32.697766
 50
360.0
 51
180.0
  0
ARC
  5
243
  8
TEAM-NET
 10
0.001925
 20
-195.0
 30
776.483576
 40
32.697766
 50
180.0
 51
0.0
  0
ARC
  5
244
  8
TEAM-NET
 10
0.001925
 20
-195.0
 30
776.483576
 40
31.895533
 50
360.0
 51
180.0
  0
ARC
  5
245
  8
TEAM-NET
 10
0.001925
 20
-195.0
 30
776.483576
 40
31.895533
 50
180.0
 51
0.0
  0
ARC
  5
246
  8
TEAM-NET
 10
0.001925
 20
-195.0
 30
776.483576
 40
32.697766
 50
360.0
 51
180.0
  0
ARC
  5
247
  8
TEAM-NET
 10
0.001925
 20
-195.0
 30
776.483576
 40
32.697766
 50
180.0
 51
0.0
  0
ARC
  5
248
  8
TEAM-NET
 10
0.001925
 20
-195.0
 30
776.483576
 40
31.895533
 50
360.0
 51
180.0
  0
LINE
  5
249
  8
TEAM-NET
 10
-3.504576
 20
-190.131278
 30
777.799918
 11
-14.21961
 21
-179.548529
 31
777.799918
210
0.702701
220
0.711485
230
0.0
  0
ARC
  5
24A
  8
TEAM-NET
 10
0.001925
 20
-195.0
 30
777.799918
 40
21.0
 50
132.626467
 51
138.085273
  0
LINE
  5
24B
  8
TEAM-NET
 10
4.870646
 20
-191.493499
 30
777.799918
 11
15.453396
 21
-180.778465
 31
777.799918
210
0.711485
220
-0.702701
230
-0.0
  0
ARC
  5
24C
  8
TEAM-NET
 10
0.001925
 20
-195.0
 30
777.799918
 40
21.0
 50
42.626467
 51
48.085273
  0
LINE
  5
24D
  8
TEAM-NET
 10
3.508426
 20
-199.868722
 30
777.799918
 11
14.223459
 21
-210.451471
 31
777.799918
210
-0.702701
220
-0.711485
230
-0.0
  0
ARC
  5
24E
  8
TEAM-NET
 10
0.001925
 20
-195.0
 30
777.799918
 40
21.0
 50
312.626467
 51
318.085273
  0
LINE
  5
24F
  8
TEAM-NET
 10
-4.866797
 20
-198.506501
 30
777.799918
 11
-15.449546
 21
-209.221535
 31
777.799918
210
-0.711485
220
0.702701
230
0.0
  0
ARC
  5
250
  8
TEAM-NET
 10
0.001925
 20
-195.0
 30
777.799918
 40
21.0
 50
222.626467
 51
228.085273
  0
LINE
  5
251
  8
TEAM-NET
 10
15.628862
 20
-209.028501
 30
777.799918
 11
4.913828
 21
-198.445752
 31
777.799918
210
0.702701
220
0.711485
230
0.0
  0
ARC
  5
252
  8
TEAM-NET
 10
0.001925
 20
-195.0
 30
777.799918
 40
6.0
 50
234.949938
 51
305.761802
  0
LINE
  5
253
  8
TEAM-NET
 10
14.030426
 20
-179.373063
 30
777.799918
 11
3.447676
 21
-190.088097
 31
777.799918
210
-0.711485
220
0.702701
230
0.0
  0
ARC
  5
254
  8
TEAM-NET
 10
0.001925
 20
-195.0
 30
777.799918
 40
6.0
 50
324.949938
 51
35.761802
  0
LINE
  5
255
  8
TEAM-NET
 10
-15.625012
 20
-180.971499
 30
777.799918
 11
-4.909979
 21
-191.554248
 31
777.799918
210
-0.702701
220
-0.711485
230
-0.0
  0
ARC
  5
256
  8
TEAM-NET
 10
0.001925
 20
-195.0
 30
777.799918
 40
6.0
 50
144.949938
 51
215.761802
  0
ARC
  5
257
  8
TEAM-NET
 10
0.001925
 20
-195.0
 30
777.799918
 40
6.0
 50
54.949938
 51
125.761802
  0
LINE
  5
258
  8
TEAM-NET
 10
-14.026576
 20
-210.626937
 30
777.799918
 11
-3.443827
 21
-199.911903
 31
777.799918
210
0.711485
220
-0.702701
230
-0.0
  0
ARC
  5
259
  8
TEAM-NET
 10
-194.001925
 20
780.0
 30
0.0
 40
20.0
210
0.0
220
1.0
230
0.0
 50
90.0
 51
180.0
  0
ARC
  5
25A
  8
TEAM-NET
 10
194.001925
 20
780.0
 30
20.0
 40
20.0
210
0.0
220
-1.0
230
0.0
 50
0.0
 51
90.0
  0
ARC
  5
25B
  8
TEAM-NET
 10
-194.001925
 20
780.0
 30
0.0
 40
20.0
210
0.0
220
1.0
230
0.0
 50
90.0
 51
180.0
  0
ARC
  5
25C
  8
TEAM-NET
 10
194.001925
 20
780.0
 30
20.0
 40
20.0
210
0.0
220
-1.0
230
0.0
 50
0.0
 51
90.0
  0
ARC
  5
25D
  8
TEAM-NET
 10
130.0
 20
790.555621
 30
-241.707661
 40
10.0
210
-0.99863
220
0.0
230
-0.052336
 50
180.0
 51
270.0
  0
ARC
  5
25E
  8
TEAM-NET
 10
-200.001925
 20
802.122193
 30
-130.0
 40
10.0
210
0.0
220
1.0
230
0.0
 50
180.0
 51
267.0
  0
ARC
  5
25F
  8
TEAM-NET
 10
-200.001925
 20
802.122193
 30
-130.0
 40
10.0
210
0.0
220
1.0
230
0.0
 50
180.0
 51
267.0
  0
ARC
  5
260
  8
TEAM-NET
 10
130.0
 20
790.555621
 30
-241.707661
 40
10.0
210
-0.99863
220
0.0
230
-0.052336
 50
180.0
 51
270.0
  0
LINE
  5
261
  8
TEAM-NET
 10
200.001925
 20
-120.0
 30
802.122193
 11
0.001925
 21
-120.0
 31
783.779471
  0
LINE
  5
262
  8
TEAM-NET
 10
200.001925
 20
-120.0
 30
802.122193
 11
0.001925
 21
-120.0
 31
783.779471
210
0.0
220
-1.0
230
0.0
  0
LINE
  5
263
  8
TEAM-NET
 10
215.001925
 20
-420.0
 30
892.632548
 11
215.001925
 21
-130.0
 31
892.632548
  0
LINE
  5
264
  8
TEAM-NET
 10
210.001925
 20
-130.0
 30
887.632548
 11
210.001925
 21
-420.0
 31
887.632548
  0
LINE
  5
265
  8
TEAM-NET
 10
215.001925
 20
-420.0
 30
892.632548
 11
215.001925
 21
-130.0
 31
892.632548
  0
LINE
  5
266
  8
TEAM-NET
 10
240.001925
 20
0.0
 30
892.632548
 11
240.001925
 21
-460.0
 31
892.632548
  0
LINE
  5
267
  8
TEAM-NET
 10
240.001925
 20
0.0
 30
892.632548
 11
240.001925
 21
-460.0
 31
892.632548
  0
LINE
  5
268
  8
TEAM-NET
 10
210.001925
 20
-130.0
 30
887.632548
 11
210.001925
 21
-420.0
 31
887.632548
210
-1.0
220
0.0
230
0.0
  0
LINE
  5
269
  8
TEAM-NET
 10
250.001925
 20
-460.0
 30
882.632548
 11
250.001925
 21
0.0
 31
882.632548
  0
LINE
  5
26A
  8
TEAM-NET
 10
250.001925
 20
-460.0
 30
882.632548
 11
250.001925
 21
0.0
 31
882.632548
210
1.0
220
0.0
230
0.0
  0
LINE
  5
26B
  8
TEAM-NET
 10
-209.998075
 20
-420.0
 30
887.632548
 11
-209.998075
 21
-130.0
 31
887.632548
  0
LINE
  5
26C
  8
TEAM-NET
 10
-214.998075
 20
-130.0
 30
892.632548
 11
-214.998075
 21
-420.0
 31
892.632548
  0
LINE
  5
26D
  8
TEAM-NET
 10
-214.998075
 20
-130.0
 30
892.632548
 11
-214.998075
 21
-420.0
 31
892.632548
  0
LINE
  5
26E
  8
TEAM-NET
 10
-239.998075
 20
-460.0
 30
892.632548
 11
-239.998075
 21
0.0
 31
892.632548
  0
LINE
  5
26F
  8
TEAM-NET
 10
-239.998075
 20
-460.0
 30
892.632548
 11
-239.998075
 21
0.0
 31
892.632548
  0
LINE
  5
270
  8
TEAM-NET
 10
-209.998075
 20
-420.0
 30
887.632548
 11
-209.998075
 21
-130.0
 31
887.632548
210
1.0
220
0.0
230
0.0
  0
LINE
  5
271
  8
TEAM-NET
 10
-249.998075
 20
0.0
 30
882.632548
 11
-249.998075
 21
-460.0
 31
882.632548
  0
LINE
  5
272
  8
TEAM-NET
 10
-249.998075
 20
0.0
 30
882.632548
 11
-249.998075
 21
-460.0
 31
882.632548
210
-1.0
220
0.0
230
0.0
  0
TEXT
  5
273
  8
TEAM-TXT
 10
-159.818938
 20
-326.551537
 30
850.0
 40
30.0
  1
team 211129
 41
0.8
 51
15.0
  7
TEAM
  0
LINE
  5
276
  8
TEAM-NET
 10
-239.998075
 20
-470.0
 30
882.632548
 11
240.001925
 21
-470.0
 31
882.632548
  0
LINE
  5
277
  8
TEAM-NET
 10
-239.998075
 20
-470.0
 30
882.632548
 11
240.001925
 21
-470.0
 31
882.632548
210
0.0
220
-1.0
230
0.0
  0
LINE
  5
278
  8
TEAM-NET
 10
-199.998075
 20
-435.0
 30
892.632548
 11
200.001925
 21
-435.0
 31
892.632548
  0
LINE
  5
279
  8
TEAM-NET
 10
200.001925
 20
-430.0
 30
887.632548
 11
-199.998075
 21
-430.0
 31
887.632548
  0
LINE
  5
27A
  8
TEAM-NET
 10
240.001925
 20
-460.0
 30
892.632548
 11
-239.998075
 21
-460.0
 31
892.632548
  0
LINE
  5
27B
  8
TEAM-NET
 10
-199.998075
 20
-435.0
 30
892.632548
 11
200.001925
 21
-435.0
 31
892.632548
  0
LINE
  5
27C
  8
TEAM-NET
 10
240.001925
 20
-460.0
 30
892.632548
 11
-239.998075
 21
-460.0
 31
892.632548
  0
LINE
  5
27D
  8
TEAM-NET
 10
200.001925
 20
-430.0
 30
887.632548
 11
-199.998075
 21
-430.0
 31
887.632548
210
0.0
220
1.0
230
0.0
  0
ARC
  5
27E
  8
TEAM-NET
 10
-435.0
 20
887.632548
 30
-199.998075
 40
5.0
210
1.0
220
0.0
230
0.0
 50
0.0
 51
90.0
  0
ARC
  5
27F
  8
TEAM-NET
 10
-435.0
 20
887.632548
 30
-199.998075
 40
5.0
210
1.0
220
0.0
230
0.0
 50
0.0
 51
90.0
  0
ARC
  5
280
  8
TEAM-NET
 10
199.998075
 20
-420.0
 30
-887.632548
 40
10.0
210
0.0
220
0.0
230
-1.0
 50
270.0
 51
0.0
  0
ARC
  5
281
  8
TEAM-NET
 10
-199.998075
 20
-420.0
 30
892.632548
 40
15.0
 50
180.0
 51
270.0
  0
ARC
  5
282
  8
TEAM-NET
 10
-214.998075
 20
887.632548
 30
420.0
 40
5.0
210
0.0
220
-1.0
230
0.0
 50
0.0
 51
90.0
  0
ARC
  5
283
  8
TEAM-NET
 10
-214.998075
 20
887.632548
 30
420.0
 40
5.0
210
0.0
220
-1.0
230
0.0
 50
0.0
 51
90.0
  0
ARC
  5
284
  8
TEAM-NET
 10
-199.998075
 20
-420.0
 30
892.632548
 40
15.0
 50
180.0
 51
270.0
  0
ARC
  5
285
  8
TEAM-NET
 10
199.998075
 20
-420.0
 30
-887.632548
 40
10.0
210
0.0
220
0.0
230
-1.0
 50
270.0
 51
0.0
  0
ARC
  5
286
  8
TEAM-NET
 10
-239.998075
 20
-460.0
 30
882.632548
 40
10.0
 50
180.0
 51
270.0
  0
ARC
  5
287
  8
TEAM-NET
 10
-239.998075
 20
-460.0
 30
882.632548
 40
10.0
 50
180.0
 51
270.0
  0
ARC
  5
288
  8
TEAM-NET
 10
239.998075
 20
882.632548
 30
-460.0
 40
10.0
210
0.0
220
1.0
230
0.0
 50
360.0
 51
90.0
  0
ARC
  5
289
  8
TEAM-NET
 10
460.0
 20
882.632548
 30
239.998075
 40
10.0
210
-1.0
220
0.0
230
0.0
 50
0.0
 51
90.0
  0
ARC
  5
28A
  8
TEAM-NET
 10
460.0
 20
882.632548
 30
239.998075
 40
10.0
210
-1.0
220
0.0
230
0.0
 50
0.0
 51
90.0
  0
ARC
  5
28B
  8
TEAM-NET
 10
239.998075
 20
882.632548
 30
-460.0
 40
10.0
210
0.0
220
1.0
230
0.0
 50
360.0
 51
90.0
  0
ARC
  5
28C
  8
TEAM-NET
 10
435.0
 20
887.632548
 30
-200.001925
 40
5.0
210
-1.0
220
0.0
230
0.0
 50
90.0
 51
180.0
  0
ARC
  5
28D
  8
TEAM-NET
 10
435.0
 20
887.632548
 30
-200.001925
 40
5.0
210
-1.0
220
0.0
230
0.0
 50
90.0
 51
180.0
  0
ARC
  5
28E
  8
TEAM-NET
 10
200.001925
 20
-420.0
 30
892.632548
 40
15.0
 50
270.0
 51
0.0
  0
ARC
  5
28F
  8
TEAM-NET
 10
-200.001925
 20
-420.0
 30
-887.632548
 40
10.0
210
0.0
220
0.0
230
-1.0
 50
180.0
 51
270.0
  0
ARC
  5
290
  8
TEAM-NET
 10
215.001925
 20
887.632548
 30
420.0
 40
5.0
210
0.0
220
-1.0
230
0.0
 50
90.0
 51
180.0
  0
ARC
  5
291
  8
TEAM-NET
 10
215.001925
 20
887.632548
 30
420.0
 40
5.0
210
0.0
220
-1.0
230
0.0
 50
90.0
 51
180.0
  0
ARC
  5
292
  8
TEAM-NET
 10
200.001925
 20
-420.0
 30
892.632548
 40
15.0
 50
270.0
 51
0.0
  0
ARC
  5
293
  8
TEAM-NET
 10
-200.001925
 20
-420.0
 30
-887.632548
 40
10.0
210
0.0
220
0.0
230
-1.0
 50
180.0
 51
270.0
  0
ARC
  5
294
  8
TEAM-NET
 10
240.001925
 20
-460.0
 30
882.632548
 40
10.0
 50
270.0
 51
0.0
  0
ARC
  5
295
  8
TEAM-NET
 10
240.001925
 20
-460.0
 30
882.632548
 40
10.0
 50
270.0
 51
0.0
  0
ARC
  5
296
  8
TEAM-NET
 10
460.0
 20
882.632548
 30
-240.001925
 40
10.0
210
-1.0
220
0.0
230
0.0
 50
360.0
 51
90.0
  0
ARC
  5
297
  8
TEAM-NET
 10
240.001925
 20
882.632548
 30
460.0
 40
10.0
210
0.0
220
-1.0
230
0.0
 50
0.0
 51
90.0
  0
ARC
  5
298
  8
TEAM-NET
 10
460.0
 20
882.632548
 30
-240.001925
 40
10.0
210
-1.0
220
0.0
230
0.0
 50
360.0
 51
90.0
  0
ARC
  5
299
  8
TEAM-NET
 10
240.001925
 20
882.632548
 30
460.0
 40
10.0
210
0.0
220
-1.0
230
0.0
 50
0.0
 51
90.0
  0
ARC
  5
29A
  8
TEAM-NET
 10
-1.181801
 20
862.632548
 30
120.0
 40
15.5
210
0.0
220
-1.0
230
0.0
 50
360.0
 51
90.0
  0
ARC
  5
29B
  8
TEAM-NET
 10
-1.181801
 20
862.632548
 30
120.0
 40
15.5
210
0.0
220
-1.0
230
0.0
 50
360.0
 51
90.0
  0
LINE
  5
29C
  8
TEAM-NET
 10
-213.998075
 20
-20.0
 30
862.632548
 11
214.001925
 21
-20.0
 31
862.632548
210
0.0
220
0.0
230
-1.0
  0
LINE
  5
29D
  8
TEAM-NET
 10
214.001925
 20
-95.0
 30
862.632548
 11
-213.998075
 21
-95.0
 31
862.632548
210
0.0
220
0.0
230
-1.0
  0
LINE
  5
29E
  8
TEAM-NET
 10
-213.998075
 20
-20.0
 30
862.632548
 11
214.001925
 21
-20.0
 31
862.632548
210
0.0
220
-1.0
230
0.0
  0
LINE
  5
29F
  8
TEAM-NET
 10
214.001925
 20
-95.0
 30
862.632548
 11
-213.998075
 21
-95.0
 31
862.632548
210
0.0
220
1.0
230
0.0
  0
LINE
  5
2A0
  8
TEAM-NET
 10
-213.998075
 20
-95.0
 30
862.632548
 11
-213.998075
 21
-20.0
 31
862.632548
210
0.0
220
0.0
230
-1.0
  0
LINE
  5
2A1
  8
TEAM-NET
 10
-213.998075
 20
-95.0
 30
862.632548
 11
-213.998075
 21
-20.0
 31
862.632548
210
1.0
220
0.0
230
0.0
  0
ARC
  5
2A2
  8
TEAM-NET
 10
-117.0
 20
878.132548
 30
-1.181801
 40
3.0
210
1.0
220
0.0
230
0.0
 50
180.0
 51
270.0
  0
ARC
  5
2A3
  8
TEAM-NET
 10
-117.0
 20
878.132548
 30
-1.181801
 40
3.0
210
1.0
220
0.0
230
0.0
 50
180.0
 51
270.0
  0
LINE
  5
2A4
  8
TEAM-NET
 10
214.001925
 20
-20.0
 30
862.632548
 11
214.001925
 21
-95.0
 31
862.632548
210
0.0
220
0.0
230
-1.0
  0
LINE
  5
2A5
  8
TEAM-NET
 10
214.001925
 20
-20.0
 30
862.632548
 11
214.001925
 21
-95.0
 31
862.632548
210
-1.0
220
0.0
230
0.0
  0
LINE
  5
2A6
  8
TEAM-NET
 10
11.318199
 20
-117.0
 30
862.632548
 11
11.318199
 21
-105.0
 31
862.632548
  0
LINE
  5
2A7
  8
TEAM-NET
 10
-13.681801
 20
-117.0
 30
862.632548
 11
-13.681801
 21
-105.0
 31
862.632548
  0
LINE
  5
2A8
  8
TEAM-NET
 10
11.318199
 20
-117.0
 30
862.632548
 11
11.318199
 21
-105.0
 31
862.632548
  0
LINE
  5
2A9
  8
TEAM-NET
 10
-13.681801
 20
-117.0
 30
862.632548
 11
-13.681801
 21
-105.0
 31
862.632548
  0
ARC
  5
2AA
  8
TEAM-NET
 10
1.181801
 20
862.632548
 30
-117.0
 40
12.5
210
0.0
220
1.0
230
0.0
 50
180.0
 51
270.0
  0
ARC
  5
2AB
  8
TEAM-NET
 10
1.181801
 20
862.632548
 30
-117.0
 40
12.5
210
0.0
220
1.0
230
0.0
 50
270.0
 51
0.0
  0
ARC
  5
2AC
  8
TEAM-NET
 10
1.181801
 20
862.632548
 30
-117.0
 40
12.5
210
0.0
220
1.0
230
0.0
 50
270.0
 51
0.0
  0
ARC
  5
2AD
  8
TEAM-NET
 10
1.181801
 20
862.632548
 30
-117.0
 40
12.5
210
0.0
220
1.0
230
0.0
 50
180.0
 51
270.0
  0
ARC
  5
2AE
  8
TEAM-NET
 10
117.0
 20
847.132548
 30
1.181801
 40
3.0
210
-1.0
220
0.0
230
0.0
 50
0.0
 51
90.0
  0
ARC
  5
2AF
  8
TEAM-NET
 10
117.0
 20
847.132548
 30
1.181801
 40
3.0
210
-1.0
220
0.0
230
0.0
 50
0.0
 51
90.0
  0
ARC
  5
2B0
  8
TEAM-NET
 10
-1.181801
 20
862.632548
 30
105.0
 40
12.5
210
0.0
220
-1.0
230
0.0
 50
180.0
 51
0.0
  0
ARC
  5
2B1
  8
TEAM-NET
 10
1.181801
 20
862.632548
 30
-117.0
 40
12.5
210
0.0
220
1.0
230
0.0
 50
0.0
 51
90.0
  0
ARC
  5
2B2
  8
TEAM-NET
 10
-1.181801
 20
862.632548
 30
120.0
 40
15.5
210
0.0
220
-1.0
230
0.0
 50
90.0
 51
270.0
  0
ARC
  5
2B3
  8
TEAM-NET
 10
1.181801
 20
862.632548
 30
-117.0
 40
12.5
210
0.0
220
1.0
230
0.0
 50
90.0
 51
180.0
  0
ARC
  5
2B4
  8
TEAM-NET
 10
1.181801
 20
862.632548
 30
-117.0
 40
12.5
210
0.0
220
1.0
230
0.0
 50
90.0
 51
180.0
  0
ARC
  5
2B5
  8
TEAM-NET
 10
1.181801
 20
862.632548
 30
-117.0
 40
12.5
210
0.0
220
1.0
230
0.0
 50
0.0
 51
90.0
  0
ARC
  5
2B6
  8
TEAM-NET
 10
-1.181801
 20
862.632548
 30
105.0
 40
12.5
210
0.0
220
-1.0
230
0.0
 50
360.0
 51
180.0
  0
ARC
  5
2B7
  8
TEAM-NET
 10
-1.181801
 20
862.632548
 30
105.0
 40
12.5
210
0.0
220
-1.0
230
0.0
 50
180.0
 51
0.0
  0
ARC
  5
2B8
  8
TEAM-NET
 10
-1.181801
 20
862.632548
 30
105.0
 40
12.5
210
0.0
220
-1.0
230
0.0
 50
360.0
 51
180.0
  0
ARC
  5
2B9
  8
TEAM-NET
 10
-1.181801
 20
862.632548
 30
120.0
 40
15.5
210
0.0
220
-1.0
230
0.0
 50
90.0
 51
270.0
  0
LINE
  5
2BA
  8
TEAM-NET
 10
-199.998075
 20
-120.0
 30
887.632548
 11
200.001925
 21
-120.0
 31
887.632548
  0
LINE
  5
2BB
  8
TEAM-NET
 10
200.001925
 20
-115.0
 30
892.632548
 11
-199.998075
 21
-115.0
 31
892.632548
  0
LINE
  5
2BC
  8
TEAM-NET
 10
200.001925
 20
-115.0
 30
892.632548
 11
-199.998075
 21
-115.0
 31
892.632548
  0
LINE
  5
2BD
  8
TEAM-NET
 10
-239.998075
 20
0.0
 30
892.632548
 11
240.001925
 21
0.0
 31
892.632548
  0
LINE
  5
2BE
  8
TEAM-NET
 10
-199.998075
 20
-120.0
 30
887.632548
 11
200.001925
 21
-120.0
 31
887.632548
210
0.0
220
-1.0
230
0.0
  0
LINE
  5
2BF
  8
TEAM-NET
 10
-239.998075
 20
0.0
 30
892.632548
 11
240.001925
 21
0.0
 31
892.632548
210
0.0
220
1.0
230
0.0
  0
ARC
  5
2C0
  8
TEAM-NET
 10
-214.998075
 20
887.632548
 30
130.0
 40
5.0
210
0.0
220
-1.0
230
0.0
 50
0.0
 51
90.0
  0
ARC
  5
2C1
  8
TEAM-NET
 10
199.998075
 20
-130.0
 30
-887.632548
 40
10.0
210
0.0
220
0.0
230
-1.0
 50
0.0
 51
90.0
  0
ARC
  5
2C2
  8
TEAM-NET
 10
-199.998075
 20
-130.0
 30
892.632548
 40
15.0
 50
90.0
 51
180.0
  0
ARC
  5
2C3
  8
TEAM-NET
 10
115.0
 20
887.632548
 30
199.998075
 40
5.0
210
-1.0
220
0.0
230
0.0
 50
0.0
 51
90.0
  0
ARC
  5
2C4
  8
TEAM-NET
 10
115.0
 20
887.632548
 30
199.998075
 40
5.0
210
-1.0
220
0.0
230
0.0
 50
0.0
 51
90.0
  0
ARC
  5
2C5
  8
TEAM-NET
 10
-214.998075
 20
887.632548
 30
130.0
 40
5.0
210
0.0
220
-1.0
230
0.0
 50
0.0
 51
90.0
  0
ARC
  5
2C6
  8
TEAM-NET
 10
-199.998075
 20
-130.0
 30
892.632548
 40
15.0
 50
90.0
 51
180.0
  0
ARC
  5
2C7
  8
TEAM-NET
 10
199.998075
 20
-130.0
 30
-887.632548
 40
10.0
210
0.0
220
0.0
230
-1.0
 50
0.0
 51
90.0
  0
ARC
  5
2C8
  8
TEAM-NET
 10
-239.998075
 20
882.632548
 30
0.0
 40
10.0
210
0.0
220
-1.0
230
0.0
 50
90.0
 51
180.0
  0
ARC
  5
2C9
  8
TEAM-NET
 10
239.998075
 20
882.632548
 30
0.0
 40
10.0
210
0.0
220
1.0
230
0.0
 50
0.0
 51
90.0
  0
ARC
  5
2CA
  8
TEAM-NET
 10
215.001925
 20
887.632548
 30
130.0
 40
5.0
210
0.0
220
-1.0
230
0.0
 50
90.0
 51
180.0
  0
ARC
  5
2CB
  8
TEAM-NET
 10
200.001925
 20
-130.0
 30
892.632548
 40
15.0
 50
0.0
 51
90.0
  0
ARC
  5
2CC
  8
TEAM-NET
 10
-200.001925
 20
-130.0
 30
-887.632548
 40
10.0
210
0.0
220
0.0
230
-1.0
 50
90.0
 51
180.0
  0
ARC
  5
2CD
  8
TEAM-NET
 10
-115.0
 20
887.632548
 30
200.001925
 40
5.0
210
1.0
220
0.0
230
0.0
 50
90.0
 51
180.0
  0
ARC
  5
2CE
  8
TEAM-NET
 10
-115.0
 20
887.632548
 30
200.001925
 40
5.0
210
1.0
220
0.0
230
0.0
 50
90.0
 51
180.0
  0
ARC
  5
2CF
  8
TEAM-NET
 10
215.001925
 20
887.632548
 30
130.0
 40
5.0
210
0.0
220
-1.0
230
0.0
 50
90.0
 51
180.0
  0
ARC
  5
2D0
  8
TEAM-NET
 10
200.001925
 20
-130.0
 30
892.632548
 40
15.0
 50
0.0
 51
90.0
  0
ARC
  5
2D1
  8
TEAM-NET
 10
-200.001925
 20
-130.0
 30
-887.632548
 40
10.0
210
0.0
220
0.0
230
-1.0
 50
90.0
 51
180.0
  0
ARC
  5
2D2
  8
TEAM-NET
 10
240.001925
 20
882.632548
 30
0.0
 40
10.0
210
0.0
220
-1.0
230
0.0
 50
0.0
 51
90.0
  0
ARC
  5
2D3
  8
TEAM-NET
 10
-240.001925
 20
882.632548
 30
0.0
 40
10.0
210
0.0
220
1.0
230
0.0
 50
90.0
 51
180.0
  0
ENDSEC
  0
EOF
