  0
SECTION
  2
HEADER
  9
$ACADVER
  1
AC1009
  9
$INSBASE
 10
0.0
 20
0.0
 30
0.0
  9
$EXTMIN
 10
-56.279271
 20
-491.170803
 30
-0.051939
  9
$EXTMAX
 10
494.363088
 20
59.461929
 30
851.051946
  9
$LIMMIN
 10
-56.279271
 20
-491.170803
  9
$LIMMAX
 10
494.363088
 20
59.461929
  9
$ORTHOMODE
 70
     1
  9
$REGENMODE
 70
     1
  9
$FILLMODE
 70
     1
  9
$QTEXTMODE
 70
     0
  9
$MIRRTEXT
 70
     0
  9
$DRAGMODE
 70
     2
  9
$LTSCALE
 40
25.0
  9
$OSMODE
 70
     0
  9
$ATTMODE
 70
     1
  9
$TEXTSIZE
 40
200.0
  9
$TRACEWID
 40
1.0
  9
$TEXTSTYLE
  7
STANDARD
  9
$CLAYER
  8
TEAM-MAS
  9
$CELTYPE
  6
BYLAYER
  9
$CECOLOR
 62
   256
  9
$DIMSCALE
 40
0.0
  9
$DIMASZ
 40
20.0
  9
$DIMEXO
 40
10.0
  9
$DIMDLI
 40
1.0
  9
$DIMRND
 40
0.0
  9
$DIMDLE
 40
0.0
  9
$DIMEXE
 40
1.0
  9
$DIMTP
 40
0.0
  9
$DIMTM
 40
0.0
  9
$DIMTXT
 40
35.0
  9
$DIMCEN
 40
1.0
  9
$DIMTSZ
 40
0.0
  9
$DIMTOL
 70
     0
  9
$DIMLIM
 70
     0
  9
$DIMTIH
 70
     0
  9
$DIMTOH
 70
     0
  9
$DIMSE1
 70
     0
  9
$DIMSE2
 70
     0
  9
$DIMTAD
 70
     0
  9
$DIMZIN
 70
     0
  9
$DIMBLK
  1

  9
$DIMASO
 70
     1
  9
$DIMSHO
 70
     0
  9
$DIMPOST
  1

  9
$DIMAPOST
  1

  9
$DIMALT
 70
     0
  9
$DIMALTD
 70
     2
  9
$DIMALTF
 40
25.4
  9
$DIMLFAC
 40
1.0
  9
$DIMTOFL
 70
     0
  9
$DIMTVP
 40
0.0
  9
$DIMTIX
 70
     0
  9
$DIMSOXD
 70
     0
  9
$DIMSAH
 70
     0
  9
$DIMBLK1
  1

  9
$DIMBLK2
  1

  9
$DIMSTYLE
  2
TEAM
  9
$DIMCLRD
 70
     9
  9
$DIMCLRE
 70
     9
  9
$DIMCLRT
 70
    11
  9
$DIMTFAC
 40
1.0
  9
$DIMGAP
 40
15.0
  9
$LUNITS
 70
     2
  9
$LUPREC
 70
     1
  9
$SKETCHINC
 40
1.0
  9
$FILLETRAD
 40
50.0
  9
$AUNITS
 70
     0
  9
$AUPREC
 70
     0
  9
$MENU
  1
ROPLANS
  9
$ELEVATION
 40
0.0
  9
$PELEVATION
 40
0.0
  9
$THICKNESS
 40
0.0
  9
$LIMCHECK
 70
     0
  9
$BLIPMODE
 70
     1
  9
$CHAMFERA
 40
0.0
  9
$CHAMFERB
 40
0.0
  9
$SKPOLY
 70
     0
  9
$TDCREATE
 40
2450392.957851
  9
$TDUPDATE
 40
2455498.668349
  9
$TDINDWG
 40
1.994891
  9
$TDUSRTIMER
 40
1.994891
  9
$USRTIMER
 70
     1
  9
$ANGBASE
 50
0.0
  9
$ANGDIR
 70
     0
  9
$PDMODE
 70
     0
  9
$PDSIZE
 40
0.0
  9
$PLINEWID
 40
0.0
  9
$COORDS
 70
     2
  9
$SPLFRAME
 70
     0
  9
$SPLINETYPE
 70
     6
  9
$SPLINESEGS
 70
     8
  9
$ATTDIA
 70
     0
  9
$ATTREQ
 70
     0
  9
$HANDLING
 70
     1
  9
$HANDSEED
  5
207
  9
$SURFTAB1
 70
    24
  9
$SURFTAB2
 70
    24
  9
$SURFTYPE
 70
     6
  9
$SURFU
 70
     6
  9
$SURFV
 70
     6
  9
$UCSNAME
  2

  9
$UCSORG
 10
0.0
 20
0.0
 30
0.0
  9
$UCSXDIR
 10
1.0
 20
0.0
 30
0.0
  9
$UCSYDIR
 10
0.0
 20
1.0
 30
0.0
  9
$PUCSNAME
  2

  9
$PUCSORG
 10
0.0
 20
0.0
 30
0.0
  9
$PUCSXDIR
 10
1.0
 20
0.0
 30
0.0
  9
$PUCSYDIR
 10
0.0
 20
1.0
 30
0.0
  9
$USERI1
 70
     0
  9
$USERI2
 70
     0
  9
$USERI3
 70
     0
  9
$USERI4
 70
     0
  9
$USERI5
 70
     0
  9
$USERR1
 40
0.0
  9
$USERR2
 40
0.0
  9
$USERR3
 40
0.0
  9
$USERR4
 40
0.0
  9
$USERR5
 40
0.0
  9
$WORLDVIEW
 70
     1
  9
$SHADEDGE
 70
     0
  9
$SHADEDIF
 70
    70
  9
$TILEMODE
 70
     1
  9
$MAXACTVP
 70
    16
  9
$PLIMCHECK
 70
     0
  9
$PEXTMIN
 10
-0.805942
 20
0.005011
 30
0.0
  9
$PEXTMAX
 10
20.250094
 20
11.356329
 30
0.0
  9
$PLIMMIN
 10
0.0
 20
0.0
  9
$PLIMMAX
 10
12.0
 20
9.0
  9
$UNITMODE
 70
     0
  9
$VISRETAIN
 70
     0
  9
$PLINEGEN
 70
     0
  9
$PSLTSCALE
 70
     0
  0
ENDSEC
  0
SECTION
  2
TABLES
  0
TABLE
  2
VPORT
 70
     2
  0
VPORT
  2
*ACTIVE
 70
     0
 10
0.0
 20
0.0
 11
1.0
 21
1.0
 12
219.041909
 22
-215.854437
 13
0.0
 23
0.0
 14
1.0
 24
1.0
 15
50.0
 25
50.0
 16
0.0
 26
0.0
 36
1.0
 17
0.0
 27
0.0
 37
0.0
 40
554.014305
 41
1.865779
 42
50.0
 43
0.0
 44
0.0
 50
0.0
 51
0.0
 71
     0
 72
   100
 73
     1
 74
     1
 75
     0
 76
     0
 77
     0
 78
     0
  0
ENDTAB
  0
TABLE
  2
LTYPE
 70
     1
  0
LTYPE
  2
CONTINUOUS
 70
     0
  3
Solid Line
 72
    65
 73
     0
 40
0.0
  0
ENDTAB
  0
TABLE
  2
LAYER
 70
     8
  0
LAYER
  2
0
 70
     0
 62
     7
  6
CONTINUOUS
  0
LAYER
  2
TEAM-BODY
 70
     0
 62
     2
  6
CONTINUOUS
  0
LAYER
  2
TEAM-MAS
 70
     0
 62
     9
  6
CONTINUOUS
  0
LAYER
  2
TEAM-TXT
 70
     0
 62
    11
  6
CONTINUOUS
  0
LAYER
  2
TEAM-DET1
 70
     0
 62
     4
  6
CONTINUOUS
  0
LAYER
  2
TEAM-KAN
 70
     0
 62
     6
  6
CONTINUOUS
  0
LAYER
  2
TEAM-NET
 70
     0
 62
    15
  6
CONTINUOUS
  0
LAYER
  2
TEAM-INSP
 70
     0
 62
     5
  6
CONTINUOUS
  0
ENDTAB
  0
TABLE
  2
STYLE
 70
     2
  0
STYLE
  2
STANDARD
 70
     0
 40
0.0
 41
1.0
 50
0.0
 71
     0
 42
200.0
  3
txt
  4

  0
STYLE
  2
TEAM
 70
     0
 40
0.0
 41
0.8
 50
15.0
 71
     0
 42
7.0
  3
ROMANS.shx
  4

  0
ENDTAB
  0
TABLE
  2
VIEW
 70
     0
  0
ENDTAB
  0
TABLE
  2
UCS
 70
     0
  0
ENDTAB
  0
TABLE
  2
APPID
 70
     1
  0
APPID
  2
ACAD
 70
     0
  0
ENDTAB
  0
TABLE
  2
DIMSTYLE
 70
     1
  0
DIMSTYLE
  2
TEAM
 70
     0
  3

  4

  5

  6

  7

 40
0.0
 41
20.0
 42
10.0
 43
1.0
 44
1.0
 45
0.0
 46
0.0
 47
0.0
 48
0.0
140
35.0
141
1.0
142
0.0
143
25.4
144
1.0
145
0.0
146
1.0
147
15.0
 71
     0
 72
     0
 73
     0
 74
     0
 75
     0
 76
     0
 77
     0
 78
     0
170
     0
171
     2
172
     0
173
     0
174
     0
175
     0
176
     9
177
     9
178
    11
  0
ENDTAB
  0
ENDSEC
  0
SECTION
  2
BLOCKS
  0
BLOCK
  8
0
  2
$MODEL_SPACE
 70
     0
 10
0.0
 20
0.0
 30
0.0
  3
$MODEL_SPACE
  1

  0
ENDBLK
  5
1F4
  8
0
  0
BLOCK
 67
     1
  8
0
  2
$PAPER_SPACE
 70
     0
 10
0.0
 20
0.0
 30
0.0
  3
$PAPER_SPACE
  1

  0
ENDBLK
  5
1F2
 67
     1
  8
0
  0
ENDSEC
  0
SECTION
  2
ENTITIES
  0
CIRCLE
  5
20
  8
TEAM-INSP
 10
0.0
 20
0.0
 30
0.0
 40
10.0
  0
POLYLINE
  5
22
  8
TEAM-NET
 66
     1
 10
0.0
 20
0.0
 30
0.0
 70
    16
 71
    13
 72
    13
  0
VERTEX
  5
23
  8
TEAM-NET
 10
366.551108
 20
-80.525453
 30
850.0
 70
    64
  0
VERTEX
  5
24
  8
TEAM-NET
 10
325.103473
 20
-49.340284
 30
850.0
 70
    64
  0
VERTEX
  5
25
  8
TEAM-NET
 10
277.03026
 20
-29.862415
 30
850.0
 70
    64
  0
VERTEX
  5
26
  8
TEAM-NET
 10
225.564899
 20
-23.401937
 30
850.0
 70
    64
  0
VERTEX
  5
27
  8
TEAM-NET
 10
174.168976
 20
-30.393386
 30
850.0
 70
    64
  0
VERTEX
  5
28
  8
TEAM-NET
 10
126.29941
 20
-50.366514
 30
850.0
 70
    64
  0
VERTEX
  5
29
  8
TEAM-NET
 10
85.175932
 20
-81.977916
 30
850.0
 70
    64
  0
VERTEX
  5
2A
  8
TEAM-NET
 10
53.56453
 20
-123.101394
 30
850.0
 70
    64
  0
VERTEX
  5
2B
  8
TEAM-NET
 10
33.591402
 20
-170.97096
 30
850.0
 70
    64
  0
VERTEX
  5
2C
  8
TEAM-NET
 10
26.599953
 20
-222.366883
 30
850.0
 70
    64
  0
VERTEX
  5
2D
  8
TEAM-NET
 10
33.060431
 20
-273.832244
 30
850.0
 70
    64
  0
VERTEX
  5
2E
  8
TEAM-NET
 10
52.5383
 20
-321.905457
 30
850.0
 70
    64
  0
VERTEX
  5
2F
  8
TEAM-NET
 10
83.723469
 20
-363.353092
 30
850.0
 70
    64
  0
VERTEX
  5
30
  8
TEAM-NET
 10
366.551108
 20
-80.525453
 30
850.0
 70
    64
  0
VERTEX
  5
31
  8
TEAM-NET
 10
326.340925
 20
-50.577735
 30
836.707274
 70
    64
  0
VERTEX
  5
32
  8
TEAM-NET
 10
279.418585
 20
-32.25074
 30
824.344568
 70
    64
  0
VERTEX
  5
33
  8
TEAM-NET
 10
228.940111
 20
-26.77715
 30
813.743404
 70
    64
  0
VERTEX
  5
34
  8
TEAM-NET
 10
178.300712
 20
-34.525122
 30
805.616821
 70
    64
  0
VERTEX
  5
35
  8
TEAM-NET
 10
130.90642
 20
-54.973523
 30
800.511419
 70
    64
  0
VERTEX
  5
36
  8
TEAM-NET
 10
89.945
 20
-86.746984
 30
798.770588
 70
    64
  0
VERTEX
  5
37
  8
TEAM-NET
 10
58.171539
 20
-127.708404
 30
800.511419
 70
    64
  0
VERTEX
  5
38
  8
TEAM-NET
 10
37.723138
 20
-175.102696
 30
805.616821
 70
    64
  0
VERTEX
  5
39
  8
TEAM-NET
 10
29.975166
 20
-225.742095
 30
813.743404
 70
    64
  0
VERTEX
  5
3A
  8
TEAM-NET
 10
35.448756
 20
-276.220569
 30
824.344568
 70
    64
  0
VERTEX
  5
3B
  8
TEAM-NET
 10
53.775751
 20
-323.142909
 30
836.707274
 70
    64
  0
VERTEX
  5
3C
  8
TEAM-NET
 10
83.723469
 20
-363.353092
 30
850.0
 70
    64
  0
VERTEX
  5
3D
  8
TEAM-NET
 10
366.551108
 20
-80.525453
 30
850.0
 70
    64
  0
VERTEX
  5
3E
  8
TEAM-NET
 10
329.968949
 20
-54.205759
 30
824.320426
 70
    64
  0
VERTEX
  5
3F
  8
TEAM-NET
 10
286.4208
 20
-39.252954
 30
800.437512
 70
    64
  0
VERTEX
  5
40
  8
TEAM-NET
 10
238.835734
 20
-36.672772
 30
779.957635
 70
    64
  0
VERTEX
  5
41
  8
TEAM-NET
 10
190.414347
 20
-46.638757
 30
764.258283
 70
    64
  0
VERTEX
  5
42
  8
TEAM-NET
 10
144.413488
 20
-68.480592
 30
754.395402
 70
    64
  0
VERTEX
  5
43
  8
TEAM-NET
 10
103.927198
 20
-100.729182
 30
751.032376
 70
    64
  0
VERTEX
  5
44
  8
TEAM-NET
 10
71.678608
 20
-141.215472
 30
754.395402
 70
    64
  0
VERTEX
  5
45
  8
TEAM-NET
 10
49.836773
 20
-187.216331
 30
764.258283
 70
    64
  0
VERTEX
  5
46
  8
TEAM-NET
 10
39.870788
 20
-235.637718
 30
779.957635
 70
    64
  0
VERTEX
  5
47
  8
TEAM-NET
 10
42.45097
 20
-283.222784
 30
800.437512
 70
    64
  0
VERTEX
  5
48
  8
TEAM-NET
 10
57.403775
 20
-326.770933
 30
824.320426
 70
    64
  0
VERTEX
  5
49
  8
TEAM-NET
 10
83.723469
 20
-363.353092
 30
850.0
 70
    64
  0
VERTEX
  5
4A
  8
TEAM-NET
 10
366.551108
 20
-80.525453
 30
850.0
 70
    64
  0
VERTEX
  5
4B
  8
TEAM-NET
 10
335.740301
 20
-59.977112
 30
813.683598
 70
    64
  0
VERTEX
  5
4C
  8
TEAM-NET
 10
297.559715
 20
-50.391869
 30
779.908057
 70
    64
  0
VERTEX
  5
4D
  8
TEAM-NET
 10
254.577396
 20
-52.414435
 30
750.945137
 70
    64
  0
VERTEX
  5
4E
  8
TEAM-NET
 10
209.684358
 20
-65.908768
 30
728.742901
 70
    64
  0
VERTEX
  5
4F
  8
TEAM-NET
 10
165.900131
 20
-89.967235
 30
714.794681
 70
    64
  0
VERTEX
  5
50
  8
TEAM-NET
 10
126.169664
 20
-122.971648
 30
710.038644
 70
    64
  0
VERTEX
  5
51
  8
TEAM-NET
 10
93.165251
 20
-162.702115
 30
714.794681
 70
    64
  0
VERTEX
  5
52
  8
TEAM-NET
 10
69.106784
 20
-206.486343
 30
728.742901
 70
    64
  0
VERTEX
  5
53
  8
TEAM-NET
 10
55.612451
 20
-251.37938
 30
750.945137
 70
    64
  0
VERTEX
  5
54
  8
TEAM-NET
 10
53.589885
 20
-294.361699
 30
779.908057
 70
    64
  0
VERTEX
  5
55
  8
TEAM-NET
 10
63.175128
 20
-332.542285
 30
813.683598
 70
    64
  0
VERTEX
  5
56
  8
TEAM-NET
 10
83.723469
 20
-363.353092
 30
850.0
 70
    64
  0
VERTEX
  5
57
  8
TEAM-NET
 10
366.551108
 20
-80.525453
 30
850.0
 70
    64
  0
VERTEX
  5
58
  8
TEAM-NET
 10
343.261674
 20
-67.498485
 30
805.521673
 70
    64
  0
VERTEX
  5
59
  8
TEAM-NET
 10
312.076232
 20
-64.908386
 30
764.155252
 70
    64
  0
VERTEX
  5
5A
  8
TEAM-NET
 10
275.09233
 20
-72.929368
 30
728.683065
 70
    64
  0
VERTEX
  5
5B
  8
TEAM-NET
 10
234.797526
 20
-91.021936
 30
701.49099
 70
    64
  0
VERTEX
  5
5C
  8
TEAM-NET
 10
193.902069
 20
-117.969173
 30
684.40798
 70
    64
  0
VERTEX
  5
5D
  8
TEAM-NET
 10
155.15661
 20
-151.958594
 30
678.583047
 70
    64
  0
VERTEX
  5
5E
  8
TEAM-NET
 10
121.167189
 20
-190.704053
 30
684.40798
 70
    64
  0
VERTEX
  5
5F
  8
TEAM-NET
 10
94.219952
 20
-231.59951
 30
701.49099
 70
    64
  0
VERTEX
  5
60
  8
TEAM-NET
 10
76.127384
 20
-271.894314
 30
728.683065
 70
    64
  0
VERTEX
  5
61
  8
TEAM-NET
 10
68.106402
 20
-308.878216
 30
764.155252
 70
    64
  0
VERTEX
  5
62
  8
TEAM-NET
 10
70.696501
 20
-340.063658
 30
805.521673
 70
    64
  0
VERTEX
  5
63
  8
TEAM-NET
 10
83.723469
 20
-363.353092
 30
850.0
 70
    64
  0
VERTEX
  5
64
  8
TEAM-NET
 10
366.551108
 20
-80.525453
 30
850.0
 70
    64
  0
VERTEX
  5
65
  8
TEAM-NET
 10
352.020499
 20
-76.257309
 30
800.390872
 70
    64
  0
VERTEX
  5
66
  8
TEAM-NET
 10
328.981074
 20
-81.813228
 30
754.252625
 70
    64
  0
VERTEX
  5
67
  8
TEAM-NET
 10
298.982476
 20
-96.819515
 30
714.688541
 70
    64
  0
VERTEX
  5
68
  8
TEAM-NET
 10
264.042429
 20
-120.266839
 30
684.359722
 70
    64
  0
VERTEX
  5
69
  8
TEAM-NET
 10
226.511017
 20
-150.578121
 30
665.3061
 70
    64
  0
VERTEX
  5
6A
  8
TEAM-NET
 10
188.912624
 20
-185.714608
 30
658.809232
 70
    64
  0
VERTEX
  5
6B
  8
TEAM-NET
 10
153.776137
 20
-223.313001
 30
665.3061
 70
    64
  0
VERTEX
  5
6C
  8
TEAM-NET
 10
123.464855
 20
-260.844413
 30
684.359722
 70
    64
  0
VERTEX
  5
6D
  8
TEAM-NET
 10
100.017531
 20
-295.78446
 30
714.688541
 70
    64
  0
VERTEX
  5
6E
  8
TEAM-NET
 10
85.011244
 20
-325.783058
 30
754.252625
 70
    64
  0
VERTEX
  5
6F
  8
TEAM-NET
 10
79.455325
 20
-348.822483
 30
800.390872
 70
    64
  0
VERTEX
  5
70
  8
TEAM-NET
 10
83.723469
 20
-363.353092
 30
850.0
 70
    64
  0
VERTEX
  5
71
  8
TEAM-NET
 10
366.551108
 20
-80.525453
 30
850.0
 70
    64
  0
VERTEX
  5
72
  8
TEAM-NET
 10
361.419875
 20
-85.656686
 30
798.640852
 70
    64
  0
VERTEX
  5
73
  8
TEAM-NET
 10
347.122203
 20
-99.954358
 30
750.875024
 70
    64
  0
VERTEX
  5
74
  8
TEAM-NET
 10
324.619761
 20
-122.4568
 30
709.91527
 70
    64
  0
VERTEX
  5
75
  8
TEAM-NET
 10
295.426076
 20
-151.650485
 30
678.516566
 70
    64
  0
VERTEX
  5
76
  8
TEAM-NET
 10
261.504729
 20
-185.571832
 30
658.790805
 70
    64
  0
VERTEX
  5
77
  8
TEAM-NET
 10
225.137288
 20
-221.939273
 30
652.064752
 70
    64
  0
VERTEX
  5
78
  8
TEAM-NET
 10
188.769848
 20
-258.306713
 30
658.790805
 70
    64
  0
VERTEX
  5
79
  8
TEAM-NET
 10
154.848501
 20
-292.22806
 30
678.516566
 70
    64
  0
VERTEX
  5
7A
  8
TEAM-NET
 10
125.654816
 20
-321.421745
 30
709.91527
 70
    64
  0
VERTEX
  5
7B
  8
TEAM-NET
 10
103.152374
 20
-343.924187
 30
750.875024
 70
    64
  0
VERTEX
  5
7C
  8
TEAM-NET
 10
88.854702
 20
-358.221859
 30
798.640852
 70
    64
  0
VERTEX
  5
7D
  8
TEAM-NET
 10
83.723469
 20
-363.353092
 30
850.0
 70
    64
  0
VERTEX
  5
7E
  8
TEAM-NET
 10
366.551108
 20
-80.525453
 30
850.0
 70
    64
  0
VERTEX
  5
7F
  8
TEAM-NET
 10
370.819252
 20
-95.056062
 30
800.390872
 70
    64
  0
VERTEX
  5
80
  8
TEAM-NET
 10
365.263333
 20
-118.095487
 30
754.252625
 70
    64
  0
VERTEX
  5
81
  8
TEAM-NET
 10
350.257046
 20
-148.094085
 30
714.688541
 70
    64
  0
VERTEX
  5
82
  8
TEAM-NET
 10
326.809722
 20
-183.034132
 30
684.359722
 70
    64
  0
VERTEX
  5
83
  8
TEAM-NET
 10
296.49844
 20
-220.565544
 30
665.3061
 70
    64
  0
VERTEX
  5
84
  8
TEAM-NET
 10
261.361953
 20
-258.163937
 30
658.809232
 70
    64
  0
VERTEX
  5
85
  8
TEAM-NET
 10
223.76356
 20
-293.300424
 30
665.3061
 70
    64
  0
VERTEX
  5
86
  8
TEAM-NET
 10
186.232148
 20
-323.611706
 30
684.359722
 70
    64
  0
VERTEX
  5
87
  8
TEAM-NET
 10
151.292101
 20
-347.05903
 30
714.688541
 70
    64
  0
VERTEX
  5
88
  8
TEAM-NET
 10
121.293503
 20
-362.065317
 30
754.252625
 70
    64
  0
VERTEX
  5
89
  8
TEAM-NET
 10
98.254078
 20
-367.621236
 30
800.390872
 70
    64
  0
VERTEX
  5
8A
  8
TEAM-NET
 10
83.723469
 20
-363.353092
 30
850.0
 70
    64
  0
VERTEX
  5
8B
  8
TEAM-NET
 10
366.551108
 20
-80.525453
 30
850.0
 70
    64
  0
VERTEX
  5
8C
  8
TEAM-NET
 10
379.578076
 20
-103.814887
 30
805.521673
 70
    64
  0
VERTEX
  5
8D
  8
TEAM-NET
 10
382.168175
 20
-135.000329
 30
764.155252
 70
    64
  0
VERTEX
  5
8E
  8
TEAM-NET
 10
374.147193
 20
-171.984231
 30
728.683065
 70
    64
  0
VERTEX
  5
8F
  8
TEAM-NET
 10
356.054625
 20
-212.279035
 30
701.49099
 70
    64
  0
VERTEX
  5
90
  8
TEAM-NET
 10
329.107388
 20
-253.174492
 30
684.40798
 70
    64
  0
VERTEX
  5
91
  8
TEAM-NET
 10
295.117967
 20
-291.919951
 30
678.583047
 70
    64
  0
VERTEX
  5
92
  8
TEAM-NET
 10
256.372508
 20
-325.909372
 30
684.40798
 70
    64
  0
VERTEX
  5
93
  8
TEAM-NET
 10
215.477051
 20
-352.856609
 30
701.49099
 70
    64
  0
VERTEX
  5
94
  8
TEAM-NET
 10
175.182247
 20
-370.949177
 30
728.683065
 70
    64
  0
VERTEX
  5
95
  8
TEAM-NET
 10
138.198345
 20
-378.970159
 30
764.155252
 70
    64
  0
VERTEX
  5
96
  8
TEAM-NET
 10
107.012903
 20
-376.38006
 30
805.521673
 70
    64
  0
VERTEX
  5
97
  8
TEAM-NET
 10
83.723469
 20
-363.353092
 30
850.0
 70
    64
  0
VERTEX
  5
98
  8
TEAM-NET
 10
366.551108
 20
-80.525453
 30
850.0
 70
    64
  0
VERTEX
  5
99
  8
TEAM-NET
 10
387.099449
 20
-111.33626
 30
813.683598
 70
    64
  0
VERTEX
  5
9A
  8
TEAM-NET
 10
396.684692
 20
-149.516846
 30
779.908057
 70
    64
  0
VERTEX
  5
9B
  8
TEAM-NET
 10
394.662126
 20
-192.499165
 30
750.945137
 70
    64
  0
VERTEX
  5
9C
  8
TEAM-NET
 10
381.167793
 20
-237.392203
 30
728.742901
 70
    64
  0
VERTEX
  5
9D
  8
TEAM-NET
 10
357.109326
 20
-281.17643
 30
714.794681
 70
    64
  0
VERTEX
  5
9E
  8
TEAM-NET
 10
324.104913
 20
-320.906897
 30
710.038644
 70
    64
  0
VERTEX
  5
9F
  8
TEAM-NET
 10
284.374446
 20
-353.91131
 30
714.794681
 70
    64
  0
VERTEX
  5
A0
  8
TEAM-NET
 10
240.590218
 20
-377.969777
 30
728.742901
 70
    64
  0
VERTEX
  5
A1
  8
TEAM-NET
 10
195.697181
 20
-391.46411
 30
750.945137
 70
    64
  0
VERTEX
  5
A2
  8
TEAM-NET
 10
152.714862
 20
-393.486676
 30
779.908057
 70
    64
  0
VERTEX
  5
A3
  8
TEAM-NET
 10
114.534276
 20
-383.901433
 30
813.683598
 70
    64
  0
VERTEX
  5
A4
  8
TEAM-NET
 10
83.723469
 20
-363.353092
 30
850.0
 70
    64
  0
VERTEX
  5
A5
  8
TEAM-NET
 10
366.551108
 20
-80.525453
 30
850.0
 70
    64
  0
VERTEX
  5
A6
  8
TEAM-NET
 10
392.870802
 20
-117.107612
 30
824.320426
 70
    64
  0
VERTEX
  5
A7
  8
TEAM-NET
 10
407.823607
 20
-160.655761
 30
800.437512
 70
    64
  0
VERTEX
  5
A8
  8
TEAM-NET
 10
410.403789
 20
-208.240827
 30
779.957635
 70
    64
  0
VERTEX
  5
A9
  8
TEAM-NET
 10
400.437804
 20
-256.662214
 30
764.258283
 70
    64
  0
VERTEX
  5
AA
  8
TEAM-NET
 10
378.595969
 20
-302.663073
 30
754.395402
 70
    64
  0
VERTEX
  5
AB
  8
TEAM-NET
 10
346.347379
 20
-343.149363
 30
751.032376
 70
    64
  0
VERTEX
  5
AC
  8
TEAM-NET
 10
305.861089
 20
-375.397953
 30
754.395402
 70
    64
  0
VERTEX
  5
AD
  8
TEAM-NET
 10
259.86023
 20
-397.239788
 30
764.258283
 70
    64
  0
VERTEX
  5
AE
  8
TEAM-NET
 10
211.438843
 20
-407.205773
 30
779.957635
 70
    64
  0
VERTEX
  5
AF
  8
TEAM-NET
 10
163.853777
 20
-404.625591
 30
800.437512
 70
    64
  0
VERTEX
  5
B0
  8
TEAM-NET
 10
120.305628
 20
-389.672786
 30
824.320426
 70
    64
  0
VERTEX
  5
B1
  8
TEAM-NET
 10
83.723469
 20
-363.353092
 30
850.0
 70
    64
  0
VERTEX
  5
B2
  8
TEAM-NET
 10
366.551108
 20
-80.525453
 30
850.0
 70
    64
  0
VERTEX
  5
B3
  8
TEAM-NET
 10
396.498826
 20
-120.735636
 30
836.707274
 70
    64
  0
VERTEX
  5
B4
  8
TEAM-NET
 10
414.825821
 20
-167.657976
 30
824.344568
 70
    64
  0
VERTEX
  5
B5
  8
TEAM-NET
 10
420.299411
 20
-218.13645
 30
813.743404
 70
    64
  0
VERTEX
  5
B6
  8
TEAM-NET
 10
412.551439
 20
-268.775849
 30
805.616821
 70
    64
  0
VERTEX
  5
B7
  8
TEAM-NET
 10
392.103038
 20
-316.170141
 30
800.511419
 70
    64
  0
VERTEX
  5
B8
  8
TEAM-NET
 10
360.329577
 20
-357.131561
 30
798.770588
 70
    64
  0
VERTEX
  5
B9
  8
TEAM-NET
 10
319.368157
 20
-388.905022
 30
800.511419
 70
    64
  0
VERTEX
  5
BA
  8
TEAM-NET
 10
271.973865
 20
-409.353423
 30
805.616821
 70
    64
  0
VERTEX
  5
BB
  8
TEAM-NET
 10
221.334466
 20
-417.101395
 30
813.743404
 70
    64
  0
VERTEX
  5
BC
  8
TEAM-NET
 10
170.855992
 20
-411.627805
 30
824.344568
 70
    64
  0
VERTEX
  5
BD
  8
TEAM-NET
 10
123.933652
 20
-393.30081
 30
836.707274
 70
    64
  0
VERTEX
  5
BE
  8
TEAM-NET
 10
83.723469
 20
-363.353092
 30
850.0
 70
    64
  0
VERTEX
  5
BF
  8
TEAM-NET
 10
366.551108
 20
-80.525453
 30
850.0
 70
    64
  0
VERTEX
  5
C0
  8
TEAM-NET
 10
397.736277
 20
-121.973088
 30
850.0
 70
    64
  0
VERTEX
  5
C1
  8
TEAM-NET
 10
417.214146
 20
-170.046301
 30
850.0
 70
    64
  0
VERTEX
  5
C2
  8
TEAM-NET
 10
423.674624
 20
-221.511662
 30
850.0
 70
    64
  0
VERTEX
  5
C3
  8
TEAM-NET
 10
416.683175
 20
-272.907585
 30
850.0
 70
    64
  0
VERTEX
  5
C4
  8
TEAM-NET
 10
396.710047
 20
-320.777151
 30
850.0
 70
    64
  0
VERTEX
  5
C5
  8
TEAM-NET
 10
365.098645
 20
-361.900629
 30
850.0
 70
    64
  0
VERTEX
  5
C6
  8
TEAM-NET
 10
323.975167
 20
-393.512031
 30
850.0
 70
    64
  0
VERTEX
  5
C7
  8
TEAM-NET
 10
276.105601
 20
-413.485159
 30
850.0
 70
    64
  0
VERTEX
  5
C8
  8
TEAM-NET
 10
224.709678
 20
-420.476608
 30
850.0
 70
    64
  0
VERTEX
  5
C9
  8
TEAM-NET
 10
173.244317
 20
-414.01613
 30
850.0
 70
    64
  0
VERTEX
  5
CA
  8
TEAM-NET
 10
125.171104
 20
-394.538261
 30
850.0
 70
    64
  0
VERTEX
  5
CB
  8
TEAM-NET
 10
83.723469
 20
-363.353092
 30
850.0
 70
    64
  0
SEQEND
  5
CD
  8
TEAM-NET
  0
LINE
  5
CE
  8
TEAM-BODY
 39
-130.0
 10
31.661402
 20
-223.399273
 30
850.0
 11
111.706036
 21
-223.399273
 31
850.0
  0
POLYLINE
  5
D0
  8
TEAM-BODY
 66
     1
 10
0.0
 20
0.0
 30
850.0
 39
-150.0
  0
VERTEX
  5
1FA
  8
TEAM-BODY
 10
443.538601
 20
1.77204
 30
850.0
  0
VERTEX
  5
1FB
  8
TEAM-BODY
 10
3.528576
 20
1.464443
 30
850.0
 42
0.413398
  0
VERTEX
  5
1FC
  8
TEAM-BODY
 10
-1.464479
 20
-3.528562
 30
850.0
  0
VERTEX
  5
1FD
  8
TEAM-BODY
 10
-1.772075
 20
-443.530585
 30
850.0
  0
SEQEND
  5
1FE
  8
TEAM-BODY
  0
ARC
  5
D1
  8
TEAM-BODY
 39
-130.0
 10
226.597288
 20
-223.399273
 30
850.0
 40
110.0
 50
92.491906
 51
177.508094
  0
ARC
  5
D2
  8
TEAM-BODY
 39
-130.0
 10
111.706036
 20
-218.399273
 30
850.0
 40
5.0
 50
270.0
 51
357.508094
  0
LINE
  5
D3
  8
TEAM-BODY
 39
-130.0
 10
226.597288
 20
-28.463386
 30
850.0
 11
226.597288
 21
-108.50802
 31
850.0
  0
ARC
  5
D4
  8
TEAM-BODY
 39
-130.0
 10
221.597288
 20
-108.50802
 30
850.0
 40
5.0
 50
272.491906
 51
360.0
  0
POLYLINE
  5
D5
  8
TEAM-BODY
 66
     1
 10
0.0
 20
0.0
 30
850.0
 39
-150.0
  0
VERTEX
  5
1FF
  8
TEAM-BODY
 10
-1.772075
 20
-443.530585
 30
850.0
 42
0.414214
  0
VERTEX
  5
200
  8
TEAM-BODY
 10
3.227925
 20
-448.530585
 30
850.0
  0
VERTEX
  5
201
  8
TEAM-BODY
 10
226.597288
 20
-445.201221
 30
850.0
 42
0.414214
  0
VERTEX
  5
202
  8
TEAM-BODY
 10
448.399237
 20
-223.399273
 30
850.0
  0
VERTEX
  5
203
  8
TEAM-BODY
 10
448.538601
 20
-3.22796
 30
850.0
 42
0.414214
  0
VERTEX
  5
204
  8
TEAM-BODY
 10
443.538601
 20
1.77204
 30
850.0
  0
SEQEND
  5
205
  8
TEAM-BODY
  0
CIRCLE
  5
D6
  8
TEAM-DET1
 39
-20.0
 10
223.537288
 20
-223.539273
 30
720.0
 40
37.5
  0
CIRCLE
  5
D8
  8
TEAM-KAN
 39
-20.0
 10
223.537288
 20
-223.539273
 30
720.0
 40
26.0
  0
TEXT
  5
DA
  8
TEAM-TXT
 10
147.237246
 20
-359.135713
 30
851.0
 40
24.999999
  1
team 211302
 41
0.8
 51
15.0
  7
TEAM
  0
CIRCLE
  5
DD
  8
TEAM-DET1
 10
74.9556
 20
-184.491948
 30
850.0
 40
17.5
  0
ARC
  5
DE
  8
TEAM-BODY
 10
231.597288
 20
-28.463386
 30
850.0
 40
5.0
 50
88.530716
 51
180.0
  0
CIRCLE
  5
DF
  8
TEAM-DET1
 10
187.689963
 20
-71.757584
 30
850.0
 40
15.0
  0
ARC
  5
E0
  8
TEAM-BODY
 10
31.661402
 20
-228.399273
 30
850.0
 40
5.0
 50
90.0
 51
181.469284
  0
ARC
  5
E1
  8
TEAM-BODY
 10
226.597288
 20
-223.399273
 30
850.0
 40
200.0
 50
45.591518
 51
224.408482
  0
ARC
  5
E2
  8
TEAM-BODY
 10
226.597288
 20
-223.399273
 30
850.0
 40
200.0
 50
224.408482
 51
45.591518
  0
POLYLINE
  5
E3
  8
TEAM-NET
 66
     1
 10
0.0
 20
0.0
 30
0.0
 70
    16
 71
     2
 72
    25
  0
VERTEX
  5
E4
  8
TEAM-NET
 10
443.538601
 20
1.77204
 30
850.0
 70
    64
  0
VERTEX
  5
E5
  8
TEAM-NET
 10
406.544763
 20
1.746179
 30
850.0
 70
    64
  0
VERTEX
  5
E6
  8
TEAM-NET
 10
369.550926
 20
1.720317
 30
850.0
 70
    64
  0
VERTEX
  5
E7
  8
TEAM-NET
 10
332.557089
 20
1.694456
 30
850.0
 70
    64
  0
VERTEX
  5
E8
  8
TEAM-NET
 10
295.563251
 20
1.668595
 30
850.0
 70
    64
  0
VERTEX
  5
E9
  8
TEAM-NET
 10
258.569414
 20
1.642734
 30
850.0
 70
    64
  0
VERTEX
  5
EA
  8
TEAM-NET
 10
221.575576
 20
1.616873
 30
850.0
 70
    64
  0
VERTEX
  5
EB
  8
TEAM-NET
 10
184.581739
 20
1.591012
 30
850.0
 70
    64
  0
VERTEX
  5
EC
  8
TEAM-NET
 10
147.587902
 20
1.565151
 30
850.0
 70
    64
  0
VERTEX
  5
ED
  8
TEAM-NET
 10
110.594064
 20
1.539289
 30
850.0
 70
    64
  0
VERTEX
  5
EE
  8
TEAM-NET
 10
73.600227
 20
1.513428
 30
850.0
 70
    64
  0
VERTEX
  5
EF
  8
TEAM-NET
 10
36.606389
 20
1.487567
 30
850.0
 70
    64
  0
VERTEX
  5
F0
  8
TEAM-NET
 10
0.00283
 20
0.002828
 30
850.0
 70
    64
  0
VERTEX
  5
F1
  8
TEAM-NET
 10
-1.487597
 20
-36.598373
 30
850.0
 70
    64
  0
VERTEX
  5
F2
  8
TEAM-NET
 10
-1.513459
 20
-73.592211
 30
850.0
 70
    64
  0
VERTEX
  5
F3
  8
TEAM-NET
 10
-1.539321
 20
-110.586048
 30
850.0
 70
    64
  0
VERTEX
  5
F4
  8
TEAM-NET
 10
-1.565182
 20
-147.579886
 30
850.0
 70
    64
  0
VERTEX
  5
F5
  8
TEAM-NET
 10
-1.591044
 20
-184.573723
 30
850.0
 70
    64
  0
VERTEX
  5
F6
  8
TEAM-NET
 10
-1.616906
 20
-221.56756
 30
850.0
 70
    64
  0
VERTEX
  5
F7
  8
TEAM-NET
 10
-1.642767
 20
-258.561398
 30
850.0
 70
    64
  0
VERTEX
  5
F8
  8
TEAM-NET
 10
-1.668629
 20
-295.555235
 30
850.0
 70
    64
  0
VERTEX
  5
F9
  8
TEAM-NET
 10
-1.69449
 20
-332.549073
 30
850.0
 70
    64
  0
VERTEX
  5
FA
  8
TEAM-NET
 10
-1.720352
 20
-369.54291
 30
850.0
 70
    64
  0
VERTEX
  5
FB
  8
TEAM-NET
 10
-1.746214
 20
-406.536747
 30
850.0
 70
    64
  0
VERTEX
  5
FC
  8
TEAM-NET
 10
-1.772075
 20
-443.530585
 30
850.0
 70
    64
  0
VERTEX
  5
FD
  8
TEAM-NET
 10
366.551108
 20
-80.525453
 30
850.0
 70
    64
  0
VERTEX
  5
FE
  8
TEAM-NET
 10
346.842547
 20
-63.58351
 30
850.0
 70
    64
  0
VERTEX
  5
FF
  8
TEAM-NET
 10
325.103473
 20
-49.340284
 30
850.0
 70
    64
  0
VERTEX
  5
100
  8
TEAM-NET
 10
301.700983
 20
-38.036291
 30
850.0
 70
    64
  0
VERTEX
  5
101
  8
TEAM-NET
 10
277.03026
 20
-29.862415
 30
850.0
 70
    64
  0
VERTEX
  5
102
  8
TEAM-NET
 10
251.507905
 20
-24.956683
 30
850.0
 70
    64
  0
VERTEX
  5
103
  8
TEAM-NET
 10
225.564899
 20
-23.401937
 30
850.0
 70
    64
  0
VERTEX
  5
104
  8
TEAM-NET
 10
199.639326
 20
-25.22443
 30
850.0
 70
    64
  0
VERTEX
  5
105
  8
TEAM-NET
 10
174.168976
 20
-30.393386
 30
850.0
 70
    64
  0
VERTEX
  5
106
  8
TEAM-NET
 10
149.583953
 20
-38.821521
 30
850.0
 70
    64
  0
VERTEX
  5
107
  8
TEAM-NET
 10
126.29941
 20
-50.366514
 30
850.0
 70
    64
  0
VERTEX
  5
108
  8
TEAM-NET
 10
104.708539
 20
-64.83341
 30
850.0
 70
    64
  0
VERTEX
  5
109
  8
TEAM-NET
 10
85.175932
 20
-81.977916
 30
850.0
 70
    64
  0
VERTEX
  5
10A
  8
TEAM-NET
 10
68.031426
 20
-101.510523
 30
850.0
 70
    64
  0
VERTEX
  5
10B
  8
TEAM-NET
 10
53.56453
 20
-123.101394
 30
850.0
 70
    64
  0
VERTEX
  5
10C
  8
TEAM-NET
 10
42.019537
 20
-146.385938
 30
850.0
 70
    64
  0
VERTEX
  5
10D
  8
TEAM-NET
 10
33.591402
 20
-170.97096
 30
850.0
 70
    64
  0
VERTEX
  5
10E
  8
TEAM-NET
 10
28.422446
 20
-196.44131
 30
850.0
 70
    64
  0
VERTEX
  5
10F
  8
TEAM-NET
 10
26.599953
 20
-222.366883
 30
850.0
 70
    64
  0
VERTEX
  5
110
  8
TEAM-NET
 10
28.154699
 20
-248.309889
 30
850.0
 70
    64
  0
VERTEX
  5
111
  8
TEAM-NET
 10
33.060431
 20
-273.832244
 30
850.0
 70
    64
  0
VERTEX
  5
112
  8
TEAM-NET
 10
41.234307
 20
-298.502967
 30
850.0
 70
    64
  0
VERTEX
  5
113
  8
TEAM-NET
 10
52.5383
 20
-321.905457
 30
850.0
 70
    64
  0
VERTEX
  5
114
  8
TEAM-NET
 10
66.781526
 20
-343.644531
 30
850.0
 70
    64
  0
VERTEX
  5
115
  8
TEAM-NET
 10
83.723469
 20
-363.353092
 30
850.0
 70
    64
  0
SEQEND
  5
116
  8
TEAM-NET
  0
POLYLINE
  5
117
  8
TEAM-NET
 66
     1
 10
0.0
 20
0.0
 30
0.0
 70
    16
 71
     2
 72
    25
  0
VERTEX
  5
118
  8
TEAM-NET
 10
366.551108
 20
-80.525453
 30
850.0
 70
    64
  0
VERTEX
  5
119
  8
TEAM-NET
 10
384.108652
 20
-100.150863
 30
850.0
 70
    64
  0
VERTEX
  5
11A
  8
TEAM-NET
 10
398.935641
 20
-121.912859
 30
850.0
 70
    64
  0
VERTEX
  5
11B
  8
TEAM-NET
 10
410.775042
 20
-145.434183
 30
850.0
 70
    64
  0
VERTEX
  5
11C
  8
TEAM-NET
 10
419.42161
 20
-170.307078
 30
850.0
 70
    64
  0
VERTEX
  5
11D
  8
TEAM-NET
 10
424.725452
 20
-196.100359
 30
850.0
 70
    64
  0
VERTEX
  5
11E
  8
TEAM-NET
 10
426.594624
 20
-222.366883
 30
850.0
 70
    64
  0
VERTEX
  5
11F
  8
TEAM-NET
 10
424.996721
 20
-248.651304
 30
850.0
 70
    64
  0
VERTEX
  5
120
  8
TEAM-NET
 10
419.959445
 20
-274.497966
 30
850.0
 70
    64
  0
VERTEX
  5
121
  8
TEAM-NET
 10
411.570119
 20
-299.458801
 30
850.0
 70
    64
  0
VERTEX
  5
122
  8
TEAM-NET
 10
399.974178
 20
-323.101098
 30
850.0
 70
    64
  0
VERTEX
  5
123
  8
TEAM-NET
 10
385.372645
 20
-345.015004
 30
850.0
 70
    64
  0
VERTEX
  5
124
  8
TEAM-NET
 10
368.018645
 20
-364.820629
 30
850.0
 70
    64
  0
VERTEX
  5
125
  8
TEAM-NET
 10
348.21302
 20
-382.174629
 30
850.0
 70
    64
  0
VERTEX
  5
126
  8
TEAM-NET
 10
326.299114
 20
-396.776163
 30
850.0
 70
    64
  0
VERTEX
  5
127
  8
TEAM-NET
 10
302.656817
 20
-408.372103
 30
850.0
 70
    64
  0
VERTEX
  5
128
  8
TEAM-NET
 10
277.695981
 20
-416.761429
 30
850.0
 70
    64
  0
VERTEX
  5
129
  8
TEAM-NET
 10
251.84932
 20
-421.798705
 30
850.0
 70
    64
  0
VERTEX
  5
12A
  8
TEAM-NET
 10
225.564899
 20
-423.396608
 30
850.0
 70
    64
  0
VERTEX
  5
12B
  8
TEAM-NET
 10
199.298375
 20
-421.527436
 30
850.0
 70
    64
  0
VERTEX
  5
12C
  8
TEAM-NET
 10
173.505094
 20
-416.223594
 30
850.0
 70
    64
  0
VERTEX
  5
12D
  8
TEAM-NET
 10
148.632199
 20
-407.577026
 30
850.0
 70
    64
  0
VERTEX
  5
12E
  8
TEAM-NET
 10
125.110875
 20
-395.737625
 30
850.0
 70
    64
  0
VERTEX
  5
12F
  8
TEAM-NET
 10
103.348879
 20
-380.910636
 30
850.0
 70
    64
  0
VERTEX
  5
130
  8
TEAM-NET
 10
83.723469
 20
-363.353092
 30
850.0
 70
    64
  0
VERTEX
  5
131
  8
TEAM-NET
 10
443.538601
 20
1.77204
 30
850.0
 70
    64
  0
VERTEX
  5
132
  8
TEAM-NET
 10
448.52227
 20
-29.027273
 30
850.0
 70
    64
  0
VERTEX
  5
133
  8
TEAM-NET
 10
448.500968
 20
-62.680565
 30
850.0
 70
    64
  0
VERTEX
  5
134
  8
TEAM-NET
 10
448.479667
 20
-96.333858
 30
850.0
 70
    64
  0
VERTEX
  5
135
  8
TEAM-NET
 10
448.458365
 20
-129.98715
 30
850.0
 70
    64
  0
VERTEX
  5
136
  8
TEAM-NET
 10
448.437063
 20
-163.640442
 30
850.0
 70
    64
  0
VERTEX
  5
137
  8
TEAM-NET
 10
448.415761
 20
-197.293735
 30
850.0
 70
    64
  0
VERTEX
  5
138
  8
TEAM-NET
 10
448.270827
 20
-230.945572
 30
850.0
 70
    64
  0
VERTEX
  5
139
  8
TEAM-NET
 10
444.583555
 20
-264.363794
 30
850.0
 70
    64
  0
VERTEX
  5
13A
  8
TEAM-NET
 10
435.887636
 20
-296.840778
 30
850.0
 70
    64
  0
VERTEX
  5
13B
  8
TEAM-NET
 10
422.382876
 20
-327.630305
 30
850.0
 70
    64
  0
VERTEX
  5
13C
  8
TEAM-NET
 10
404.379571
 20
-356.024927
 30
850.0
 70
    64
  0
VERTEX
  5
13D
  8
TEAM-NET
 10
382.291383
 20
-381.372224
 30
850.0
 70
    64
  0
VERTEX
  5
13E
  8
TEAM-NET
 10
356.625828
 20
-403.089793
 30
850.0
 70
    64
  0
VERTEX
  5
13F
  8
TEAM-NET
 10
327.972622
 20
-420.678633
 30
850.0
 70
    64
  0
VERTEX
  5
140
  8
TEAM-NET
 10
296.990126
 20
-433.734607
 30
850.0
 70
    64
  0
VERTEX
  5
141
  8
TEAM-NET
 10
264.390221
 20
-441.957728
 30
850.0
 70
    64
  0
VERTEX
  5
142
  8
TEAM-NET
 10
230.921952
 20
-445.159056
 30
850.0
 70
    64
  0
VERTEX
  5
143
  8
TEAM-NET
 10
197.272184
 20
-445.638317
 30
850.0
 70
    64
  0
VERTEX
  5
144
  8
TEAM-NET
 10
163.622623
 20
-446.139871
 30
850.0
 70
    64
  0
VERTEX
  5
145
  8
TEAM-NET
 10
129.973061
 20
-446.641424
 30
850.0
 70
    64
  0
VERTEX
  5
146
  8
TEAM-NET
 10
96.3235
 20
-447.142977
 30
850.0
 70
    64
  0
VERTEX
  5
147
  8
TEAM-NET
 10
62.673938
 20
-447.64453
 30
850.0
 70
    64
  0
VERTEX
  5
148
  8
TEAM-NET
 10
29.024377
 20
-448.146084
 30
850.0
 70
    64
  0
VERTEX
  5
149
  8
TEAM-NET
 10
-1.772075
 20
-443.530585
 30
850.0
 70
    64
  0
SEQEND
  5
14A
  8
TEAM-NET
  0
ARC
  5
14B
  8
TEAM-DET1
 10
226.597288
 20
-223.399273
 30
850.0
 40
198.0
 50
92.491906
 51
177.508094
  0
POLYLINE
  5
14C
  8
TEAM-NET
 66
     1
 10
0.0
 20
0.0
 30
0.0
 70
    16
 71
     2
 72
    13
  0
VERTEX
  5
14D
  8
TEAM-NET
 10
221.81468
 20
-113.503291
 30
850.0
 70
    64
  0
VERTEX
  5
14E
  8
TEAM-NET
 10
208.297045
 20
-114.932222
 30
850.0
 70
    64
  0
VERTEX
  5
14F
  8
TEAM-NET
 10
195.058857
 20
-118.017456
 30
850.0
 70
    64
  0
VERTEX
  5
150
  8
TEAM-NET
 10
182.302264
 20
-122.711881
 30
850.0
 70
    64
  0
VERTEX
  5
151
  8
TEAM-NET
 10
170.222061
 20
-128.943814
 30
850.0
 70
    64
  0
VERTEX
  5
152
  8
TEAM-NET
 10
159.002714
 20
-136.618091
 30
850.0
 70
    64
  0
VERTEX
  5
153
  8
TEAM-NET
 10
148.815543
 20
-145.617527
 30
850.0
 70
    64
  0
VERTEX
  5
154
  8
TEAM-NET
 10
139.816107
 20
-155.804698
 30
850.0
 70
    64
  0
VERTEX
  5
155
  8
TEAM-NET
 10
132.14183
 20
-167.024045
 30
850.0
 70
    64
  0
VERTEX
  5
156
  8
TEAM-NET
 10
125.909897
 20
-179.104248
 30
850.0
 70
    64
  0
VERTEX
  5
157
  8
TEAM-NET
 10
121.215472
 20
-191.860841
 30
850.0
 70
    64
  0
VERTEX
  5
158
  8
TEAM-NET
 10
118.130238
 20
-205.099029
 30
850.0
 70
    64
  0
VERTEX
  5
159
  8
TEAM-NET
 10
116.701307
 20
-218.616664
 30
850.0
 70
    64
  0
VERTEX
  5
15A
  8
TEAM-NET
 10
217.988593
 20
-25.586507
 30
850.0
 70
    64
  0
VERTEX
  5
15B
  8
TEAM-NET
 10
193.65685
 20
-28.158581
 30
850.0
 70
    64
  0
VERTEX
  5
15C
  8
TEAM-NET
 10
169.828112
 20
-33.712002
 30
850.0
 70
    64
  0
VERTEX
  5
15D
  8
TEAM-NET
 10
146.866245
 20
-42.161968
 30
850.0
 70
    64
  0
VERTEX
  5
15E
  8
TEAM-NET
 10
125.121879
 20
-53.379446
 30
850.0
 70
    64
  0
VERTEX
  5
15F
  8
TEAM-NET
 10
104.927054
 20
-67.193146
 30
850.0
 70
    64
  0
VERTEX
  5
160
  8
TEAM-NET
 10
86.590146
 20
-83.39213
 30
850.0
 70
    64
  0
VERTEX
  5
161
  8
TEAM-NET
 10
70.391162
 20
-101.729038
 30
850.0
 70
    64
  0
VERTEX
  5
162
  8
TEAM-NET
 10
56.577462
 20
-121.923863
 30
850.0
 70
    64
  0
VERTEX
  5
163
  8
TEAM-NET
 10
45.359984
 20
-143.668229
 30
850.0
 70
    64
  0
VERTEX
  5
164
  8
TEAM-NET
 10
36.910018
 20
-166.630096
 30
850.0
 70
    64
  0
VERTEX
  5
165
  8
TEAM-NET
 10
31.356597
 20
-190.458834
 30
850.0
 70
    64
  0
VERTEX
  5
166
  8
TEAM-NET
 10
28.784523
 20
-214.790577
 30
850.0
 70
    64
  0
SEQEND
  5
167
  8
TEAM-NET
  0
ENDSEC
  0
EOF
