  0
SECTION
  2
HEADER
  9
$ACADVER
  1
AC1009
  9
$INSBASE
 10
0.0
 20
0.0
 30
0.0
  9
$EXTMIN
 10
-265.039267
 20
-530.021826
 30
-0.051267
  9
$EXTMAX
 10
265.010999
 20
10.014959
 30
900.055548
  9
$LIMMIN
 10
-265.039267
 20
-530.021826
  9
$LIMMAX
 10
265.010999
 20
10.014959
  9
$ORTHOMODE
 70
     1
  9
$REGENMODE
 70
     1
  9
$FILLMODE
 70
     1
  9
$QTEXTMODE
 70
     0
  9
$MIRRTEXT
 70
     0
  9
$DRAGMODE
 70
     2
  9
$LTSCALE
 40
50.0
  9
$OSMODE
 70
     0
  9
$ATTMODE
 70
     1
  9
$TEXTSIZE
 40
200.0
  9
$TRACEWID
 40
1.0
  9
$TEXTSTYLE
  7
STANDARD
  9
$CLAYER
  8
TEAM-MAS
  9
$CELTYPE
  6
BYLAYER
  9
$CECOLOR
 62
   256
  9
$DIMSCALE
 40
0.0
  9
$DIMASZ
 40
20.0
  9
$DIMEXO
 40
10.0
  9
$DIMDLI
 40
1.0
  9
$DIMRND
 40
0.0
  9
$DIMDLE
 40
0.0
  9
$DIMEXE
 40
1.0
  9
$DIMTP
 40
0.0
  9
$DIMTM
 40
0.0
  9
$DIMTXT
 40
35.0
  9
$DIMCEN
 40
1.0
  9
$DIMTSZ
 40
0.0
  9
$DIMTOL
 70
     0
  9
$DIMLIM
 70
     0
  9
$DIMTIH
 70
     0
  9
$DIMTOH
 70
     0
  9
$DIMSE1
 70
     0
  9
$DIMSE2
 70
     0
  9
$DIMTAD
 70
     0
  9
$DIMZIN
 70
     0
  9
$DIMBLK
  1

  9
$DIMASO
 70
     1
  9
$DIMSHO
 70
     0
  9
$DIMPOST
  1

  9
$DIMAPOST
  1

  9
$DIMALT
 70
     0
  9
$DIMALTD
 70
     2
  9
$DIMALTF
 40
25.4
  9
$DIMLFAC
 40
1.0
  9
$DIMTOFL
 70
     0
  9
$DIMTVP
 40
0.0
  9
$DIMTIX
 70
     0
  9
$DIMSOXD
 70
     0
  9
$DIMSAH
 70
     0
  9
$DIMBLK1
  1

  9
$DIMBLK2
  1

  9
$DIMSTYLE
  2
TEAM
  9
$DIMCLRD
 70
     9
  9
$DIMCLRE
 70
     9
  9
$DIMCLRT
 70
    11
  9
$DIMTFAC
 40
1.0
  9
$DIMGAP
 40
7.0
  9
$LUNITS
 70
     2
  9
$LUPREC
 70
     1
  9
$SKETCHINC
 40
1.0
  9
$FILLETRAD
 40
50.0
  9
$AUNITS
 70
     0
  9
$AUPREC
 70
     0
  9
$MENU
  1
ROPLANS
  9
$ELEVATION
 40
0.0
  9
$PELEVATION
 40
0.0
  9
$THICKNESS
 40
0.0
  9
$LIMCHECK
 70
     0
  9
$BLIPMODE
 70
     1
  9
$CHAMFERA
 40
0.0
  9
$CHAMFERB
 40
0.0
  9
$SKPOLY
 70
     0
  9
$TDCREATE
 40
2450392.957851
  9
$TDUPDATE
 40
2456365.738391
  9
$TDINDWG
 40
2.036506
  9
$TDUSRTIMER
 40
2.036506
  9
$USRTIMER
 70
     1
  9
$ANGBASE
 50
0.0
  9
$ANGDIR
 70
     0
  9
$PDMODE
 70
     0
  9
$PDSIZE
 40
0.0
  9
$PLINEWID
 40
0.0
  9
$COORDS
 70
     2
  9
$SPLFRAME
 70
     0
  9
$SPLINETYPE
 70
     6
  9
$SPLINESEGS
 70
     8
  9
$ATTDIA
 70
     0
  9
$ATTREQ
 70
     0
  9
$HANDLING
 70
     1
  9
$HANDSEED
  5
44F
  9
$SURFTAB1
 70
    24
  9
$SURFTAB2
 70
    24
  9
$SURFTYPE
 70
     6
  9
$SURFU
 70
     6
  9
$SURFV
 70
     6
  9
$UCSNAME
  2

  9
$UCSORG
 10
0.0
 20
0.0
 30
0.0
  9
$UCSXDIR
 10
1.0
 20
0.0
 30
0.0
  9
$UCSYDIR
 10
0.0
 20
1.0
 30
0.0
  9
$PUCSNAME
  2

  9
$PUCSORG
 10
0.0
 20
0.0
 30
0.0
  9
$PUCSXDIR
 10
1.0
 20
0.0
 30
0.0
  9
$PUCSYDIR
 10
0.0
 20
1.0
 30
0.0
  9
$USERI1
 70
     0
  9
$USERI2
 70
     0
  9
$USERI3
 70
     0
  9
$USERI4
 70
     0
  9
$USERI5
 70
     0
  9
$USERR1
 40
0.0
  9
$USERR2
 40
0.0
  9
$USERR3
 40
0.0
  9
$USERR4
 40
0.0
  9
$USERR5
 40
0.0
  9
$WORLDVIEW
 70
     1
  9
$SHADEDGE
 70
     0
  9
$SHADEDIF
 70
    70
  9
$TILEMODE
 70
     1
  9
$MAXACTVP
 70
    16
  9
$PLIMCHECK
 70
     0
  9
$PEXTMIN
 10
-0.805942
 20
0.005011
 30
0.0
  9
$PEXTMAX
 10
20.250094
 20
11.356329
 30
0.0
  9
$PLIMMIN
 10
0.0
 20
0.0
  9
$PLIMMAX
 10
12.0
 20
9.0
  9
$UNITMODE
 70
     0
  9
$VISRETAIN
 70
     0
  9
$PLINEGEN
 70
     0
  9
$PSLTSCALE
 70
     0
  0
ENDSEC
  0
SECTION
  2
TABLES
  0
TABLE
  2
VPORT
 70
     2
  0
VPORT
  2
*ACTIVE
 70
     0
 10
0.0
 20
0.0
 11
1.0
 21
1.0
 12
-0.014134
 22
-260.003433
 13
0.0
 23
0.0
 14
1.0
 24
1.0
 15
50.0
 25
50.0
 16
0.0
 26
0.0
 36
1.0
 17
0.0
 27
0.0
 37
0.0
 40
543.404998
 41
1.859521
 42
50.0
 43
0.0
 44
0.0
 50
0.0
 51
0.0
 71
     0
 72
   100
 73
     1
 74
     1
 75
     0
 76
     0
 77
     0
 78
     0
  0
ENDTAB
  0
TABLE
  2
LTYPE
 70
     2
  0
LTYPE
  2
CONTINUOUS
 70
     0
  3
Solid Line
 72
    65
 73
     0
 40
0.0
  0
LTYPE
  2
31
 70
     0
  3

 72
    65
 73
     4
 40
2.1
 49
1.5
 49
-0.3
 49
0.0
 49
-0.3
  0
ENDTAB
  0
TABLE
  2
LAYER
 70
    10
  0
LAYER
  2
0
 70
     0
 62
     7
  6
CONTINUOUS
  0
LAYER
  2
TEAM-BODY
 70
     0
 62
     2
  6
CONTINUOUS
  0
LAYER
  2
TEAM-AXE
 70
     0
 62
    10
  6
31
  0
LAYER
  2
TEAM-MAS
 70
     0
 62
     9
  6
CONTINUOUS
  0
LAYER
  2
TEAM-TXT
 70
     0
 62
    11
  6
CONTINUOUS
  0
LAYER
  2
TEAM-DET1
 70
     0
 62
     4
  6
CONTINUOUS
  0
LAYER
  2
TEAM-KAN
 70
     0
 62
     6
  6
CONTINUOUS
  0
LAYER
  2
TEAM-DET3
 70
     0
 62
    14
  6
CONTINUOUS
  0
LAYER
  2
TEAM-NET
 70
     0
 62
    15
  6
CONTINUOUS
  0
LAYER
  2
TEAM-INSP
 70
     0
 62
     5
  6
CONTINUOUS
  0
ENDTAB
  0
TABLE
  2
STYLE
 70
     2
  0
STYLE
  2
STANDARD
 70
     0
 40
0.0
 41
1.0
 50
0.0
 71
     0
 42
200.0
  3
txt
  4

  0
STYLE
  2
TEAM
 70
     0
 40
0.0
 41
0.8
 50
15.0
 71
     0
 42
7.0
  3
ROMANS.shx
  4

  0
ENDTAB
  0
TABLE
  2
VIEW
 70
     0
  0
ENDTAB
  0
TABLE
  2
UCS
 70
     0
  0
ENDTAB
  0
TABLE
  2
APPID
 70
     1
  0
APPID
  2
ACAD
 70
     0
  0
ENDTAB
  0
TABLE
  2
DIMSTYLE
 70
     1
  0
DIMSTYLE
  2
TEAM
 70
     0
  3

  4

  5

  6

  7

 40
0.0
 41
20.0
 42
10.0
 43
1.0
 44
1.0
 45
0.0
 46
0.0
 47
0.0
 48
0.0
140
35.0
141
1.0
142
0.0
143
25.4
144
1.0
145
0.0
146
1.0
147
7.0
 71
     0
 72
     0
 73
     0
 74
     0
 75
     0
 76
     0
 77
     0
 78
     0
170
     0
171
     2
172
     0
173
     0
174
     0
175
     0
176
     9
177
     9
178
    11
  0
ENDTAB
  0
ENDSEC
  0
SECTION
  2
BLOCKS
  0
BLOCK
  8
0
  2
$MODEL_SPACE
 70
     0
 10
0.0
 20
0.0
 30
0.0
  3
$MODEL_SPACE
  1

  0
ENDBLK
  5
448
  8
0
  0
BLOCK
 67
     1
  8
0
  2
$PAPER_SPACE
 70
     0
 10
0.0
 20
0.0
 30
0.0
  3
$PAPER_SPACE
  1

  0
ENDBLK
  5
446
 67
     1
  8
0
  0
ENDSEC
  0
SECTION
  2
ENTITIES
  0
POLYLINE
  5
20
  8
TEAM-NET
 66
     1
 10
0.0
 20
0.0
 30
0.0
 70
    16
 71
     2
 72
    25
  0
VERTEX
  5
21
  8
TEAM-NET
 10
0.0
 20
-530.0
 30
900.0
 70
    64
  0
VERTEX
  5
22
  8
TEAM-NET
 10
-34.589441
 20
-527.732888
 30
900.0
 70
    64
  0
VERTEX
  5
23
  8
TEAM-NET
 10
-68.587047
 20
-520.970344
 30
900.0
 70
    64
  0
VERTEX
  5
24
  8
TEAM-NET
 10
-101.41111
 20
-509.828076
 30
900.0
 70
    64
  0
VERTEX
  5
25
  8
TEAM-NET
 10
-132.5
 20
-494.496732
 30
900.0
 70
    64
  0
VERTEX
  5
26
  8
TEAM-NET
 10
-161.321779
 20
-475.238635
 30
900.0
 70
    64
  0
VERTEX
  5
27
  8
TEAM-NET
 10
-187.383297
 20
-452.383297
 30
900.0
 70
    64
  0
VERTEX
  5
28
  8
TEAM-NET
 10
-210.238635
 20
-426.321779
 30
900.0
 70
    64
  0
VERTEX
  5
29
  8
TEAM-NET
 10
-229.496732
 20
-397.5
 30
900.0
 70
    64
  0
VERTEX
  5
2A
  8
TEAM-NET
 10
-244.828076
 20
-366.41111
 30
900.0
 70
    64
  0
VERTEX
  5
2B
  8
TEAM-NET
 10
-255.970344
 20
-333.587047
 30
900.0
 70
    64
  0
VERTEX
  5
2C
  8
TEAM-NET
 10
-262.732888
 20
-299.589441
 30
900.0
 70
    64
  0
VERTEX
  5
2D
  8
TEAM-NET
 10
-265.0
 20
-265.0
 30
900.0
 70
    64
  0
VERTEX
  5
2E
  8
TEAM-NET
 10
-262.732888
 20
-230.410559
 30
900.0
 70
    64
  0
VERTEX
  5
2F
  8
TEAM-NET
 10
-255.970344
 20
-196.412953
 30
900.0
 70
    64
  0
VERTEX
  5
30
  8
TEAM-NET
 10
-244.828076
 20
-163.58889
 30
900.0
 70
    64
  0
VERTEX
  5
31
  8
TEAM-NET
 10
-229.496732
 20
-132.5
 30
900.0
 70
    64
  0
VERTEX
  5
32
  8
TEAM-NET
 10
-210.238635
 20
-103.678221
 30
900.0
 70
    64
  0
VERTEX
  5
33
  8
TEAM-NET
 10
-187.383297
 20
-77.616703
 30
900.0
 70
    64
  0
VERTEX
  5
34
  8
TEAM-NET
 10
-161.321779
 20
-54.761365
 30
900.0
 70
    64
  0
VERTEX
  5
35
  8
TEAM-NET
 10
-132.5
 20
-35.503268
 30
900.0
 70
    64
  0
VERTEX
  5
36
  8
TEAM-NET
 10
-101.41111
 20
-20.171924
 30
900.0
 70
    64
  0
VERTEX
  5
37
  8
TEAM-NET
 10
-68.587047
 20
-9.029656
 30
900.0
 70
    64
  0
VERTEX
  5
38
  8
TEAM-NET
 10
-34.589441
 20
-2.267112
 30
900.0
 70
    64
  0
VERTEX
  5
39
  8
TEAM-NET
 10
0.0
 20
0.0
 30
900.0
 70
    64
  0
VERTEX
  5
3A
  8
TEAM-NET
 10
0.0
 20
-440.0
 30
0.0
 70
    64
  0
VERTEX
  5
3B
  8
TEAM-NET
 10
-22.842084
 20
-438.502851
 30
0.0
 70
    64
  0
VERTEX
  5
3C
  8
TEAM-NET
 10
-45.293333
 20
-434.03702
 30
0.0
 70
    64
  0
VERTEX
  5
3D
  8
TEAM-NET
 10
-66.969601
 20
-426.678918
 30
0.0
 70
    64
  0
VERTEX
  5
3E
  8
TEAM-NET
 10
-87.5
 20
-416.554446
 30
0.0
 70
    64
  0
VERTEX
  5
3F
  8
TEAM-NET
 10
-106.53325
 20
-403.836835
 30
0.0
 70
    64
  0
VERTEX
  5
40
  8
TEAM-NET
 10
-123.743687
 20
-388.743687
 30
0.0
 70
    64
  0
VERTEX
  5
41
  8
TEAM-NET
 10
-138.836835
 20
-371.53325
 30
0.0
 70
    64
  0
VERTEX
  5
42
  8
TEAM-NET
 10
-151.554446
 20
-352.5
 30
0.0
 70
    64
  0
VERTEX
  5
43
  8
TEAM-NET
 10
-161.678918
 20
-331.969601
 30
0.0
 70
    64
  0
VERTEX
  5
44
  8
TEAM-NET
 10
-169.03702
 20
-310.293333
 30
0.0
 70
    64
  0
VERTEX
  5
45
  8
TEAM-NET
 10
-173.502851
 20
-287.842084
 30
0.0
 70
    64
  0
VERTEX
  5
46
  8
TEAM-NET
 10
-175.0
 20
-265.0
 30
0.0
 70
    64
  0
VERTEX
  5
47
  8
TEAM-NET
 10
-173.502851
 20
-242.157916
 30
0.0
 70
    64
  0
VERTEX
  5
48
  8
TEAM-NET
 10
-169.03702
 20
-219.706667
 30
0.0
 70
    64
  0
VERTEX
  5
49
  8
TEAM-NET
 10
-161.678918
 20
-198.030399
 30
0.0
 70
    64
  0
VERTEX
  5
4A
  8
TEAM-NET
 10
-151.554446
 20
-177.5
 30
0.0
 70
    64
  0
VERTEX
  5
4B
  8
TEAM-NET
 10
-138.836835
 20
-158.46675
 30
0.0
 70
    64
  0
VERTEX
  5
4C
  8
TEAM-NET
 10
-123.743687
 20
-141.256313
 30
0.0
 70
    64
  0
VERTEX
  5
4D
  8
TEAM-NET
 10
-106.53325
 20
-126.163165
 30
0.0
 70
    64
  0
VERTEX
  5
4E
  8
TEAM-NET
 10
-87.5
 20
-113.445554
 30
0.0
 70
    64
  0
VERTEX
  5
4F
  8
TEAM-NET
 10
-66.969601
 20
-103.321082
 30
0.0
 70
    64
  0
VERTEX
  5
50
  8
TEAM-NET
 10
-45.293333
 20
-95.96298
 30
0.0
 70
    64
  0
VERTEX
  5
51
  8
TEAM-NET
 10
-22.842084
 20
-91.497149
 30
0.0
 70
    64
  0
VERTEX
  5
52
  8
TEAM-NET
 10
0.0
 20
-90.0
 30
0.0
 70
    64
  0
SEQEND
  5
54
  8
TEAM-NET
  0
POLYLINE
  5
55
  8
TEAM-NET
 66
     1
 10
0.0
 20
0.0
 30
0.0
 70
    16
 71
     2
 72
    25
  0
VERTEX
  5
56
  8
TEAM-NET
 10
0.0
 20
-530.0
 30
900.0
 70
    64
  0
VERTEX
  5
57
  8
TEAM-NET
 10
34.589441
 20
-527.732888
 30
900.0
 70
    64
  0
VERTEX
  5
58
  8
TEAM-NET
 10
68.587047
 20
-520.970344
 30
900.0
 70
    64
  0
VERTEX
  5
59
  8
TEAM-NET
 10
101.41111
 20
-509.828076
 30
900.0
 70
    64
  0
VERTEX
  5
5A
  8
TEAM-NET
 10
132.5
 20
-494.496732
 30
900.0
 70
    64
  0
VERTEX
  5
5B
  8
TEAM-NET
 10
161.321779
 20
-475.238635
 30
900.0
 70
    64
  0
VERTEX
  5
5C
  8
TEAM-NET
 10
187.383297
 20
-452.383297
 30
900.0
 70
    64
  0
VERTEX
  5
5D
  8
TEAM-NET
 10
210.238635
 20
-426.321779
 30
900.0
 70
    64
  0
VERTEX
  5
5E
  8
TEAM-NET
 10
229.496732
 20
-397.5
 30
900.0
 70
    64
  0
VERTEX
  5
5F
  8
TEAM-NET
 10
244.828076
 20
-366.41111
 30
900.0
 70
    64
  0
VERTEX
  5
60
  8
TEAM-NET
 10
255.970344
 20
-333.587047
 30
900.0
 70
    64
  0
VERTEX
  5
61
  8
TEAM-NET
 10
262.732888
 20
-299.589441
 30
900.0
 70
    64
  0
VERTEX
  5
62
  8
TEAM-NET
 10
265.0
 20
-265.0
 30
900.0
 70
    64
  0
VERTEX
  5
63
  8
TEAM-NET
 10
262.732888
 20
-230.410559
 30
900.0
 70
    64
  0
VERTEX
  5
64
  8
TEAM-NET
 10
255.970344
 20
-196.412953
 30
900.0
 70
    64
  0
VERTEX
  5
65
  8
TEAM-NET
 10
244.828076
 20
-163.58889
 30
900.0
 70
    64
  0
VERTEX
  5
66
  8
TEAM-NET
 10
229.496732
 20
-132.5
 30
900.0
 70
    64
  0
VERTEX
  5
67
  8
TEAM-NET
 10
210.238635
 20
-103.678221
 30
900.0
 70
    64
  0
VERTEX
  5
68
  8
TEAM-NET
 10
187.383297
 20
-77.616703
 30
900.0
 70
    64
  0
VERTEX
  5
69
  8
TEAM-NET
 10
161.321779
 20
-54.761365
 30
900.0
 70
    64
  0
VERTEX
  5
6A
  8
TEAM-NET
 10
132.5
 20
-35.503268
 30
900.0
 70
    64
  0
VERTEX
  5
6B
  8
TEAM-NET
 10
101.41111
 20
-20.171924
 30
900.0
 70
    64
  0
VERTEX
  5
6C
  8
TEAM-NET
 10
68.587047
 20
-9.029656
 30
900.0
 70
    64
  0
VERTEX
  5
6D
  8
TEAM-NET
 10
34.589441
 20
-2.267112
 30
900.0
 70
    64
  0
VERTEX
  5
6E
  8
TEAM-NET
 10
0.0
 20
0.0
 30
900.0
 70
    64
  0
VERTEX
  5
6F
  8
TEAM-NET
 10
0.0
 20
-440.0
 30
0.0
 70
    64
  0
VERTEX
  5
70
  8
TEAM-NET
 10
22.842084
 20
-438.502851
 30
0.0
 70
    64
  0
VERTEX
  5
71
  8
TEAM-NET
 10
45.293333
 20
-434.03702
 30
0.0
 70
    64
  0
VERTEX
  5
72
  8
TEAM-NET
 10
66.969601
 20
-426.678918
 30
0.0
 70
    64
  0
VERTEX
  5
73
  8
TEAM-NET
 10
87.5
 20
-416.554446
 30
0.0
 70
    64
  0
VERTEX
  5
74
  8
TEAM-NET
 10
106.53325
 20
-403.836835
 30
0.0
 70
    64
  0
VERTEX
  5
75
  8
TEAM-NET
 10
123.743687
 20
-388.743687
 30
0.0
 70
    64
  0
VERTEX
  5
76
  8
TEAM-NET
 10
138.836835
 20
-371.53325
 30
0.0
 70
    64
  0
VERTEX
  5
77
  8
TEAM-NET
 10
151.554446
 20
-352.5
 30
0.0
 70
    64
  0
VERTEX
  5
78
  8
TEAM-NET
 10
161.678918
 20
-331.969601
 30
0.0
 70
    64
  0
VERTEX
  5
79
  8
TEAM-NET
 10
169.03702
 20
-310.293333
 30
0.0
 70
    64
  0
VERTEX
  5
7A
  8
TEAM-NET
 10
173.502851
 20
-287.842084
 30
0.0
 70
    64
  0
VERTEX
  5
7B
  8
TEAM-NET
 10
175.0
 20
-265.0
 30
0.0
 70
    64
  0
VERTEX
  5
7C
  8
TEAM-NET
 10
173.502851
 20
-242.157916
 30
0.0
 70
    64
  0
VERTEX
  5
7D
  8
TEAM-NET
 10
169.03702
 20
-219.706667
 30
0.0
 70
    64
  0
VERTEX
  5
7E
  8
TEAM-NET
 10
161.678918
 20
-198.030399
 30
0.0
 70
    64
  0
VERTEX
  5
7F
  8
TEAM-NET
 10
151.554446
 20
-177.5
 30
0.0
 70
    64
  0
VERTEX
  5
80
  8
TEAM-NET
 10
138.836835
 20
-158.46675
 30
0.0
 70
    64
  0
VERTEX
  5
81
  8
TEAM-NET
 10
123.743687
 20
-141.256313
 30
0.0
 70
    64
  0
VERTEX
  5
82
  8
TEAM-NET
 10
106.53325
 20
-126.163165
 30
0.0
 70
    64
  0
VERTEX
  5
83
  8
TEAM-NET
 10
87.5
 20
-113.445554
 30
0.0
 70
    64
  0
VERTEX
  5
84
  8
TEAM-NET
 10
66.969601
 20
-103.321082
 30
0.0
 70
    64
  0
VERTEX
  5
85
  8
TEAM-NET
 10
45.293333
 20
-95.96298
 30
0.0
 70
    64
  0
VERTEX
  5
86
  8
TEAM-NET
 10
22.842084
 20
-91.497149
 30
0.0
 70
    64
  0
VERTEX
  5
87
  8
TEAM-NET
 10
0.0
 20
-90.0
 30
0.0
 70
    64
  0
SEQEND
  5
88
  8
TEAM-NET
  0
CIRCLE
  5
89
  8
TEAM-INSP
 10
0.0
 20
0.0
 30
0.0
 40
10.0
  0
ARC
  5
8B
  8
TEAM-DET3
 10
0.0
 20
-265.0
 30
0.0
 40
175.0
 50
90.0
 51
270.0
  0
ARC
  5
8D
  8
TEAM-DET3
 10
0.0
 20
-265.0
 30
0.0
 40
175.0
 50
270.0
 51
90.0
  0
POLYLINE
  5
8E
  8
TEAM-NET
 66
     1
 10
0.0
 20
0.0
 30
0.0
 70
    16
 71
     2
 72
    25
  0
VERTEX
  5
8F
  8
TEAM-NET
 10
0.0
 20
-440.0
 30
0.0
 70
    64
  0
VERTEX
  5
90
  8
TEAM-NET
 10
22.842084
 20
-438.502851
 30
0.0
 70
    64
  0
VERTEX
  5
91
  8
TEAM-NET
 10
45.293333
 20
-434.03702
 30
0.0
 70
    64
  0
VERTEX
  5
92
  8
TEAM-NET
 10
66.969601
 20
-426.678918
 30
0.0
 70
    64
  0
VERTEX
  5
93
  8
TEAM-NET
 10
87.5
 20
-416.554446
 30
0.0
 70
    64
  0
VERTEX
  5
94
  8
TEAM-NET
 10
106.53325
 20
-403.836835
 30
0.0
 70
    64
  0
VERTEX
  5
95
  8
TEAM-NET
 10
123.743687
 20
-388.743687
 30
0.0
 70
    64
  0
VERTEX
  5
96
  8
TEAM-NET
 10
138.836835
 20
-371.53325
 30
0.0
 70
    64
  0
VERTEX
  5
97
  8
TEAM-NET
 10
151.554446
 20
-352.5
 30
0.0
 70
    64
  0
VERTEX
  5
98
  8
TEAM-NET
 10
161.678918
 20
-331.969601
 30
0.0
 70
    64
  0
VERTEX
  5
99
  8
TEAM-NET
 10
169.03702
 20
-310.293333
 30
0.0
 70
    64
  0
VERTEX
  5
9A
  8
TEAM-NET
 10
173.502851
 20
-287.842084
 30
0.0
 70
    64
  0
VERTEX
  5
9B
  8
TEAM-NET
 10
175.0
 20
-265.0
 30
0.0
 70
    64
  0
VERTEX
  5
9C
  8
TEAM-NET
 10
173.502851
 20
-242.157916
 30
0.0
 70
    64
  0
VERTEX
  5
9D
  8
TEAM-NET
 10
169.03702
 20
-219.706667
 30
0.0
 70
    64
  0
VERTEX
  5
9E
  8
TEAM-NET
 10
161.678918
 20
-198.030399
 30
0.0
 70
    64
  0
VERTEX
  5
9F
  8
TEAM-NET
 10
151.554446
 20
-177.5
 30
0.0
 70
    64
  0
VERTEX
  5
A0
  8
TEAM-NET
 10
138.836835
 20
-158.46675
 30
0.0
 70
    64
  0
VERTEX
  5
A1
  8
TEAM-NET
 10
123.743687
 20
-141.256313
 30
0.0
 70
    64
  0
VERTEX
  5
A2
  8
TEAM-NET
 10
106.53325
 20
-126.163165
 30
0.0
 70
    64
  0
VERTEX
  5
A3
  8
TEAM-NET
 10
87.5
 20
-113.445554
 30
0.0
 70
    64
  0
VERTEX
  5
A4
  8
TEAM-NET
 10
66.969601
 20
-103.321082
 30
0.0
 70
    64
  0
VERTEX
  5
A5
  8
TEAM-NET
 10
45.293333
 20
-95.96298
 30
0.0
 70
    64
  0
VERTEX
  5
A6
  8
TEAM-NET
 10
22.842084
 20
-91.497149
 30
0.0
 70
    64
  0
VERTEX
  5
A7
  8
TEAM-NET
 10
0.0
 20
-90.0
 30
0.0
 70
    64
  0
VERTEX
  5
A8
  8
TEAM-NET
 10
0.0
 20
-440.0
 30
0.0
 70
    64
  0
VERTEX
  5
A9
  8
TEAM-NET
 10
-22.842084
 20
-438.502851
 30
0.0
 70
    64
  0
VERTEX
  5
AA
  8
TEAM-NET
 10
-45.293333
 20
-434.03702
 30
0.0
 70
    64
  0
VERTEX
  5
AB
  8
TEAM-NET
 10
-66.969601
 20
-426.678918
 30
0.0
 70
    64
  0
VERTEX
  5
AC
  8
TEAM-NET
 10
-87.5
 20
-416.554446
 30
0.0
 70
    64
  0
VERTEX
  5
AD
  8
TEAM-NET
 10
-106.53325
 20
-403.836835
 30
0.0
 70
    64
  0
VERTEX
  5
AE
  8
TEAM-NET
 10
-123.743687
 20
-388.743687
 30
0.0
 70
    64
  0
VERTEX
  5
AF
  8
TEAM-NET
 10
-138.836835
 20
-371.53325
 30
0.0
 70
    64
  0
VERTEX
  5
B0
  8
TEAM-NET
 10
-151.554446
 20
-352.5
 30
0.0
 70
    64
  0
VERTEX
  5
B1
  8
TEAM-NET
 10
-161.678918
 20
-331.969601
 30
0.0
 70
    64
  0
VERTEX
  5
B2
  8
TEAM-NET
 10
-169.03702
 20
-310.293333
 30
0.0
 70
    64
  0
VERTEX
  5
B3
  8
TEAM-NET
 10
-173.502851
 20
-287.842084
 30
0.0
 70
    64
  0
VERTEX
  5
B4
  8
TEAM-NET
 10
-175.0
 20
-265.0
 30
0.0
 70
    64
  0
VERTEX
  5
B5
  8
TEAM-NET
 10
-173.502851
 20
-242.157916
 30
0.0
 70
    64
  0
VERTEX
  5
B6
  8
TEAM-NET
 10
-169.03702
 20
-219.706667
 30
0.0
 70
    64
  0
VERTEX
  5
B7
  8
TEAM-NET
 10
-161.678918
 20
-198.030399
 30
0.0
 70
    64
  0
VERTEX
  5
B8
  8
TEAM-NET
 10
-151.554446
 20
-177.5
 30
0.0
 70
    64
  0
VERTEX
  5
B9
  8
TEAM-NET
 10
-138.836835
 20
-158.46675
 30
0.0
 70
    64
  0
VERTEX
  5
BA
  8
TEAM-NET
 10
-123.743687
 20
-141.256313
 30
0.0
 70
    64
  0
VERTEX
  5
BB
  8
TEAM-NET
 10
-106.53325
 20
-126.163165
 30
0.0
 70
    64
  0
VERTEX
  5
BC
  8
TEAM-NET
 10
-87.5
 20
-113.445554
 30
0.0
 70
    64
  0
VERTEX
  5
BD
  8
TEAM-NET
 10
-66.969601
 20
-103.321082
 30
0.0
 70
    64
  0
VERTEX
  5
BE
  8
TEAM-NET
 10
-45.293333
 20
-95.96298
 30
0.0
 70
    64
  0
VERTEX
  5
BF
  8
TEAM-NET
 10
-22.842084
 20
-91.497149
 30
0.0
 70
    64
  0
VERTEX
  5
C0
  8
TEAM-NET
 10
0.0
 20
-90.0
 30
0.0
 70
    64
  0
SEQEND
  5
C1
  8
TEAM-NET
  0
POLYLINE
  5
C2
  8
TEAM-NET
 66
     1
 10
0.0
 20
0.0
 30
0.0
 70
    16
 71
    25
 72
    25
  0
VERTEX
  5
C3
  8
TEAM-NET
 10
0.0
 20
-484.93698
 30
900.0
 70
    64
  0
VERTEX
  5
C4
  8
TEAM-NET
 10
-22.842084
 20
-483.439831
 30
900.0
 70
    64
  0
VERTEX
  5
C5
  8
TEAM-NET
 10
-45.293333
 20
-478.974
 30
900.0
 70
    64
  0
VERTEX
  5
C6
  8
TEAM-NET
 10
-66.969601
 20
-471.615898
 30
900.0
 70
    64
  0
VERTEX
  5
C7
  8
TEAM-NET
 10
-87.5
 20
-461.491426
 30
900.0
 70
    64
  0
VERTEX
  5
C8
  8
TEAM-NET
 10
-106.53325
 20
-448.773815
 30
900.0
 70
    64
  0
VERTEX
  5
C9
  8
TEAM-NET
 10
-123.743687
 20
-433.680667
 30
900.0
 70
    64
  0
VERTEX
  5
CA
  8
TEAM-NET
 10
-138.836835
 20
-416.47023
 30
900.0
 70
    64
  0
VERTEX
  5
CB
  8
TEAM-NET
 10
-151.554446
 20
-397.43698
 30
900.0
 70
    64
  0
VERTEX
  5
CC
  8
TEAM-NET
 10
-161.678918
 20
-376.906581
 30
900.0
 70
    64
  0
VERTEX
  5
CD
  8
TEAM-NET
 10
-169.03702
 20
-355.230313
 30
900.0
 70
    64
  0
VERTEX
  5
CE
  8
TEAM-NET
 10
-173.502851
 20
-332.779064
 30
900.0
 70
    64
  0
VERTEX
  5
CF
  8
TEAM-NET
 10
-175.0
 20
-309.93698
 30
900.0
 70
    64
  0
VERTEX
  5
D0
  8
TEAM-NET
 10
-173.502851
 20
-287.094897
 30
900.0
 70
    64
  0
VERTEX
  5
D1
  8
TEAM-NET
 10
-169.03702
 20
-264.643647
 30
900.0
 70
    64
  0
VERTEX
  5
D2
  8
TEAM-NET
 10
-161.678918
 20
-242.96738
 30
900.0
 70
    64
  0
VERTEX
  5
D3
  8
TEAM-NET
 10
-151.554446
 20
-222.43698
 30
900.0
 70
    64
  0
VERTEX
  5
D4
  8
TEAM-NET
 10
-138.836835
 20
-203.40373
 30
900.0
 70
    64
  0
VERTEX
  5
D5
  8
TEAM-NET
 10
-123.743687
 20
-186.193294
 30
900.0
 70
    64
  0
VERTEX
  5
D6
  8
TEAM-NET
 10
-106.53325
 20
-171.100146
 30
900.0
 70
    64
  0
VERTEX
  5
D7
  8
TEAM-NET
 10
-87.5
 20
-158.382535
 30
900.0
 70
    64
  0
VERTEX
  5
D8
  8
TEAM-NET
 10
-66.969601
 20
-148.258062
 30
900.0
 70
    64
  0
VERTEX
  5
D9
  8
TEAM-NET
 10
-45.293333
 20
-140.899961
 30
900.0
 70
    64
  0
VERTEX
  5
DA
  8
TEAM-NET
 10
-22.842084
 20
-136.43413
 30
900.0
 70
    64
  0
VERTEX
  5
DB
  8
TEAM-NET
 10
0.0
 20
-134.93698
 30
900.0
 70
    64
  0
VERTEX
  5
DC
  8
TEAM-NET
 10
0.0
 20
-484.93698
 30
900.0
 70
    64
  0
VERTEX
  5
DD
  8
TEAM-NET
 10
-22.646666
 20
-483.439831
 30
897.01851
 70
    64
  0
VERTEX
  5
DE
  8
TEAM-NET
 10
-44.905842
 20
-478.974
 30
894.088034
 70
    64
  0
VERTEX
  5
DF
  8
TEAM-NET
 10
-66.396666
 20
-471.615898
 30
891.258713
 70
    64
  0
VERTEX
  5
E0
  8
TEAM-NET
 10
-86.751425
 20
-461.491426
 30
888.578958
 70
    64
  0
VERTEX
  5
E1
  8
TEAM-NET
 10
-105.621843
 20
-448.773815
 30
886.094621
 70
    64
  0
VERTEX
  5
E2
  8
TEAM-NET
 10
-122.685042
 20
-433.680667
 30
883.848208
 70
    64
  0
VERTEX
  5
E3
  8
TEAM-NET
 10
-137.649066
 20
-416.47023
 30
881.878157
 70
    64
  0
VERTEX
  5
E4
  8
TEAM-NET
 10
-150.257876
 20
-397.43698
 30
880.218175
 70
    64
  0
VERTEX
  5
E5
  8
TEAM-NET
 10
-160.295733
 20
-376.906581
 30
878.896666
 70
    64
  0
VERTEX
  5
E6
  8
TEAM-NET
 10
-167.590884
 20
-355.230313
 30
877.936241
 70
    64
  0
VERTEX
  5
E7
  8
TEAM-NET
 10
-172.01851
 20
-332.779064
 30
877.353334
 70
    64
  0
VERTEX
  5
E8
  8
TEAM-NET
 10
-173.502851
 20
-309.93698
 30
877.157916
 70
    64
  0
VERTEX
  5
E9
  8
TEAM-NET
 10
-172.01851
 20
-287.094897
 30
877.353334
 70
    64
  0
VERTEX
  5
EA
  8
TEAM-NET
 10
-167.590884
 20
-264.643647
 30
877.936241
 70
    64
  0
VERTEX
  5
EB
  8
TEAM-NET
 10
-160.295733
 20
-242.96738
 30
878.896666
 70
    64
  0
VERTEX
  5
EC
  8
TEAM-NET
 10
-150.257876
 20
-222.43698
 30
880.218175
 70
    64
  0
VERTEX
  5
ED
  8
TEAM-NET
 10
-137.649066
 20
-203.40373
 30
881.878157
 70
    64
  0
VERTEX
  5
EE
  8
TEAM-NET
 10
-122.685042
 20
-186.193294
 30
883.848208
 70
    64
  0
VERTEX
  5
EF
  8
TEAM-NET
 10
-105.621843
 20
-171.100146
 30
886.094621
 70
    64
  0
VERTEX
  5
F0
  8
TEAM-NET
 10
-86.751425
 20
-158.382535
 30
888.578958
 70
    64
  0
VERTEX
  5
F1
  8
TEAM-NET
 10
-66.396666
 20
-148.258062
 30
891.258713
 70
    64
  0
VERTEX
  5
F2
  8
TEAM-NET
 10
-44.905842
 20
-140.899961
 30
894.088034
 70
    64
  0
VERTEX
  5
F3
  8
TEAM-NET
 10
-22.646666
 20
-136.43413
 30
897.01851
 70
    64
  0
VERTEX
  5
F4
  8
TEAM-NET
 10
0.0
 20
-134.93698
 30
900.0
 70
    64
  0
VERTEX
  5
F5
  8
TEAM-NET
 10
0.0
 20
-484.93698
 30
900.0
 70
    64
  0
VERTEX
  5
F6
  8
TEAM-NET
 10
-22.063759
 20
-483.439831
 30
894.088034
 70
    64
  0
VERTEX
  5
F7
  8
TEAM-NET
 10
-43.75
 20
-478.974
 30
888.277223
 70
    64
  0
VERTEX
  5
F8
  8
TEAM-NET
 10
-64.687667
 20
-471.615898
 30
882.666992
 70
    64
  0
VERTEX
  5
F9
  8
TEAM-NET
 10
-84.51851
 20
-461.491426
 30
877.353334
 70
    64
  0
VERTEX
  5
FA
  8
TEAM-NET
 10
-102.903218
 20
-448.773815
 30
872.427166
 70
    64
  0
VERTEX
  5
FB
  8
TEAM-NET
 10
-119.527223
 20
-433.680667
 30
867.972777
 70
    64
  0
VERTEX
  5
FC
  8
TEAM-NET
 10
-134.106084
 20
-416.47023
 30
864.066383
 70
    64
  0
VERTEX
  5
FD
  8
TEAM-NET
 10
-146.390353
 20
-397.43698
 30
860.774823
 70
    64
  0
VERTEX
  5
FE
  8
TEAM-NET
 10
-156.169843
 20
-376.906581
 30
858.154417
 70
    64
  0
VERTEX
  5
FF
  8
TEAM-NET
 10
-163.277223
 20
-355.230313
 30
856.25
 70
    64
  0
VERTEX
  5
100
  8
TEAM-NET
 10
-167.590884
 20
-332.779064
 30
855.094158
 70
    64
  0
VERTEX
  5
101
  8
TEAM-NET
 10
-169.03702
 20
-309.93698
 30
854.706667
 70
    64
  0
VERTEX
  5
102
  8
TEAM-NET
 10
-167.590884
 20
-287.094897
 30
855.094158
 70
    64
  0
VERTEX
  5
103
  8
TEAM-NET
 10
-163.277223
 20
-264.643647
 30
856.25
 70
    64
  0
VERTEX
  5
104
  8
TEAM-NET
 10
-156.169843
 20
-242.96738
 30
858.154417
 70
    64
  0
VERTEX
  5
105
  8
TEAM-NET
 10
-146.390353
 20
-222.43698
 30
860.774823
 70
    64
  0
VERTEX
  5
106
  8
TEAM-NET
 10
-134.106084
 20
-203.40373
 30
864.066383
 70
    64
  0
VERTEX
  5
107
  8
TEAM-NET
 10
-119.527223
 20
-186.193294
 30
867.972777
 70
    64
  0
VERTEX
  5
108
  8
TEAM-NET
 10
-102.903218
 20
-171.100146
 30
872.427166
 70
    64
  0
VERTEX
  5
109
  8
TEAM-NET
 10
-84.51851
 20
-158.382535
 30
877.353334
 70
    64
  0
VERTEX
  5
10A
  8
TEAM-NET
 10
-64.687667
 20
-148.258062
 30
882.666992
 70
    64
  0
VERTEX
  5
10B
  8
TEAM-NET
 10
-43.75
 20
-140.899961
 30
888.277223
 70
    64
  0
VERTEX
  5
10C
  8
TEAM-NET
 10
-22.063759
 20
-136.43413
 30
894.088034
 70
    64
  0
VERTEX
  5
10D
  8
TEAM-NET
 10
0.0
 20
-134.93698
 30
900.0
 70
    64
  0
VERTEX
  5
10E
  8
TEAM-NET
 10
0.0
 20
-484.93698
 30
900.0
 70
    64
  0
VERTEX
  5
10F
  8
TEAM-NET
 10
-21.103334
 20
-483.439831
 30
891.258713
 70
    64
  0
VERTEX
  5
110
  8
TEAM-NET
 10
-41.845583
 20
-478.974
 30
882.666992
 70
    64
  0
VERTEX
  5
111
  8
TEAM-NET
 10
-61.871843
 20
-471.615898
 30
874.371843
 70
    64
  0
VERTEX
  5
112
  8
TEAM-NET
 10
-80.839459
 20
-461.491426
 30
866.5152
 70
    64
  0
VERTEX
  5
113
  8
TEAM-NET
 10
-98.423889
 20
-448.773815
 30
859.23149
 70
    64
  0
VERTEX
  5
114
  8
TEAM-NET
 10
-114.324259
 20
-433.680667
 30
852.645341
 70
    64
  0
VERTEX
  5
115
  8
TEAM-NET
 10
-128.26851
 20
-416.47023
 30
846.869444
 70
    64
  0
VERTEX
  5
116
  8
TEAM-NET
 10
-140.01805
 20
-397.43698
 30
842.002625
 70
    64
  0
VERTEX
  5
117
  8
TEAM-NET
 10
-149.371843
 20
-376.906581
 30
838.128157
 70
    64
  0
VERTEX
  5
118
  8
TEAM-NET
 10
-156.169843
 20
-355.230313
 30
835.312333
 70
    64
  0
VERTEX
  5
119
  8
TEAM-NET
 10
-160.295733
 20
-332.779064
 30
833.603334
 70
    64
  0
VERTEX
  5
11A
  8
TEAM-NET
 10
-161.678918
 20
-309.93698
 30
833.030399
 70
    64
  0
VERTEX
  5
11B
  8
TEAM-NET
 10
-160.295733
 20
-287.094897
 30
833.603334
 70
    64
  0
VERTEX
  5
11C
  8
TEAM-NET
 10
-156.169843
 20
-264.643647
 30
835.312333
 70
    64
  0
VERTEX
  5
11D
  8
TEAM-NET
 10
-149.371843
 20
-242.96738
 30
838.128157
 70
    64
  0
VERTEX
  5
11E
  8
TEAM-NET
 10
-140.01805
 20
-222.43698
 30
842.002625
 70
    64
  0
VERTEX
  5
11F
  8
TEAM-NET
 10
-128.26851
 20
-203.40373
 30
846.869444
 70
    64
  0
VERTEX
  5
120
  8
TEAM-NET
 10
-114.324259
 20
-186.193294
 30
852.645341
 70
    64
  0
VERTEX
  5
121
  8
TEAM-NET
 10
-98.423889
 20
-171.100146
 30
859.23149
 70
    64
  0
VERTEX
  5
122
  8
TEAM-NET
 10
-80.839459
 20
-158.382535
 30
866.5152
 70
    64
  0
VERTEX
  5
123
  8
TEAM-NET
 10
-61.871843
 20
-148.258062
 30
874.371843
 70
    64
  0
VERTEX
  5
124
  8
TEAM-NET
 10
-41.845583
 20
-140.899961
 30
882.666992
 70
    64
  0
VERTEX
  5
125
  8
TEAM-NET
 10
-21.103334
 20
-136.43413
 30
891.258713
 70
    64
  0
VERTEX
  5
126
  8
TEAM-NET
 10
0.0
 20
-134.93698
 30
900.0
 70
    64
  0
VERTEX
  5
127
  8
TEAM-NET
 10
0.0
 20
-484.93698
 30
900.0
 70
    64
  0
VERTEX
  5
128
  8
TEAM-NET
 10
-19.781825
 20
-483.439831
 30
888.578958
 70
    64
  0
VERTEX
  5
129
  8
TEAM-NET
 10
-39.225177
 20
-478.974
 30
877.353334
 70
    64
  0
VERTEX
  5
12A
  8
TEAM-NET
 10
-57.997375
 20
-471.615898
 30
866.5152
 70
    64
  0
VERTEX
  5
12B
  8
TEAM-NET
 10
-75.777223
 20
-461.491426
 30
856.25
 70
    64
  0
VERTEX
  5
12C
  8
TEAM-NET
 10
-92.260501
 20
-448.773815
 30
846.733375
 70
    64
  0
VERTEX
  5
12D
  8
TEAM-NET
 10
-107.165176
 20
-433.680667
 30
838.128157
 70
    64
  0
VERTEX
  5
12E
  8
TEAM-NET
 10
-120.236226
 20
-416.47023
 30
830.581583
 70
    64
  0
VERTEX
  5
12F
  8
TEAM-NET
 10
-131.25
 20
-397.43698
 30
824.222777
 70
    64
  0
VERTEX
  5
130
  8
TEAM-NET
 10
-140.01805
 20
-376.906581
 30
819.160541
 70
    64
  0
VERTEX
  5
131
  8
TEAM-NET
 10
-146.390353
 20
-355.230313
 30
815.48149
 70
    64
  0
VERTEX
  5
132
  8
TEAM-NET
 10
-150.257876
 20
-332.779064
 30
813.248575
 70
    64
  0
VERTEX
  5
133
  8
TEAM-NET
 10
-151.554446
 20
-309.93698
 30
812.5
 70
    64
  0
VERTEX
  5
134
  8
TEAM-NET
 10
-150.257876
 20
-287.094897
 30
813.248575
 70
    64
  0
VERTEX
  5
135
  8
TEAM-NET
 10
-146.390353
 20
-264.643647
 30
815.48149
 70
    64
  0
VERTEX
  5
136
  8
TEAM-NET
 10
-140.01805
 20
-242.96738
 30
819.160541
 70
    64
  0
VERTEX
  5
137
  8
TEAM-NET
 10
-131.25
 20
-222.43698
 30
824.222777
 70
    64
  0
VERTEX
  5
138
  8
TEAM-NET
 10
-120.236226
 20
-203.40373
 30
830.581583
 70
    64
  0
VERTEX
  5
139
  8
TEAM-NET
 10
-107.165176
 20
-186.193294
 30
838.128157
 70
    64
  0
VERTEX
  5
13A
  8
TEAM-NET
 10
-92.260501
 20
-171.100146
 30
846.733375
 70
    64
  0
VERTEX
  5
13B
  8
TEAM-NET
 10
-75.777223
 20
-158.382535
 30
856.25
 70
    64
  0
VERTEX
  5
13C
  8
TEAM-NET
 10
-57.997375
 20
-148.258062
 30
866.5152
 70
    64
  0
VERTEX
  5
13D
  8
TEAM-NET
 10
-39.225177
 20
-140.899961
 30
877.353334
 70
    64
  0
VERTEX
  5
13E
  8
TEAM-NET
 10
-19.781825
 20
-136.43413
 30
888.578958
 70
    64
  0
VERTEX
  5
13F
  8
TEAM-NET
 10
0.0
 20
-134.93698
 30
900.0
 70
    64
  0
VERTEX
  5
140
  8
TEAM-NET
 10
0.0
 20
-484.93698
 30
900.0
 70
    64
  0
VERTEX
  5
141
  8
TEAM-NET
 10
-18.121843
 20
-483.439831
 30
886.094621
 70
    64
  0
VERTEX
  5
142
  8
TEAM-NET
 10
-35.933617
 20
-478.974
 30
872.427166
 70
    64
  0
VERTEX
  5
143
  8
TEAM-NET
 10
-53.130556
 20
-471.615898
 30
859.23149
 70
    64
  0
VERTEX
  5
144
  8
TEAM-NET
 10
-69.418417
 20
-461.491426
 30
846.733375
 70
    64
  0
VERTEX
  5
145
  8
TEAM-NET
 10
-84.51851
 20
-448.773815
 30
835.146666
 70
    64
  0
VERTEX
  5
146
  8
TEAM-NET
 10
-98.172467
 20
-433.680667
 30
824.669616
 70
    64
  0
VERTEX
  5
147
  8
TEAM-NET
 10
-110.146666
 20
-416.47023
 30
815.48149
 70
    64
  0
VERTEX
  5
148
  8
TEAM-NET
 10
-120.236226
 20
-397.43698
 30
807.739499
 70
    64
  0
VERTEX
  5
149
  8
TEAM-NET
 10
-128.26851
 20
-376.906581
 30
801.576111
 70
    64
  0
VERTEX
  5
14A
  8
TEAM-NET
 10
-134.106084
 20
-355.230313
 30
797.096782
 70
    64
  0
VERTEX
  5
14B
  8
TEAM-NET
 10
-137.649066
 20
-332.779064
 30
794.378157
 70
    64
  0
VERTEX
  5
14C
  8
TEAM-NET
 10
-138.836835
 20
-309.93698
 30
793.46675
 70
    64
  0
VERTEX
  5
14D
  8
TEAM-NET
 10
-137.649066
 20
-287.094897
 30
794.378157
 70
    64
  0
VERTEX
  5
14E
  8
TEAM-NET
 10
-134.106084
 20
-264.643647
 30
797.096782
 70
    64
  0
VERTEX
  5
14F
  8
TEAM-NET
 10
-128.26851
 20
-242.96738
 30
801.576111
 70
    64
  0
VERTEX
  5
150
  8
TEAM-NET
 10
-120.236226
 20
-222.43698
 30
807.739499
 70
    64
  0
VERTEX
  5
151
  8
TEAM-NET
 10
-110.146666
 20
-203.40373
 30
815.48149
 70
    64
  0
VERTEX
  5
152
  8
TEAM-NET
 10
-98.172467
 20
-186.193294
 30
824.669616
 70
    64
  0
VERTEX
  5
153
  8
TEAM-NET
 10
-84.51851
 20
-171.100146
 30
835.146666
 70
    64
  0
VERTEX
  5
154
  8
TEAM-NET
 10
-69.418417
 20
-158.382535
 30
846.733375
 70
    64
  0
VERTEX
  5
155
  8
TEAM-NET
 10
-53.130556
 20
-148.258062
 30
859.23149
 70
    64
  0
VERTEX
  5
156
  8
TEAM-NET
 10
-35.933617
 20
-140.899961
 30
872.427166
 70
    64
  0
VERTEX
  5
157
  8
TEAM-NET
 10
-18.121843
 20
-136.43413
 30
886.094621
 70
    64
  0
VERTEX
  5
158
  8
TEAM-NET
 10
0.0
 20
-134.93698
 30
900.0
 70
    64
  0
VERTEX
  5
159
  8
TEAM-NET
 10
0.0
 20
-484.93698
 30
900.0
 70
    64
  0
VERTEX
  5
15A
  8
TEAM-NET
 10
-16.151792
 20
-483.439831
 30
883.848208
 70
    64
  0
VERTEX
  5
15B
  8
TEAM-NET
 10
-32.027223
 20
-478.974
 30
867.972777
 70
    64
  0
VERTEX
  5
15C
  8
TEAM-NET
 10
-47.354659
 20
-471.615898
 30
852.645341
 70
    64
  0
VERTEX
  5
15D
  8
TEAM-NET
 10
-61.871843
 20
-461.491426
 30
838.128157
 70
    64
  0
VERTEX
  5
15E
  8
TEAM-NET
 10
-75.330384
 20
-448.773815
 30
824.669616
 70
    64
  0
VERTEX
  5
15F
  8
TEAM-NET
 10
-87.5
 20
-433.680667
 30
812.5
 70
    64
  0
VERTEX
  5
160
  8
TEAM-NET
 10
-98.172467
 20
-416.47023
 30
801.827533
 70
    64
  0
VERTEX
  5
161
  8
TEAM-NET
 10
-107.165176
 20
-397.43698
 30
792.834824
 70
    64
  0
VERTEX
  5
162
  8
TEAM-NET
 10
-114.324259
 20
-376.906581
 30
785.675741
 70
    64
  0
VERTEX
  5
163
  8
TEAM-NET
 10
-119.527223
 20
-355.230313
 30
780.472777
 70
    64
  0
VERTEX
  5
164
  8
TEAM-NET
 10
-122.685042
 20
-332.779064
 30
777.314958
 70
    64
  0
VERTEX
  5
165
  8
TEAM-NET
 10
-123.743687
 20
-309.93698
 30
776.256313
 70
    64
  0
VERTEX
  5
166
  8
TEAM-NET
 10
-122.685042
 20
-287.094897
 30
777.314958
 70
    64
  0
VERTEX
  5
167
  8
TEAM-NET
 10
-119.527223
 20
-264.643647
 30
780.472777
 70
    64
  0
VERTEX
  5
168
  8
TEAM-NET
 10
-114.324259
 20
-242.96738
 30
785.675741
 70
    64
  0
VERTEX
  5
169
  8
TEAM-NET
 10
-107.165176
 20
-222.43698
 30
792.834824
 70
    64
  0
VERTEX
  5
16A
  8
TEAM-NET
 10
-98.172467
 20
-203.40373
 30
801.827533
 70
    64
  0
VERTEX
  5
16B
  8
TEAM-NET
 10
-87.5
 20
-186.193294
 30
812.5
 70
    64
  0
VERTEX
  5
16C
  8
TEAM-NET
 10
-75.330384
 20
-171.100146
 30
824.669616
 70
    64
  0
VERTEX
  5
16D
  8
TEAM-NET
 10
-61.871843
 20
-158.382535
 30
838.128157
 70
    64
  0
VERTEX
  5
16E
  8
TEAM-NET
 10
-47.354659
 20
-148.258062
 30
852.645341
 70
    64
  0
VERTEX
  5
16F
  8
TEAM-NET
 10
-32.027223
 20
-140.899961
 30
867.972777
 70
    64
  0
VERTEX
  5
170
  8
TEAM-NET
 10
-16.151792
 20
-136.43413
 30
883.848208
 70
    64
  0
VERTEX
  5
171
  8
TEAM-NET
 10
0.0
 20
-134.93698
 30
900.0
 70
    64
  0
VERTEX
  5
172
  8
TEAM-NET
 10
0.0
 20
-484.93698
 30
900.0
 70
    64
  0
VERTEX
  5
173
  8
TEAM-NET
 10
-13.905379
 20
-483.439831
 30
881.878157
 70
    64
  0
VERTEX
  5
174
  8
TEAM-NET
 10
-27.572834
 20
-478.974
 30
864.066383
 70
    64
  0
VERTEX
  5
175
  8
TEAM-NET
 10
-40.76851
 20
-471.615898
 30
846.869444
 70
    64
  0
VERTEX
  5
176
  8
TEAM-NET
 10
-53.266625
 20
-461.491426
 30
830.581583
 70
    64
  0
VERTEX
  5
177
  8
TEAM-NET
 10
-64.853334
 20
-448.773815
 30
815.48149
 70
    64
  0
VERTEX
  5
178
  8
TEAM-NET
 10
-75.330384
 20
-433.680667
 30
801.827533
 70
    64
  0
VERTEX
  5
179
  8
TEAM-NET
 10
-84.51851
 20
-416.47023
 30
789.853334
 70
    64
  0
VERTEX
  5
17A
  8
TEAM-NET
 10
-92.260501
 20
-397.43698
 30
779.763774
 70
    64
  0
VERTEX
  5
17B
  8
TEAM-NET
 10
-98.423889
 20
-376.906581
 30
771.73149
 70
    64
  0
VERTEX
  5
17C
  8
TEAM-NET
 10
-102.903218
 20
-355.230313
 30
765.893916
 70
    64
  0
VERTEX
  5
17D
  8
TEAM-NET
 10
-105.621843
 20
-332.779064
 30
762.350934
 70
    64
  0
VERTEX
  5
17E
  8
TEAM-NET
 10
-106.53325
 20
-309.93698
 30
761.163165
 70
    64
  0
VERTEX
  5
17F
  8
TEAM-NET
 10
-105.621843
 20
-287.094897
 30
762.350934
 70
    64
  0
VERTEX
  5
180
  8
TEAM-NET
 10
-102.903218
 20
-264.643647
 30
765.893916
 70
    64
  0
VERTEX
  5
181
  8
TEAM-NET
 10
-98.423889
 20
-242.96738
 30
771.73149
 70
    64
  0
VERTEX
  5
182
  8
TEAM-NET
 10
-92.260501
 20
-222.43698
 30
779.763774
 70
    64
  0
VERTEX
  5
183
  8
TEAM-NET
 10
-84.51851
 20
-203.40373
 30
789.853334
 70
    64
  0
VERTEX
  5
184
  8
TEAM-NET
 10
-75.330384
 20
-186.193294
 30
801.827533
 70
    64
  0
VERTEX
  5
185
  8
TEAM-NET
 10
-64.853334
 20
-171.100146
 30
815.48149
 70
    64
  0
VERTEX
  5
186
  8
TEAM-NET
 10
-53.266625
 20
-158.382535
 30
830.581583
 70
    64
  0
VERTEX
  5
187
  8
TEAM-NET
 10
-40.76851
 20
-148.258062
 30
846.869444
 70
    64
  0
VERTEX
  5
188
  8
TEAM-NET
 10
-27.572834
 20
-140.899961
 30
864.066383
 70
    64
  0
VERTEX
  5
189
  8
TEAM-NET
 10
-13.905379
 20
-136.43413
 30
881.878157
 70
    64
  0
VERTEX
  5
18A
  8
TEAM-NET
 10
0.0
 20
-134.93698
 30
900.0
 70
    64
  0
VERTEX
  5
18B
  8
TEAM-NET
 10
0.0
 20
-484.93698
 30
900.0
 70
    64
  0
VERTEX
  5
18C
  8
TEAM-NET
 10
-11.421042
 20
-483.439831
 30
880.218175
 70
    64
  0
VERTEX
  5
18D
  8
TEAM-NET
 10
-22.646666
 20
-478.974
 30
860.774823
 70
    64
  0
VERTEX
  5
18E
  8
TEAM-NET
 10
-33.4848
 20
-471.615898
 30
842.002625
 70
    64
  0
VERTEX
  5
18F
  8
TEAM-NET
 10
-43.75
 20
-461.491426
 30
824.222777
 70
    64
  0
VERTEX
  5
190
  8
TEAM-NET
 10
-53.266625
 20
-448.773815
 30
807.739499
 70
    64
  0
VERTEX
  5
191
  8
TEAM-NET
 10
-61.871843
 20
-433.680667
 30
792.834824
 70
    64
  0
VERTEX
  5
192
  8
TEAM-NET
 10
-69.418417
 20
-416.47023
 30
779.763774
 70
    64
  0
VERTEX
  5
193
  8
TEAM-NET
 10
-75.777223
 20
-397.43698
 30
768.75
 70
    64
  0
VERTEX
  5
194
  8
TEAM-NET
 10
-80.839459
 20
-376.906581
 30
759.98195
 70
    64
  0
VERTEX
  5
195
  8
TEAM-NET
 10
-84.51851
 20
-355.230313
 30
753.609647
 70
    64
  0
VERTEX
  5
196
  8
TEAM-NET
 10
-86.751425
 20
-332.779064
 30
749.742124
 70
    64
  0
VERTEX
  5
197
  8
TEAM-NET
 10
-87.5
 20
-309.93698
 30
748.445554
 70
    64
  0
VERTEX
  5
198
  8
TEAM-NET
 10
-86.751425
 20
-287.094897
 30
749.742124
 70
    64
  0
VERTEX
  5
199
  8
TEAM-NET
 10
-84.51851
 20
-264.643647
 30
753.609647
 70
    64
  0
VERTEX
  5
19A
  8
TEAM-NET
 10
-80.839459
 20
-242.96738
 30
759.98195
 70
    64
  0
VERTEX
  5
19B
  8
TEAM-NET
 10
-75.777223
 20
-222.43698
 30
768.75
 70
    64
  0
VERTEX
  5
19C
  8
TEAM-NET
 10
-69.418417
 20
-203.40373
 30
779.763774
 70
    64
  0
VERTEX
  5
19D
  8
TEAM-NET
 10
-61.871843
 20
-186.193294
 30
792.834824
 70
    64
  0
VERTEX
  5
19E
  8
TEAM-NET
 10
-53.266625
 20
-171.100146
 30
807.739499
 70
    64
  0
VERTEX
  5
19F
  8
TEAM-NET
 10
-43.75
 20
-158.382535
 30
824.222777
 70
    64
  0
VERTEX
  5
1A0
  8
TEAM-NET
 10
-33.4848
 20
-148.258062
 30
842.002625
 70
    64
  0
VERTEX
  5
1A1
  8
TEAM-NET
 10
-22.646666
 20
-140.899961
 30
860.774823
 70
    64
  0
VERTEX
  5
1A2
  8
TEAM-NET
 10
-11.421042
 20
-136.43413
 30
880.218175
 70
    64
  0
VERTEX
  5
1A3
  8
TEAM-NET
 10
0.0
 20
-134.93698
 30
900.0
 70
    64
  0
VERTEX
  5
1A4
  8
TEAM-NET
 10
0.0
 20
-484.93698
 30
900.0
 70
    64
  0
VERTEX
  5
1A5
  8
TEAM-NET
 10
-8.741287
 20
-483.439831
 30
878.896666
 70
    64
  0
VERTEX
  5
1A6
  8
TEAM-NET
 10
-17.333008
 20
-478.974
 30
858.154417
 70
    64
  0
VERTEX
  5
1A7
  8
TEAM-NET
 10
-25.628157
 20
-471.615898
 30
838.128157
 70
    64
  0
VERTEX
  5
1A8
  8
TEAM-NET
 10
-33.4848
 20
-461.491426
 30
819.160541
 70
    64
  0
VERTEX
  5
1A9
  8
TEAM-NET
 10
-40.76851
 20
-448.773815
 30
801.576111
 70
    64
  0
VERTEX
  5
1AA
  8
TEAM-NET
 10
-47.354659
 20
-433.680667
 30
785.675741
 70
    64
  0
VERTEX
  5
1AB
  8
TEAM-NET
 10
-53.130556
 20
-416.47023
 30
771.73149
 70
    64
  0
VERTEX
  5
1AC
  8
TEAM-NET
 10
-57.997375
 20
-397.43698
 30
759.98195
 70
    64
  0
VERTEX
  5
1AD
  8
TEAM-NET
 10
-61.871843
 20
-376.906581
 30
750.628157
 70
    64
  0
VERTEX
  5
1AE
  8
TEAM-NET
 10
-64.687667
 20
-355.230313
 30
743.830157
 70
    64
  0
VERTEX
  5
1AF
  8
TEAM-NET
 10
-66.396666
 20
-332.779064
 30
739.704267
 70
    64
  0
VERTEX
  5
1B0
  8
TEAM-NET
 10
-66.969601
 20
-309.93698
 30
738.321082
 70
    64
  0
VERTEX
  5
1B1
  8
TEAM-NET
 10
-66.396666
 20
-287.094897
 30
739.704267
 70
    64
  0
VERTEX
  5
1B2
  8
TEAM-NET
 10
-64.687667
 20
-264.643647
 30
743.830157
 70
    64
  0
VERTEX
  5
1B3
  8
TEAM-NET
 10
-61.871843
 20
-242.96738
 30
750.628157
 70
    64
  0
VERTEX
  5
1B4
  8
TEAM-NET
 10
-57.997375
 20
-222.43698
 30
759.98195
 70
    64
  0
VERTEX
  5
1B5
  8
TEAM-NET
 10
-53.130556
 20
-203.40373
 30
771.73149
 70
    64
  0
VERTEX
  5
1B6
  8
TEAM-NET
 10
-47.354659
 20
-186.193294
 30
785.675741
 70
    64
  0
VERTEX
  5
1B7
  8
TEAM-NET
 10
-40.76851
 20
-171.100146
 30
801.576111
 70
    64
  0
VERTEX
  5
1B8
  8
TEAM-NET
 10
-33.4848
 20
-158.382535
 30
819.160541
 70
    64
  0
VERTEX
  5
1B9
  8
TEAM-NET
 10
-25.628157
 20
-148.258062
 30
838.128157
 70
    64
  0
VERTEX
  5
1BA
  8
TEAM-NET
 10
-17.333008
 20
-140.899961
 30
858.154417
 70
    64
  0
VERTEX
  5
1BB
  8
TEAM-NET
 10
-8.741287
 20
-136.43413
 30
878.896666
 70
    64
  0
VERTEX
  5
1BC
  8
TEAM-NET
 10
0.0
 20
-134.93698
 30
900.0
 70
    64
  0
VERTEX
  5
1BD
  8
TEAM-NET
 10
0.0
 20
-484.93698
 30
900.0
 70
    64
  0
VERTEX
  5
1BE
  8
TEAM-NET
 10
-5.911966
 20
-483.439831
 30
877.936241
 70
    64
  0
VERTEX
  5
1BF
  8
TEAM-NET
 10
-11.722777
 20
-478.974
 30
856.25
 70
    64
  0
VERTEX
  5
1C0
  8
TEAM-NET
 10
-17.333008
 20
-471.615898
 30
835.312333
 70
    64
  0
VERTEX
  5
1C1
  8
TEAM-NET
 10
-22.646666
 20
-461.491426
 30
815.48149
 70
    64
  0
VERTEX
  5
1C2
  8
TEAM-NET
 10
-27.572834
 20
-448.773815
 30
797.096782
 70
    64
  0
VERTEX
  5
1C3
  8
TEAM-NET
 10
-32.027223
 20
-433.680667
 30
780.472777
 70
    64
  0
VERTEX
  5
1C4
  8
TEAM-NET
 10
-35.933617
 20
-416.47023
 30
765.893916
 70
    64
  0
VERTEX
  5
1C5
  8
TEAM-NET
 10
-39.225177
 20
-397.43698
 30
753.609647
 70
    64
  0
VERTEX
  5
1C6
  8
TEAM-NET
 10
-41.845583
 20
-376.906581
 30
743.830157
 70
    64
  0
VERTEX
  5
1C7
  8
TEAM-NET
 10
-43.75
 20
-355.230313
 30
736.722777
 70
    64
  0
VERTEX
  5
1C8
  8
TEAM-NET
 10
-44.905842
 20
-332.779064
 30
732.409116
 70
    64
  0
VERTEX
  5
1C9
  8
TEAM-NET
 10
-45.293333
 20
-309.93698
 30
730.96298
 70
    64
  0
VERTEX
  5
1CA
  8
TEAM-NET
 10
-44.905842
 20
-287.094897
 30
732.409116
 70
    64
  0
VERTEX
  5
1CB
  8
TEAM-NET
 10
-43.75
 20
-264.643647
 30
736.722777
 70
    64
  0
VERTEX
  5
1CC
  8
TEAM-NET
 10
-41.845583
 20
-242.96738
 30
743.830157
 70
    64
  0
VERTEX
  5
1CD
  8
TEAM-NET
 10
-39.225177
 20
-222.43698
 30
753.609647
 70
    64
  0
VERTEX
  5
1CE
  8
TEAM-NET
 10
-35.933617
 20
-203.40373
 30
765.893916
 70
    64
  0
VERTEX
  5
1CF
  8
TEAM-NET
 10
-32.027223
 20
-186.193294
 30
780.472777
 70
    64
  0
VERTEX
  5
1D0
  8
TEAM-NET
 10
-27.572834
 20
-171.100146
 30
797.096782
 70
    64
  0
VERTEX
  5
1D1
  8
TEAM-NET
 10
-22.646666
 20
-158.382535
 30
815.48149
 70
    64
  0
VERTEX
  5
1D2
  8
TEAM-NET
 10
-17.333008
 20
-148.258062
 30
835.312333
 70
    64
  0
VERTEX
  5
1D3
  8
TEAM-NET
 10
-11.722777
 20
-140.899961
 30
856.25
 70
    64
  0
VERTEX
  5
1D4
  8
TEAM-NET
 10
-5.911966
 20
-136.43413
 30
877.936241
 70
    64
  0
VERTEX
  5
1D5
  8
TEAM-NET
 10
0.0
 20
-134.93698
 30
900.0
 70
    64
  0
VERTEX
  5
1D6
  8
TEAM-NET
 10
0.0
 20
-484.93698
 30
900.0
 70
    64
  0
VERTEX
  5
1D7
  8
TEAM-NET
 10
-2.98149
 20
-483.439831
 30
877.353334
 70
    64
  0
VERTEX
  5
1D8
  8
TEAM-NET
 10
-5.911966
 20
-478.974
 30
855.094158
 70
    64
  0
VERTEX
  5
1D9
  8
TEAM-NET
 10
-8.741287
 20
-471.615898
 30
833.603334
 70
    64
  0
VERTEX
  5
1DA
  8
TEAM-NET
 10
-11.421042
 20
-461.491426
 30
813.248575
 70
    64
  0
VERTEX
  5
1DB
  8
TEAM-NET
 10
-13.905379
 20
-448.773815
 30
794.378157
 70
    64
  0
VERTEX
  5
1DC
  8
TEAM-NET
 10
-16.151792
 20
-433.680667
 30
777.314958
 70
    64
  0
VERTEX
  5
1DD
  8
TEAM-NET
 10
-18.121843
 20
-416.47023
 30
762.350934
 70
    64
  0
VERTEX
  5
1DE
  8
TEAM-NET
 10
-19.781825
 20
-397.43698
 30
749.742124
 70
    64
  0
VERTEX
  5
1DF
  8
TEAM-NET
 10
-21.103334
 20
-376.906581
 30
739.704267
 70
    64
  0
VERTEX
  5
1E0
  8
TEAM-NET
 10
-22.063759
 20
-355.230313
 30
732.409116
 70
    64
  0
VERTEX
  5
1E1
  8
TEAM-NET
 10
-22.646666
 20
-332.779064
 30
727.98149
 70
    64
  0
VERTEX
  5
1E2
  8
TEAM-NET
 10
-22.842084
 20
-309.93698
 30
726.497149
 70
    64
  0
VERTEX
  5
1E3
  8
TEAM-NET
 10
-22.646666
 20
-287.094897
 30
727.98149
 70
    64
  0
VERTEX
  5
1E4
  8
TEAM-NET
 10
-22.063759
 20
-264.643647
 30
732.409116
 70
    64
  0
VERTEX
  5
1E5
  8
TEAM-NET
 10
-21.103334
 20
-242.96738
 30
739.704267
 70
    64
  0
VERTEX
  5
1E6
  8
TEAM-NET
 10
-19.781825
 20
-222.43698
 30
749.742124
 70
    64
  0
VERTEX
  5
1E7
  8
TEAM-NET
 10
-18.121843
 20
-203.40373
 30
762.350934
 70
    64
  0
VERTEX
  5
1E8
  8
TEAM-NET
 10
-16.151792
 20
-186.193294
 30
777.314958
 70
    64
  0
VERTEX
  5
1E9
  8
TEAM-NET
 10
-13.905379
 20
-171.100146
 30
794.378157
 70
    64
  0
VERTEX
  5
1EA
  8
TEAM-NET
 10
-11.421042
 20
-158.382535
 30
813.248575
 70
    64
  0
VERTEX
  5
1EB
  8
TEAM-NET
 10
-8.741287
 20
-148.258062
 30
833.603334
 70
    64
  0
VERTEX
  5
1EC
  8
TEAM-NET
 10
-5.911966
 20
-140.899961
 30
855.094158
 70
    64
  0
VERTEX
  5
1ED
  8
TEAM-NET
 10
-2.98149
 20
-136.43413
 30
877.353334
 70
    64
  0
VERTEX
  5
1EE
  8
TEAM-NET
 10
0.0
 20
-134.93698
 30
900.0
 70
    64
  0
VERTEX
  5
1EF
  8
TEAM-NET
 10
0.0
 20
-484.93698
 30
900.0
 70
    64
  0
VERTEX
  5
1F0
  8
TEAM-NET
 10
0.0
 20
-483.439831
 30
877.157916
 70
    64
  0
VERTEX
  5
1F1
  8
TEAM-NET
 10
0.0
 20
-478.974
 30
854.706667
 70
    64
  0
VERTEX
  5
1F2
  8
TEAM-NET
 10
0.0
 20
-471.615898
 30
833.030399
 70
    64
  0
VERTEX
  5
1F3
  8
TEAM-NET
 10
0.0
 20
-461.491426
 30
812.5
 70
    64
  0
VERTEX
  5
1F4
  8
TEAM-NET
 10
0.0
 20
-448.773815
 30
793.46675
 70
    64
  0
VERTEX
  5
1F5
  8
TEAM-NET
 10
0.0
 20
-433.680667
 30
776.256313
 70
    64
  0
VERTEX
  5
1F6
  8
TEAM-NET
 10
0.0
 20
-416.47023
 30
761.163165
 70
    64
  0
VERTEX
  5
1F7
  8
TEAM-NET
 10
0.0
 20
-397.43698
 30
748.445554
 70
    64
  0
VERTEX
  5
1F8
  8
TEAM-NET
 10
0.0
 20
-376.906581
 30
738.321082
 70
    64
  0
VERTEX
  5
1F9
  8
TEAM-NET
 10
0.0
 20
-355.230313
 30
730.96298
 70
    64
  0
VERTEX
  5
1FA
  8
TEAM-NET
 10
0.0
 20
-332.779064
 30
726.497149
 70
    64
  0
VERTEX
  5
1FB
  8
TEAM-NET
 10
0.0
 20
-309.93698
 30
725.0
 70
    64
  0
VERTEX
  5
1FC
  8
TEAM-NET
 10
0.0
 20
-287.094897
 30
726.497149
 70
    64
  0
VERTEX
  5
1FD
  8
TEAM-NET
 10
0.0
 20
-264.643647
 30
730.96298
 70
    64
  0
VERTEX
  5
1FE
  8
TEAM-NET
 10
0.0
 20
-242.96738
 30
738.321082
 70
    64
  0
VERTEX
  5
1FF
  8
TEAM-NET
 10
0.0
 20
-222.43698
 30
748.445554
 70
    64
  0
VERTEX
  5
200
  8
TEAM-NET
 10
0.0
 20
-203.40373
 30
761.163165
 70
    64
  0
VERTEX
  5
201
  8
TEAM-NET
 10
0.0
 20
-186.193294
 30
776.256313
 70
    64
  0
VERTEX
  5
202
  8
TEAM-NET
 10
0.0
 20
-171.100146
 30
793.46675
 70
    64
  0
VERTEX
  5
203
  8
TEAM-NET
 10
0.0
 20
-158.382535
 30
812.5
 70
    64
  0
VERTEX
  5
204
  8
TEAM-NET
 10
0.0
 20
-148.258062
 30
833.030399
 70
    64
  0
VERTEX
  5
205
  8
TEAM-NET
 10
0.0
 20
-140.899961
 30
854.706667
 70
    64
  0
VERTEX
  5
206
  8
TEAM-NET
 10
0.0
 20
-136.43413
 30
877.157916
 70
    64
  0
VERTEX
  5
207
  8
TEAM-NET
 10
0.0
 20
-134.93698
 30
900.0
 70
    64
  0
VERTEX
  5
208
  8
TEAM-NET
 10
0.0
 20
-484.93698
 30
900.0
 70
    64
  0
VERTEX
  5
209
  8
TEAM-NET
 10
2.98149
 20
-483.439831
 30
877.353334
 70
    64
  0
VERTEX
  5
20A
  8
TEAM-NET
 10
5.911966
 20
-478.974
 30
855.094158
 70
    64
  0
VERTEX
  5
20B
  8
TEAM-NET
 10
8.741287
 20
-471.615898
 30
833.603334
 70
    64
  0
VERTEX
  5
20C
  8
TEAM-NET
 10
11.421042
 20
-461.491426
 30
813.248575
 70
    64
  0
VERTEX
  5
20D
  8
TEAM-NET
 10
13.905379
 20
-448.773815
 30
794.378157
 70
    64
  0
VERTEX
  5
20E
  8
TEAM-NET
 10
16.151792
 20
-433.680667
 30
777.314958
 70
    64
  0
VERTEX
  5
20F
  8
TEAM-NET
 10
18.121843
 20
-416.47023
 30
762.350934
 70
    64
  0
VERTEX
  5
210
  8
TEAM-NET
 10
19.781825
 20
-397.43698
 30
749.742124
 70
    64
  0
VERTEX
  5
211
  8
TEAM-NET
 10
21.103334
 20
-376.906581
 30
739.704267
 70
    64
  0
VERTEX
  5
212
  8
TEAM-NET
 10
22.063759
 20
-355.230313
 30
732.409116
 70
    64
  0
VERTEX
  5
213
  8
TEAM-NET
 10
22.646666
 20
-332.779064
 30
727.98149
 70
    64
  0
VERTEX
  5
214
  8
TEAM-NET
 10
22.842084
 20
-309.93698
 30
726.497149
 70
    64
  0
VERTEX
  5
215
  8
TEAM-NET
 10
22.646666
 20
-287.094897
 30
727.98149
 70
    64
  0
VERTEX
  5
216
  8
TEAM-NET
 10
22.063759
 20
-264.643647
 30
732.409116
 70
    64
  0
VERTEX
  5
217
  8
TEAM-NET
 10
21.103334
 20
-242.96738
 30
739.704267
 70
    64
  0
VERTEX
  5
218
  8
TEAM-NET
 10
19.781825
 20
-222.43698
 30
749.742124
 70
    64
  0
VERTEX
  5
219
  8
TEAM-NET
 10
18.121843
 20
-203.40373
 30
762.350934
 70
    64
  0
VERTEX
  5
21A
  8
TEAM-NET
 10
16.151792
 20
-186.193294
 30
777.314958
 70
    64
  0
VERTEX
  5
21B
  8
TEAM-NET
 10
13.905379
 20
-171.100146
 30
794.378157
 70
    64
  0
VERTEX
  5
21C
  8
TEAM-NET
 10
11.421042
 20
-158.382535
 30
813.248575
 70
    64
  0
VERTEX
  5
21D
  8
TEAM-NET
 10
8.741287
 20
-148.258062
 30
833.603334
 70
    64
  0
VERTEX
  5
21E
  8
TEAM-NET
 10
5.911966
 20
-140.899961
 30
855.094158
 70
    64
  0
VERTEX
  5
21F
  8
TEAM-NET
 10
2.98149
 20
-136.43413
 30
877.353334
 70
    64
  0
VERTEX
  5
220
  8
TEAM-NET
 10
0.0
 20
-134.93698
 30
900.0
 70
    64
  0
VERTEX
  5
221
  8
TEAM-NET
 10
0.0
 20
-484.93698
 30
900.0
 70
    64
  0
VERTEX
  5
222
  8
TEAM-NET
 10
5.911966
 20
-483.439831
 30
877.936241
 70
    64
  0
VERTEX
  5
223
  8
TEAM-NET
 10
11.722777
 20
-478.974
 30
856.25
 70
    64
  0
VERTEX
  5
224
  8
TEAM-NET
 10
17.333008
 20
-471.615898
 30
835.312333
 70
    64
  0
VERTEX
  5
225
  8
TEAM-NET
 10
22.646666
 20
-461.491426
 30
815.48149
 70
    64
  0
VERTEX
  5
226
  8
TEAM-NET
 10
27.572834
 20
-448.773815
 30
797.096782
 70
    64
  0
VERTEX
  5
227
  8
TEAM-NET
 10
32.027223
 20
-433.680667
 30
780.472777
 70
    64
  0
VERTEX
  5
228
  8
TEAM-NET
 10
35.933617
 20
-416.47023
 30
765.893916
 70
    64
  0
VERTEX
  5
229
  8
TEAM-NET
 10
39.225177
 20
-397.43698
 30
753.609647
 70
    64
  0
VERTEX
  5
22A
  8
TEAM-NET
 10
41.845583
 20
-376.906581
 30
743.830157
 70
    64
  0
VERTEX
  5
22B
  8
TEAM-NET
 10
43.75
 20
-355.230313
 30
736.722777
 70
    64
  0
VERTEX
  5
22C
  8
TEAM-NET
 10
44.905842
 20
-332.779064
 30
732.409116
 70
    64
  0
VERTEX
  5
22D
  8
TEAM-NET
 10
45.293333
 20
-309.93698
 30
730.96298
 70
    64
  0
VERTEX
  5
22E
  8
TEAM-NET
 10
44.905842
 20
-287.094897
 30
732.409116
 70
    64
  0
VERTEX
  5
22F
  8
TEAM-NET
 10
43.75
 20
-264.643647
 30
736.722777
 70
    64
  0
VERTEX
  5
230
  8
TEAM-NET
 10
41.845583
 20
-242.96738
 30
743.830157
 70
    64
  0
VERTEX
  5
231
  8
TEAM-NET
 10
39.225177
 20
-222.43698
 30
753.609647
 70
    64
  0
VERTEX
  5
232
  8
TEAM-NET
 10
35.933617
 20
-203.40373
 30
765.893916
 70
    64
  0
VERTEX
  5
233
  8
TEAM-NET
 10
32.027223
 20
-186.193294
 30
780.472777
 70
    64
  0
VERTEX
  5
234
  8
TEAM-NET
 10
27.572834
 20
-171.100146
 30
797.096782
 70
    64
  0
VERTEX
  5
235
  8
TEAM-NET
 10
22.646666
 20
-158.382535
 30
815.48149
 70
    64
  0
VERTEX
  5
236
  8
TEAM-NET
 10
17.333008
 20
-148.258062
 30
835.312333
 70
    64
  0
VERTEX
  5
237
  8
TEAM-NET
 10
11.722777
 20
-140.899961
 30
856.25
 70
    64
  0
VERTEX
  5
238
  8
TEAM-NET
 10
5.911966
 20
-136.43413
 30
877.936241
 70
    64
  0
VERTEX
  5
239
  8
TEAM-NET
 10
0.0
 20
-134.93698
 30
900.0
 70
    64
  0
VERTEX
  5
23A
  8
TEAM-NET
 10
0.0
 20
-484.93698
 30
900.0
 70
    64
  0
VERTEX
  5
23B
  8
TEAM-NET
 10
8.741287
 20
-483.439831
 30
878.896666
 70
    64
  0
VERTEX
  5
23C
  8
TEAM-NET
 10
17.333008
 20
-478.974
 30
858.154417
 70
    64
  0
VERTEX
  5
23D
  8
TEAM-NET
 10
25.628157
 20
-471.615898
 30
838.128157
 70
    64
  0
VERTEX
  5
23E
  8
TEAM-NET
 10
33.4848
 20
-461.491426
 30
819.160541
 70
    64
  0
VERTEX
  5
23F
  8
TEAM-NET
 10
40.76851
 20
-448.773815
 30
801.576111
 70
    64
  0
VERTEX
  5
240
  8
TEAM-NET
 10
47.354659
 20
-433.680667
 30
785.675741
 70
    64
  0
VERTEX
  5
241
  8
TEAM-NET
 10
53.130556
 20
-416.47023
 30
771.73149
 70
    64
  0
VERTEX
  5
242
  8
TEAM-NET
 10
57.997375
 20
-397.43698
 30
759.98195
 70
    64
  0
VERTEX
  5
243
  8
TEAM-NET
 10
61.871843
 20
-376.906581
 30
750.628157
 70
    64
  0
VERTEX
  5
244
  8
TEAM-NET
 10
64.687667
 20
-355.230313
 30
743.830157
 70
    64
  0
VERTEX
  5
245
  8
TEAM-NET
 10
66.396666
 20
-332.779064
 30
739.704267
 70
    64
  0
VERTEX
  5
246
  8
TEAM-NET
 10
66.969601
 20
-309.93698
 30
738.321082
 70
    64
  0
VERTEX
  5
247
  8
TEAM-NET
 10
66.396666
 20
-287.094897
 30
739.704267
 70
    64
  0
VERTEX
  5
248
  8
TEAM-NET
 10
64.687667
 20
-264.643647
 30
743.830157
 70
    64
  0
VERTEX
  5
249
  8
TEAM-NET
 10
61.871843
 20
-242.96738
 30
750.628157
 70
    64
  0
VERTEX
  5
24A
  8
TEAM-NET
 10
57.997375
 20
-222.43698
 30
759.98195
 70
    64
  0
VERTEX
  5
24B
  8
TEAM-NET
 10
53.130556
 20
-203.40373
 30
771.73149
 70
    64
  0
VERTEX
  5
24C
  8
TEAM-NET
 10
47.354659
 20
-186.193294
 30
785.675741
 70
    64
  0
VERTEX
  5
24D
  8
TEAM-NET
 10
40.76851
 20
-171.100146
 30
801.576111
 70
    64
  0
VERTEX
  5
24E
  8
TEAM-NET
 10
33.4848
 20
-158.382535
 30
819.160541
 70
    64
  0
VERTEX
  5
24F
  8
TEAM-NET
 10
25.628157
 20
-148.258062
 30
838.128157
 70
    64
  0
VERTEX
  5
250
  8
TEAM-NET
 10
17.333008
 20
-140.899961
 30
858.154417
 70
    64
  0
VERTEX
  5
251
  8
TEAM-NET
 10
8.741287
 20
-136.43413
 30
878.896666
 70
    64
  0
VERTEX
  5
252
  8
TEAM-NET
 10
0.0
 20
-134.93698
 30
900.0
 70
    64
  0
VERTEX
  5
253
  8
TEAM-NET
 10
0.0
 20
-484.93698
 30
900.0
 70
    64
  0
VERTEX
  5
254
  8
TEAM-NET
 10
11.421042
 20
-483.439831
 30
880.218175
 70
    64
  0
VERTEX
  5
255
  8
TEAM-NET
 10
22.646666
 20
-478.974
 30
860.774823
 70
    64
  0
VERTEX
  5
256
  8
TEAM-NET
 10
33.4848
 20
-471.615898
 30
842.002625
 70
    64
  0
VERTEX
  5
257
  8
TEAM-NET
 10
43.75
 20
-461.491426
 30
824.222777
 70
    64
  0
VERTEX
  5
258
  8
TEAM-NET
 10
53.266625
 20
-448.773815
 30
807.739499
 70
    64
  0
VERTEX
  5
259
  8
TEAM-NET
 10
61.871843
 20
-433.680667
 30
792.834824
 70
    64
  0
VERTEX
  5
25A
  8
TEAM-NET
 10
69.418417
 20
-416.47023
 30
779.763774
 70
    64
  0
VERTEX
  5
25B
  8
TEAM-NET
 10
75.777223
 20
-397.43698
 30
768.75
 70
    64
  0
VERTEX
  5
25C
  8
TEAM-NET
 10
80.839459
 20
-376.906581
 30
759.98195
 70
    64
  0
VERTEX
  5
25D
  8
TEAM-NET
 10
84.51851
 20
-355.230313
 30
753.609647
 70
    64
  0
VERTEX
  5
25E
  8
TEAM-NET
 10
86.751425
 20
-332.779064
 30
749.742124
 70
    64
  0
VERTEX
  5
25F
  8
TEAM-NET
 10
87.5
 20
-309.93698
 30
748.445554
 70
    64
  0
VERTEX
  5
260
  8
TEAM-NET
 10
86.751425
 20
-287.094897
 30
749.742124
 70
    64
  0
VERTEX
  5
261
  8
TEAM-NET
 10
84.51851
 20
-264.643647
 30
753.609647
 70
    64
  0
VERTEX
  5
262
  8
TEAM-NET
 10
80.839459
 20
-242.96738
 30
759.98195
 70
    64
  0
VERTEX
  5
263
  8
TEAM-NET
 10
75.777223
 20
-222.43698
 30
768.75
 70
    64
  0
VERTEX
  5
264
  8
TEAM-NET
 10
69.418417
 20
-203.40373
 30
779.763774
 70
    64
  0
VERTEX
  5
265
  8
TEAM-NET
 10
61.871843
 20
-186.193294
 30
792.834824
 70
    64
  0
VERTEX
  5
266
  8
TEAM-NET
 10
53.266625
 20
-171.100146
 30
807.739499
 70
    64
  0
VERTEX
  5
267
  8
TEAM-NET
 10
43.75
 20
-158.382535
 30
824.222777
 70
    64
  0
VERTEX
  5
268
  8
TEAM-NET
 10
33.4848
 20
-148.258062
 30
842.002625
 70
    64
  0
VERTEX
  5
269
  8
TEAM-NET
 10
22.646666
 20
-140.899961
 30
860.774823
 70
    64
  0
VERTEX
  5
26A
  8
TEAM-NET
 10
11.421042
 20
-136.43413
 30
880.218175
 70
    64
  0
VERTEX
  5
26B
  8
TEAM-NET
 10
0.0
 20
-134.93698
 30
900.0
 70
    64
  0
VERTEX
  5
26C
  8
TEAM-NET
 10
0.0
 20
-484.93698
 30
900.0
 70
    64
  0
VERTEX
  5
26D
  8
TEAM-NET
 10
13.905379
 20
-483.439831
 30
881.878157
 70
    64
  0
VERTEX
  5
26E
  8
TEAM-NET
 10
27.572834
 20
-478.974
 30
864.066383
 70
    64
  0
VERTEX
  5
26F
  8
TEAM-NET
 10
40.76851
 20
-471.615898
 30
846.869444
 70
    64
  0
VERTEX
  5
270
  8
TEAM-NET
 10
53.266625
 20
-461.491426
 30
830.581583
 70
    64
  0
VERTEX
  5
271
  8
TEAM-NET
 10
64.853334
 20
-448.773815
 30
815.48149
 70
    64
  0
VERTEX
  5
272
  8
TEAM-NET
 10
75.330384
 20
-433.680667
 30
801.827533
 70
    64
  0
VERTEX
  5
273
  8
TEAM-NET
 10
84.51851
 20
-416.47023
 30
789.853334
 70
    64
  0
VERTEX
  5
274
  8
TEAM-NET
 10
92.260501
 20
-397.43698
 30
779.763774
 70
    64
  0
VERTEX
  5
275
  8
TEAM-NET
 10
98.423889
 20
-376.906581
 30
771.73149
 70
    64
  0
VERTEX
  5
276
  8
TEAM-NET
 10
102.903218
 20
-355.230313
 30
765.893916
 70
    64
  0
VERTEX
  5
277
  8
TEAM-NET
 10
105.621843
 20
-332.779064
 30
762.350934
 70
    64
  0
VERTEX
  5
278
  8
TEAM-NET
 10
106.53325
 20
-309.93698
 30
761.163165
 70
    64
  0
VERTEX
  5
279
  8
TEAM-NET
 10
105.621843
 20
-287.094897
 30
762.350934
 70
    64
  0
VERTEX
  5
27A
  8
TEAM-NET
 10
102.903218
 20
-264.643647
 30
765.893916
 70
    64
  0
VERTEX
  5
27B
  8
TEAM-NET
 10
98.423889
 20
-242.96738
 30
771.73149
 70
    64
  0
VERTEX
  5
27C
  8
TEAM-NET
 10
92.260501
 20
-222.43698
 30
779.763774
 70
    64
  0
VERTEX
  5
27D
  8
TEAM-NET
 10
84.51851
 20
-203.40373
 30
789.853334
 70
    64
  0
VERTEX
  5
27E
  8
TEAM-NET
 10
75.330384
 20
-186.193294
 30
801.827533
 70
    64
  0
VERTEX
  5
27F
  8
TEAM-NET
 10
64.853334
 20
-171.100146
 30
815.48149
 70
    64
  0
VERTEX
  5
280
  8
TEAM-NET
 10
53.266625
 20
-158.382535
 30
830.581583
 70
    64
  0
VERTEX
  5
281
  8
TEAM-NET
 10
40.76851
 20
-148.258062
 30
846.869444
 70
    64
  0
VERTEX
  5
282
  8
TEAM-NET
 10
27.572834
 20
-140.899961
 30
864.066383
 70
    64
  0
VERTEX
  5
283
  8
TEAM-NET
 10
13.905379
 20
-136.43413
 30
881.878157
 70
    64
  0
VERTEX
  5
284
  8
TEAM-NET
 10
0.0
 20
-134.93698
 30
900.0
 70
    64
  0
VERTEX
  5
285
  8
TEAM-NET
 10
0.0
 20
-484.93698
 30
900.0
 70
    64
  0
VERTEX
  5
286
  8
TEAM-NET
 10
16.151792
 20
-483.439831
 30
883.848208
 70
    64
  0
VERTEX
  5
287
  8
TEAM-NET
 10
32.027223
 20
-478.974
 30
867.972777
 70
    64
  0
VERTEX
  5
288
  8
TEAM-NET
 10
47.354659
 20
-471.615898
 30
852.645341
 70
    64
  0
VERTEX
  5
289
  8
TEAM-NET
 10
61.871843
 20
-461.491426
 30
838.128157
 70
    64
  0
VERTEX
  5
28A
  8
TEAM-NET
 10
75.330384
 20
-448.773815
 30
824.669616
 70
    64
  0
VERTEX
  5
28B
  8
TEAM-NET
 10
87.5
 20
-433.680667
 30
812.5
 70
    64
  0
VERTEX
  5
28C
  8
TEAM-NET
 10
98.172467
 20
-416.47023
 30
801.827533
 70
    64
  0
VERTEX
  5
28D
  8
TEAM-NET
 10
107.165176
 20
-397.43698
 30
792.834824
 70
    64
  0
VERTEX
  5
28E
  8
TEAM-NET
 10
114.324259
 20
-376.906581
 30
785.675741
 70
    64
  0
VERTEX
  5
28F
  8
TEAM-NET
 10
119.527223
 20
-355.230313
 30
780.472777
 70
    64
  0
VERTEX
  5
290
  8
TEAM-NET
 10
122.685042
 20
-332.779064
 30
777.314958
 70
    64
  0
VERTEX
  5
291
  8
TEAM-NET
 10
123.743687
 20
-309.93698
 30
776.256313
 70
    64
  0
VERTEX
  5
292
  8
TEAM-NET
 10
122.685042
 20
-287.094897
 30
777.314958
 70
    64
  0
VERTEX
  5
293
  8
TEAM-NET
 10
119.527223
 20
-264.643647
 30
780.472777
 70
    64
  0
VERTEX
  5
294
  8
TEAM-NET
 10
114.324259
 20
-242.96738
 30
785.675741
 70
    64
  0
VERTEX
  5
295
  8
TEAM-NET
 10
107.165176
 20
-222.43698
 30
792.834824
 70
    64
  0
VERTEX
  5
296
  8
TEAM-NET
 10
98.172467
 20
-203.40373
 30
801.827533
 70
    64
  0
VERTEX
  5
297
  8
TEAM-NET
 10
87.5
 20
-186.193294
 30
812.5
 70
    64
  0
VERTEX
  5
298
  8
TEAM-NET
 10
75.330384
 20
-171.100146
 30
824.669616
 70
    64
  0
VERTEX
  5
299
  8
TEAM-NET
 10
61.871843
 20
-158.382535
 30
838.128157
 70
    64
  0
VERTEX
  5
29A
  8
TEAM-NET
 10
47.354659
 20
-148.258062
 30
852.645341
 70
    64
  0
VERTEX
  5
29B
  8
TEAM-NET
 10
32.027223
 20
-140.899961
 30
867.972777
 70
    64
  0
VERTEX
  5
29C
  8
TEAM-NET
 10
16.151792
 20
-136.43413
 30
883.848208
 70
    64
  0
VERTEX
  5
29D
  8
TEAM-NET
 10
0.0
 20
-134.93698
 30
900.0
 70
    64
  0
VERTEX
  5
29E
  8
TEAM-NET
 10
0.0
 20
-484.93698
 30
900.0
 70
    64
  0
VERTEX
  5
29F
  8
TEAM-NET
 10
18.121843
 20
-483.439831
 30
886.094621
 70
    64
  0
VERTEX
  5
2A0
  8
TEAM-NET
 10
35.933617
 20
-478.974
 30
872.427166
 70
    64
  0
VERTEX
  5
2A1
  8
TEAM-NET
 10
53.130556
 20
-471.615898
 30
859.23149
 70
    64
  0
VERTEX
  5
2A2
  8
TEAM-NET
 10
69.418417
 20
-461.491426
 30
846.733375
 70
    64
  0
VERTEX
  5
2A3
  8
TEAM-NET
 10
84.51851
 20
-448.773815
 30
835.146666
 70
    64
  0
VERTEX
  5
2A4
  8
TEAM-NET
 10
98.172467
 20
-433.680667
 30
824.669616
 70
    64
  0
VERTEX
  5
2A5
  8
TEAM-NET
 10
110.146666
 20
-416.47023
 30
815.48149
 70
    64
  0
VERTEX
  5
2A6
  8
TEAM-NET
 10
120.236226
 20
-397.43698
 30
807.739499
 70
    64
  0
VERTEX
  5
2A7
  8
TEAM-NET
 10
128.26851
 20
-376.906581
 30
801.576111
 70
    64
  0
VERTEX
  5
2A8
  8
TEAM-NET
 10
134.106084
 20
-355.230313
 30
797.096782
 70
    64
  0
VERTEX
  5
2A9
  8
TEAM-NET
 10
137.649066
 20
-332.779064
 30
794.378157
 70
    64
  0
VERTEX
  5
2AA
  8
TEAM-NET
 10
138.836835
 20
-309.93698
 30
793.46675
 70
    64
  0
VERTEX
  5
2AB
  8
TEAM-NET
 10
137.649066
 20
-287.094897
 30
794.378157
 70
    64
  0
VERTEX
  5
2AC
  8
TEAM-NET
 10
134.106084
 20
-264.643647
 30
797.096782
 70
    64
  0
VERTEX
  5
2AD
  8
TEAM-NET
 10
128.26851
 20
-242.96738
 30
801.576111
 70
    64
  0
VERTEX
  5
2AE
  8
TEAM-NET
 10
120.236226
 20
-222.43698
 30
807.739499
 70
    64
  0
VERTEX
  5
2AF
  8
TEAM-NET
 10
110.146666
 20
-203.40373
 30
815.48149
 70
    64
  0
VERTEX
  5
2B0
  8
TEAM-NET
 10
98.172467
 20
-186.193294
 30
824.669616
 70
    64
  0
VERTEX
  5
2B1
  8
TEAM-NET
 10
84.51851
 20
-171.100146
 30
835.146666
 70
    64
  0
VERTEX
  5
2B2
  8
TEAM-NET
 10
69.418417
 20
-158.382535
 30
846.733375
 70
    64
  0
VERTEX
  5
2B3
  8
TEAM-NET
 10
53.130556
 20
-148.258062
 30
859.23149
 70
    64
  0
VERTEX
  5
2B4
  8
TEAM-NET
 10
35.933617
 20
-140.899961
 30
872.427166
 70
    64
  0
VERTEX
  5
2B5
  8
TEAM-NET
 10
18.121843
 20
-136.43413
 30
886.094621
 70
    64
  0
VERTEX
  5
2B6
  8
TEAM-NET
 10
0.0
 20
-134.93698
 30
900.0
 70
    64
  0
VERTEX
  5
2B7
  8
TEAM-NET
 10
0.0
 20
-484.93698
 30
900.0
 70
    64
  0
VERTEX
  5
2B8
  8
TEAM-NET
 10
19.781825
 20
-483.439831
 30
888.578958
 70
    64
  0
VERTEX
  5
2B9
  8
TEAM-NET
 10
39.225177
 20
-478.974
 30
877.353334
 70
    64
  0
VERTEX
  5
2BA
  8
TEAM-NET
 10
57.997375
 20
-471.615898
 30
866.5152
 70
    64
  0
VERTEX
  5
2BB
  8
TEAM-NET
 10
75.777223
 20
-461.491426
 30
856.25
 70
    64
  0
VERTEX
  5
2BC
  8
TEAM-NET
 10
92.260501
 20
-448.773815
 30
846.733375
 70
    64
  0
VERTEX
  5
2BD
  8
TEAM-NET
 10
107.165176
 20
-433.680667
 30
838.128157
 70
    64
  0
VERTEX
  5
2BE
  8
TEAM-NET
 10
120.236226
 20
-416.47023
 30
830.581583
 70
    64
  0
VERTEX
  5
2BF
  8
TEAM-NET
 10
131.25
 20
-397.43698
 30
824.222777
 70
    64
  0
VERTEX
  5
2C0
  8
TEAM-NET
 10
140.01805
 20
-376.906581
 30
819.160541
 70
    64
  0
VERTEX
  5
2C1
  8
TEAM-NET
 10
146.390353
 20
-355.230313
 30
815.48149
 70
    64
  0
VERTEX
  5
2C2
  8
TEAM-NET
 10
150.257876
 20
-332.779064
 30
813.248575
 70
    64
  0
VERTEX
  5
2C3
  8
TEAM-NET
 10
151.554446
 20
-309.93698
 30
812.5
 70
    64
  0
VERTEX
  5
2C4
  8
TEAM-NET
 10
150.257876
 20
-287.094897
 30
813.248575
 70
    64
  0
VERTEX
  5
2C5
  8
TEAM-NET
 10
146.390353
 20
-264.643647
 30
815.48149
 70
    64
  0
VERTEX
  5
2C6
  8
TEAM-NET
 10
140.01805
 20
-242.96738
 30
819.160541
 70
    64
  0
VERTEX
  5
2C7
  8
TEAM-NET
 10
131.25
 20
-222.43698
 30
824.222777
 70
    64
  0
VERTEX
  5
2C8
  8
TEAM-NET
 10
120.236226
 20
-203.40373
 30
830.581583
 70
    64
  0
VERTEX
  5
2C9
  8
TEAM-NET
 10
107.165176
 20
-186.193294
 30
838.128157
 70
    64
  0
VERTEX
  5
2CA
  8
TEAM-NET
 10
92.260501
 20
-171.100146
 30
846.733375
 70
    64
  0
VERTEX
  5
2CB
  8
TEAM-NET
 10
75.777223
 20
-158.382535
 30
856.25
 70
    64
  0
VERTEX
  5
2CC
  8
TEAM-NET
 10
57.997375
 20
-148.258062
 30
866.5152
 70
    64
  0
VERTEX
  5
2CD
  8
TEAM-NET
 10
39.225177
 20
-140.899961
 30
877.353334
 70
    64
  0
VERTEX
  5
2CE
  8
TEAM-NET
 10
19.781825
 20
-136.43413
 30
888.578958
 70
    64
  0
VERTEX
  5
2CF
  8
TEAM-NET
 10
0.0
 20
-134.93698
 30
900.0
 70
    64
  0
VERTEX
  5
2D0
  8
TEAM-NET
 10
0.0
 20
-484.93698
 30
900.0
 70
    64
  0
VERTEX
  5
2D1
  8
TEAM-NET
 10
21.103334
 20
-483.439831
 30
891.258713
 70
    64
  0
VERTEX
  5
2D2
  8
TEAM-NET
 10
41.845583
 20
-478.974
 30
882.666992
 70
    64
  0
VERTEX
  5
2D3
  8
TEAM-NET
 10
61.871843
 20
-471.615898
 30
874.371843
 70
    64
  0
VERTEX
  5
2D4
  8
TEAM-NET
 10
80.839459
 20
-461.491426
 30
866.5152
 70
    64
  0
VERTEX
  5
2D5
  8
TEAM-NET
 10
98.423889
 20
-448.773815
 30
859.23149
 70
    64
  0
VERTEX
  5
2D6
  8
TEAM-NET
 10
114.324259
 20
-433.680667
 30
852.645341
 70
    64
  0
VERTEX
  5
2D7
  8
TEAM-NET
 10
128.26851
 20
-416.47023
 30
846.869444
 70
    64
  0
VERTEX
  5
2D8
  8
TEAM-NET
 10
140.01805
 20
-397.43698
 30
842.002625
 70
    64
  0
VERTEX
  5
2D9
  8
TEAM-NET
 10
149.371843
 20
-376.906581
 30
838.128157
 70
    64
  0
VERTEX
  5
2DA
  8
TEAM-NET
 10
156.169843
 20
-355.230313
 30
835.312333
 70
    64
  0
VERTEX
  5
2DB
  8
TEAM-NET
 10
160.295733
 20
-332.779064
 30
833.603334
 70
    64
  0
VERTEX
  5
2DC
  8
TEAM-NET
 10
161.678918
 20
-309.93698
 30
833.030399
 70
    64
  0
VERTEX
  5
2DD
  8
TEAM-NET
 10
160.295733
 20
-287.094897
 30
833.603334
 70
    64
  0
VERTEX
  5
2DE
  8
TEAM-NET
 10
156.169843
 20
-264.643647
 30
835.312333
 70
    64
  0
VERTEX
  5
2DF
  8
TEAM-NET
 10
149.371843
 20
-242.96738
 30
838.128157
 70
    64
  0
VERTEX
  5
2E0
  8
TEAM-NET
 10
140.01805
 20
-222.43698
 30
842.002625
 70
    64
  0
VERTEX
  5
2E1
  8
TEAM-NET
 10
128.26851
 20
-203.40373
 30
846.869444
 70
    64
  0
VERTEX
  5
2E2
  8
TEAM-NET
 10
114.324259
 20
-186.193294
 30
852.645341
 70
    64
  0
VERTEX
  5
2E3
  8
TEAM-NET
 10
98.423889
 20
-171.100146
 30
859.23149
 70
    64
  0
VERTEX
  5
2E4
  8
TEAM-NET
 10
80.839459
 20
-158.382535
 30
866.5152
 70
    64
  0
VERTEX
  5
2E5
  8
TEAM-NET
 10
61.871843
 20
-148.258062
 30
874.371843
 70
    64
  0
VERTEX
  5
2E6
  8
TEAM-NET
 10
41.845583
 20
-140.899961
 30
882.666992
 70
    64
  0
VERTEX
  5
2E7
  8
TEAM-NET
 10
21.103334
 20
-136.43413
 30
891.258713
 70
    64
  0
VERTEX
  5
2E8
  8
TEAM-NET
 10
0.0
 20
-134.93698
 30
900.0
 70
    64
  0
VERTEX
  5
2E9
  8
TEAM-NET
 10
0.0
 20
-484.93698
 30
900.0
 70
    64
  0
VERTEX
  5
2EA
  8
TEAM-NET
 10
22.063759
 20
-483.439831
 30
894.088034
 70
    64
  0
VERTEX
  5
2EB
  8
TEAM-NET
 10
43.75
 20
-478.974
 30
888.277223
 70
    64
  0
VERTEX
  5
2EC
  8
TEAM-NET
 10
64.687667
 20
-471.615898
 30
882.666992
 70
    64
  0
VERTEX
  5
2ED
  8
TEAM-NET
 10
84.51851
 20
-461.491426
 30
877.353334
 70
    64
  0
VERTEX
  5
2EE
  8
TEAM-NET
 10
102.903218
 20
-448.773815
 30
872.427166
 70
    64
  0
VERTEX
  5
2EF
  8
TEAM-NET
 10
119.527223
 20
-433.680667
 30
867.972777
 70
    64
  0
VERTEX
  5
2F0
  8
TEAM-NET
 10
134.106084
 20
-416.47023
 30
864.066383
 70
    64
  0
VERTEX
  5
2F1
  8
TEAM-NET
 10
146.390353
 20
-397.43698
 30
860.774823
 70
    64
  0
VERTEX
  5
2F2
  8
TEAM-NET
 10
156.169843
 20
-376.906581
 30
858.154417
 70
    64
  0
VERTEX
  5
2F3
  8
TEAM-NET
 10
163.277223
 20
-355.230313
 30
856.25
 70
    64
  0
VERTEX
  5
2F4
  8
TEAM-NET
 10
167.590884
 20
-332.779064
 30
855.094158
 70
    64
  0
VERTEX
  5
2F5
  8
TEAM-NET
 10
169.03702
 20
-309.93698
 30
854.706667
 70
    64
  0
VERTEX
  5
2F6
  8
TEAM-NET
 10
167.590884
 20
-287.094897
 30
855.094158
 70
    64
  0
VERTEX
  5
2F7
  8
TEAM-NET
 10
163.277223
 20
-264.643647
 30
856.25
 70
    64
  0
VERTEX
  5
2F8
  8
TEAM-NET
 10
156.169843
 20
-242.96738
 30
858.154417
 70
    64
  0
VERTEX
  5
2F9
  8
TEAM-NET
 10
146.390353
 20
-222.43698
 30
860.774823
 70
    64
  0
VERTEX
  5
2FA
  8
TEAM-NET
 10
134.106084
 20
-203.40373
 30
864.066383
 70
    64
  0
VERTEX
  5
2FB
  8
TEAM-NET
 10
119.527223
 20
-186.193294
 30
867.972777
 70
    64
  0
VERTEX
  5
2FC
  8
TEAM-NET
 10
102.903218
 20
-171.100146
 30
872.427166
 70
    64
  0
VERTEX
  5
2FD
  8
TEAM-NET
 10
84.51851
 20
-158.382535
 30
877.353334
 70
    64
  0
VERTEX
  5
2FE
  8
TEAM-NET
 10
64.687667
 20
-148.258062
 30
882.666992
 70
    64
  0
VERTEX
  5
2FF
  8
TEAM-NET
 10
43.75
 20
-140.899961
 30
888.277223
 70
    64
  0
VERTEX
  5
300
  8
TEAM-NET
 10
22.063759
 20
-136.43413
 30
894.088034
 70
    64
  0
VERTEX
  5
301
  8
TEAM-NET
 10
0.0
 20
-134.93698
 30
900.0
 70
    64
  0
VERTEX
  5
302
  8
TEAM-NET
 10
0.0
 20
-484.93698
 30
900.0
 70
    64
  0
VERTEX
  5
303
  8
TEAM-NET
 10
22.646666
 20
-483.439831
 30
897.01851
 70
    64
  0
VERTEX
  5
304
  8
TEAM-NET
 10
44.905842
 20
-478.974
 30
894.088034
 70
    64
  0
VERTEX
  5
305
  8
TEAM-NET
 10
66.396666
 20
-471.615898
 30
891.258713
 70
    64
  0
VERTEX
  5
306
  8
TEAM-NET
 10
86.751425
 20
-461.491426
 30
888.578958
 70
    64
  0
VERTEX
  5
307
  8
TEAM-NET
 10
105.621843
 20
-448.773815
 30
886.094621
 70
    64
  0
VERTEX
  5
308
  8
TEAM-NET
 10
122.685042
 20
-433.680667
 30
883.848208
 70
    64
  0
VERTEX
  5
309
  8
TEAM-NET
 10
137.649066
 20
-416.47023
 30
881.878157
 70
    64
  0
VERTEX
  5
30A
  8
TEAM-NET
 10
150.257876
 20
-397.43698
 30
880.218175
 70
    64
  0
VERTEX
  5
30B
  8
TEAM-NET
 10
160.295733
 20
-376.906581
 30
878.896666
 70
    64
  0
VERTEX
  5
30C
  8
TEAM-NET
 10
167.590884
 20
-355.230313
 30
877.936241
 70
    64
  0
VERTEX
  5
30D
  8
TEAM-NET
 10
172.01851
 20
-332.779064
 30
877.353334
 70
    64
  0
VERTEX
  5
30E
  8
TEAM-NET
 10
173.502851
 20
-309.93698
 30
877.157916
 70
    64
  0
VERTEX
  5
30F
  8
TEAM-NET
 10
172.01851
 20
-287.094897
 30
877.353334
 70
    64
  0
VERTEX
  5
310
  8
TEAM-NET
 10
167.590884
 20
-264.643647
 30
877.936241
 70
    64
  0
VERTEX
  5
311
  8
TEAM-NET
 10
160.295733
 20
-242.96738
 30
878.896666
 70
    64
  0
VERTEX
  5
312
  8
TEAM-NET
 10
150.257876
 20
-222.43698
 30
880.218175
 70
    64
  0
VERTEX
  5
313
  8
TEAM-NET
 10
137.649066
 20
-203.40373
 30
881.878157
 70
    64
  0
VERTEX
  5
314
  8
TEAM-NET
 10
122.685042
 20
-186.193294
 30
883.848208
 70
    64
  0
VERTEX
  5
315
  8
TEAM-NET
 10
105.621843
 20
-171.100146
 30
886.094621
 70
    64
  0
VERTEX
  5
316
  8
TEAM-NET
 10
86.751425
 20
-158.382535
 30
888.578958
 70
    64
  0
VERTEX
  5
317
  8
TEAM-NET
 10
66.396666
 20
-148.258062
 30
891.258713
 70
    64
  0
VERTEX
  5
318
  8
TEAM-NET
 10
44.905842
 20
-140.899961
 30
894.088034
 70
    64
  0
VERTEX
  5
319
  8
TEAM-NET
 10
22.646666
 20
-136.43413
 30
897.01851
 70
    64
  0
VERTEX
  5
31A
  8
TEAM-NET
 10
0.0
 20
-134.93698
 30
900.0
 70
    64
  0
VERTEX
  5
31B
  8
TEAM-NET
 10
0.0
 20
-484.93698
 30
900.0
 70
    64
  0
VERTEX
  5
31C
  8
TEAM-NET
 10
22.842084
 20
-483.439831
 30
900.0
 70
    64
  0
VERTEX
  5
31D
  8
TEAM-NET
 10
45.293333
 20
-478.974
 30
900.0
 70
    64
  0
VERTEX
  5
31E
  8
TEAM-NET
 10
66.969601
 20
-471.615898
 30
900.0
 70
    64
  0
VERTEX
  5
31F
  8
TEAM-NET
 10
87.5
 20
-461.491426
 30
900.0
 70
    64
  0
VERTEX
  5
320
  8
TEAM-NET
 10
106.53325
 20
-448.773815
 30
900.0
 70
    64
  0
VERTEX
  5
321
  8
TEAM-NET
 10
123.743687
 20
-433.680667
 30
900.0
 70
    64
  0
VERTEX
  5
322
  8
TEAM-NET
 10
138.836835
 20
-416.47023
 30
900.0
 70
    64
  0
VERTEX
  5
323
  8
TEAM-NET
 10
151.554446
 20
-397.43698
 30
900.0
 70
    64
  0
VERTEX
  5
324
  8
TEAM-NET
 10
161.678918
 20
-376.906581
 30
900.0
 70
    64
  0
VERTEX
  5
325
  8
TEAM-NET
 10
169.03702
 20
-355.230313
 30
900.0
 70
    64
  0
VERTEX
  5
326
  8
TEAM-NET
 10
173.502851
 20
-332.779064
 30
900.0
 70
    64
  0
VERTEX
  5
327
  8
TEAM-NET
 10
175.0
 20
-309.93698
 30
900.0
 70
    64
  0
VERTEX
  5
328
  8
TEAM-NET
 10
173.502851
 20
-287.094897
 30
900.0
 70
    64
  0
VERTEX
  5
329
  8
TEAM-NET
 10
169.03702
 20
-264.643647
 30
900.0
 70
    64
  0
VERTEX
  5
32A
  8
TEAM-NET
 10
161.678918
 20
-242.96738
 30
900.0
 70
    64
  0
VERTEX
  5
32B
  8
TEAM-NET
 10
151.554446
 20
-222.43698
 30
900.0
 70
    64
  0
VERTEX
  5
32C
  8
TEAM-NET
 10
138.836835
 20
-203.40373
 30
900.0
 70
    64
  0
VERTEX
  5
32D
  8
TEAM-NET
 10
123.743687
 20
-186.193294
 30
900.0
 70
    64
  0
VERTEX
  5
32E
  8
TEAM-NET
 10
106.53325
 20
-171.100146
 30
900.0
 70
    64
  0
VERTEX
  5
32F
  8
TEAM-NET
 10
87.5
 20
-158.382535
 30
900.0
 70
    64
  0
VERTEX
  5
330
  8
TEAM-NET
 10
66.969601
 20
-148.258062
 30
900.0
 70
    64
  0
VERTEX
  5
331
  8
TEAM-NET
 10
45.293333
 20
-140.899961
 30
900.0
 70
    64
  0
VERTEX
  5
332
  8
TEAM-NET
 10
22.842084
 20
-136.43413
 30
900.0
 70
    64
  0
VERTEX
  5
333
  8
TEAM-NET
 10
0.0
 20
-134.93698
 30
900.0
 70
    64
  0
SEQEND
  5
334
  8
TEAM-NET
  0
CIRCLE
  5
335
  8
TEAM-DET1
 39
-10.0
 10
0.0
 20
-215.0
 30
715.0
 40
45.0
  0
CIRCLE
  5
337
  8
TEAM-KAN
 39
-10.0
 10
0.0
 20
-215.0
 30
715.0
 40
30.0
  0
POLYLINE
  5
339
  8
TEAM-NET
 66
     1
 10
0.0
 20
0.0
 30
0.0
 70
    16
 71
     2
 72
    25
  0
VERTEX
  5
33A
  8
TEAM-NET
 10
0.0
 20
-520.0
 30
900.0
 70
    64
  0
VERTEX
  5
33B
  8
TEAM-NET
 10
33.284179
 20
-517.81844
 30
900.0
 70
    64
  0
VERTEX
  5
33C
  8
TEAM-NET
 10
65.998857
 20
-511.311086
 30
900.0
 70
    64
  0
VERTEX
  5
33D
  8
TEAM-NET
 10
97.584275
 20
-500.589281
 30
900.0
 70
    64
  0
VERTEX
  5
33E
  8
TEAM-NET
 10
127.5
 20
-485.836478
 30
900.0
 70
    64
  0
VERTEX
  5
33F
  8
TEAM-NET
 10
155.234164
 20
-467.305102
 30
900.0
 70
    64
  0
VERTEX
  5
340
  8
TEAM-NET
 10
180.312229
 20
-445.312229
 30
900.0
 70
    64
  0
VERTEX
  5
341
  8
TEAM-NET
 10
202.305102
 20
-420.234164
 30
900.0
 70
    64
  0
VERTEX
  5
342
  8
TEAM-NET
 10
220.836478
 20
-392.5
 30
900.0
 70
    64
  0
VERTEX
  5
343
  8
TEAM-NET
 10
235.589281
 20
-362.584275
 30
900.0
 70
    64
  0
VERTEX
  5
344
  8
TEAM-NET
 10
246.311086
 20
-330.998857
 30
900.0
 70
    64
  0
VERTEX
  5
345
  8
TEAM-NET
 10
252.81844
 20
-298.284179
 30
900.0
 70
    64
  0
VERTEX
  5
346
  8
TEAM-NET
 10
255.0
 20
-265.0
 30
900.0
 70
    64
  0
VERTEX
  5
347
  8
TEAM-NET
 10
252.81844
 20
-231.715821
 30
900.0
 70
    64
  0
VERTEX
  5
348
  8
TEAM-NET
 10
246.311086
 20
-199.001143
 30
900.0
 70
    64
  0
VERTEX
  5
349
  8
TEAM-NET
 10
235.589281
 20
-167.415725
 30
900.0
 70
    64
  0
VERTEX
  5
34A
  8
TEAM-NET
 10
220.836478
 20
-137.5
 30
900.0
 70
    64
  0
VERTEX
  5
34B
  8
TEAM-NET
 10
202.305102
 20
-109.765836
 30
900.0
 70
    64
  0
VERTEX
  5
34C
  8
TEAM-NET
 10
180.312229
 20
-84.687771
 30
900.0
 70
    64
  0
VERTEX
  5
34D
  8
TEAM-NET
 10
155.234164
 20
-62.694898
 30
900.0
 70
    64
  0
VERTEX
  5
34E
  8
TEAM-NET
 10
127.5
 20
-44.163522
 30
900.0
 70
    64
  0
VERTEX
  5
34F
  8
TEAM-NET
 10
97.584275
 20
-29.410719
 30
900.0
 70
    64
  0
VERTEX
  5
350
  8
TEAM-NET
 10
65.998857
 20
-18.688914
 30
900.0
 70
    64
  0
VERTEX
  5
351
  8
TEAM-NET
 10
33.284179
 20
-12.18156
 30
900.0
 70
    64
  0
VERTEX
  5
352
  8
TEAM-NET
 10
0.0
 20
-10.0
 30
900.0
 70
    64
  0
VERTEX
  5
353
  8
TEAM-NET
 10
0.0
 20
-530.0
 30
900.0
 70
    64
  0
VERTEX
  5
354
  8
TEAM-NET
 10
34.589441
 20
-527.732888
 30
900.0
 70
    64
  0
VERTEX
  5
355
  8
TEAM-NET
 10
68.587047
 20
-520.970344
 30
900.0
 70
    64
  0
VERTEX
  5
356
  8
TEAM-NET
 10
101.41111
 20
-509.828076
 30
900.0
 70
    64
  0
VERTEX
  5
357
  8
TEAM-NET
 10
132.5
 20
-494.496732
 30
900.0
 70
    64
  0
VERTEX
  5
358
  8
TEAM-NET
 10
161.321779
 20
-475.238635
 30
900.0
 70
    64
  0
VERTEX
  5
359
  8
TEAM-NET
 10
187.383297
 20
-452.383297
 30
900.0
 70
    64
  0
VERTEX
  5
35A
  8
TEAM-NET
 10
210.238635
 20
-426.321779
 30
900.0
 70
    64
  0
VERTEX
  5
35B
  8
TEAM-NET
 10
229.496732
 20
-397.5
 30
900.0
 70
    64
  0
VERTEX
  5
35C
  8
TEAM-NET
 10
244.828076
 20
-366.41111
 30
900.0
 70
    64
  0
VERTEX
  5
35D
  8
TEAM-NET
 10
255.970344
 20
-333.587047
 30
900.0
 70
    64
  0
VERTEX
  5
35E
  8
TEAM-NET
 10
262.732888
 20
-299.589441
 30
900.0
 70
    64
  0
VERTEX
  5
35F
  8
TEAM-NET
 10
265.0
 20
-265.0
 30
900.0
 70
    64
  0
VERTEX
  5
360
  8
TEAM-NET
 10
262.732888
 20
-230.410559
 30
900.0
 70
    64
  0
VERTEX
  5
361
  8
TEAM-NET
 10
255.970344
 20
-196.412953
 30
900.0
 70
    64
  0
VERTEX
  5
362
  8
TEAM-NET
 10
244.828076
 20
-163.58889
 30
900.0
 70
    64
  0
VERTEX
  5
363
  8
TEAM-NET
 10
229.496732
 20
-132.5
 30
900.0
 70
    64
  0
VERTEX
  5
364
  8
TEAM-NET
 10
210.238635
 20
-103.678221
 30
900.0
 70
    64
  0
VERTEX
  5
365
  8
TEAM-NET
 10
187.383297
 20
-77.616703
 30
900.0
 70
    64
  0
VERTEX
  5
366
  8
TEAM-NET
 10
161.321779
 20
-54.761365
 30
900.0
 70
    64
  0
VERTEX
  5
367
  8
TEAM-NET
 10
132.5
 20
-35.503268
 30
900.0
 70
    64
  0
VERTEX
  5
368
  8
TEAM-NET
 10
101.41111
 20
-20.171924
 30
900.0
 70
    64
  0
VERTEX
  5
369
  8
TEAM-NET
 10
68.587047
 20
-9.029656
 30
900.0
 70
    64
  0
VERTEX
  5
36A
  8
TEAM-NET
 10
34.589441
 20
-2.267112
 30
900.0
 70
    64
  0
VERTEX
  5
36B
  8
TEAM-NET
 10
0.0
 20
0.0
 30
900.0
 70
    64
  0
SEQEND
  5
36C
  8
TEAM-NET
  0
ARC
  5
36D
  8
TEAM-BODY
 10
0.0
 20
-309.93698
 30
900.0
 40
175.0
 50
90.0
 51
270.0
  0
ARC
  5
36F
  8
TEAM-BODY
 10
0.0
 20
-265.0
 30
900.0
 40
255.0
 50
90.0
 51
270.0
  0
ARC
  5
370
  8
TEAM-BODY
 10
0.0
 20
-265.0
 30
900.0
 40
265.0
 50
90.0
 51
270.0
  0
TEXT
  5
371
  8
TEAM-TXT
 10
-91.544186
 20
-419.107707
 30
900.0
 40
24.999999
  1
team 212045
 41
0.8
 51
15.0
  7
TEAM
  0
CIRCLE
  5
374
  8
TEAM-DET1
 10
0.0
 20
-79.998533
 30
900.0
 40
20.0
  0
LINE
  5
375
  8
TEAM-AXE
 10
-35.0
 20
-79.998533
 30
900.0
 11
35.0
 21
-79.998533
 31
900.0
  0
LINE
  5
378
  8
TEAM-AXE
 10
0.0
 20
-114.998533
 30
900.0
 11
0.0
 21
-44.998533
 31
900.0
  0
ARC
  5
379
  8
TEAM-BODY
 10
0.0
 20
-309.93698
 30
900.0
 40
175.0
 50
270.0
 51
90.0
  0
ARC
  5
37A
  8
TEAM-BODY
 10
0.0
 20
-265.0
 30
900.0
 40
255.0
 50
270.0
 51
90.0
  0
ARC
  5
37B
  8
TEAM-BODY
 10
0.0
 20
-265.0
 30
900.0
 40
265.0
 50
270.0
 51
90.0
  0
POLYLINE
  5
37C
  8
TEAM-NET
 66
     1
 10
0.0
 20
0.0
 30
0.0
 70
    16
 71
     2
 72
    25
  0
VERTEX
  5
37D
  8
TEAM-NET
 10
0.0
 20
-484.93698
 30
900.0
 70
    64
  0
VERTEX
  5
37E
  8
TEAM-NET
 10
-22.842084
 20
-483.439831
 30
900.0
 70
    64
  0
VERTEX
  5
37F
  8
TEAM-NET
 10
-45.293333
 20
-478.974
 30
900.0
 70
    64
  0
VERTEX
  5
380
  8
TEAM-NET
 10
-66.969601
 20
-471.615898
 30
900.0
 70
    64
  0
VERTEX
  5
381
  8
TEAM-NET
 10
-87.5
 20
-461.491426
 30
900.0
 70
    64
  0
VERTEX
  5
382
  8
TEAM-NET
 10
-106.53325
 20
-448.773815
 30
900.0
 70
    64
  0
VERTEX
  5
383
  8
TEAM-NET
 10
-123.743687
 20
-433.680667
 30
900.0
 70
    64
  0
VERTEX
  5
384
  8
TEAM-NET
 10
-138.836835
 20
-416.47023
 30
900.0
 70
    64
  0
VERTEX
  5
385
  8
TEAM-NET
 10
-151.554446
 20
-397.43698
 30
900.0
 70
    64
  0
VERTEX
  5
386
  8
TEAM-NET
 10
-161.678918
 20
-376.906581
 30
900.0
 70
    64
  0
VERTEX
  5
387
  8
TEAM-NET
 10
-169.03702
 20
-355.230313
 30
900.0
 70
    64
  0
VERTEX
  5
388
  8
TEAM-NET
 10
-173.502851
 20
-332.779064
 30
900.0
 70
    64
  0
VERTEX
  5
389
  8
TEAM-NET
 10
-175.0
 20
-309.93698
 30
900.0
 70
    64
  0
VERTEX
  5
38A
  8
TEAM-NET
 10
-173.502851
 20
-287.094897
 30
900.0
 70
    64
  0
VERTEX
  5
38B
  8
TEAM-NET
 10
-169.03702
 20
-264.643647
 30
900.0
 70
    64
  0
VERTEX
  5
38C
  8
TEAM-NET
 10
-161.678918
 20
-242.96738
 30
900.0
 70
    64
  0
VERTEX
  5
38D
  8
TEAM-NET
 10
-151.554446
 20
-222.43698
 30
900.0
 70
    64
  0
VERTEX
  5
38E
  8
TEAM-NET
 10
-138.836835
 20
-203.40373
 30
900.0
 70
    64
  0
VERTEX
  5
38F
  8
TEAM-NET
 10
-123.743687
 20
-186.193294
 30
900.0
 70
    64
  0
VERTEX
  5
390
  8
TEAM-NET
 10
-106.53325
 20
-171.100146
 30
900.0
 70
    64
  0
VERTEX
  5
391
  8
TEAM-NET
 10
-87.5
 20
-158.382535
 30
900.0
 70
    64
  0
VERTEX
  5
392
  8
TEAM-NET
 10
-66.969601
 20
-148.258062
 30
900.0
 70
    64
  0
VERTEX
  5
393
  8
TEAM-NET
 10
-45.293333
 20
-140.899961
 30
900.0
 70
    64
  0
VERTEX
  5
394
  8
TEAM-NET
 10
-22.842084
 20
-136.43413
 30
900.0
 70
    64
  0
VERTEX
  5
395
  8
TEAM-NET
 10
0.0
 20
-134.93698
 30
900.0
 70
    64
  0
VERTEX
  5
396
  8
TEAM-NET
 10
0.0
 20
-520.0
 30
900.0
 70
    64
  0
VERTEX
  5
397
  8
TEAM-NET
 10
-33.284179
 20
-517.81844
 30
900.0
 70
    64
  0
VERTEX
  5
398
  8
TEAM-NET
 10
-65.998857
 20
-511.311086
 30
900.0
 70
    64
  0
VERTEX
  5
399
  8
TEAM-NET
 10
-97.584275
 20
-500.589281
 30
900.0
 70
    64
  0
VERTEX
  5
39A
  8
TEAM-NET
 10
-127.5
 20
-485.836478
 30
900.0
 70
    64
  0
VERTEX
  5
39B
  8
TEAM-NET
 10
-155.234164
 20
-467.305102
 30
900.0
 70
    64
  0
VERTEX
  5
39C
  8
TEAM-NET
 10
-180.312229
 20
-445.312229
 30
900.0
 70
    64
  0
VERTEX
  5
39D
  8
TEAM-NET
 10
-202.305102
 20
-420.234164
 30
900.0
 70
    64
  0
VERTEX
  5
39E
  8
TEAM-NET
 10
-220.836478
 20
-392.5
 30
900.0
 70
    64
  0
VERTEX
  5
39F
  8
TEAM-NET
 10
-235.589281
 20
-362.584275
 30
900.0
 70
    64
  0
VERTEX
  5
3A0
  8
TEAM-NET
 10
-246.311086
 20
-330.998857
 30
900.0
 70
    64
  0
VERTEX
  5
3A1
  8
TEAM-NET
 10
-252.81844
 20
-298.284179
 30
900.0
 70
    64
  0
VERTEX
  5
3A2
  8
TEAM-NET
 10
-255.0
 20
-265.0
 30
900.0
 70
    64
  0
VERTEX
  5
3A3
  8
TEAM-NET
 10
-252.81844
 20
-231.715821
 30
900.0
 70
    64
  0
VERTEX
  5
3A4
  8
TEAM-NET
 10
-246.311086
 20
-199.001143
 30
900.0
 70
    64
  0
VERTEX
  5
3A5
  8
TEAM-NET
 10
-235.589281
 20
-167.415725
 30
900.0
 70
    64
  0
VERTEX
  5
3A6
  8
TEAM-NET
 10
-220.836478
 20
-137.5
 30
900.0
 70
    64
  0
VERTEX
  5
3A7
  8
TEAM-NET
 10
-202.305102
 20
-109.765836
 30
900.0
 70
    64
  0
VERTEX
  5
3A8
  8
TEAM-NET
 10
-180.312229
 20
-84.687771
 30
900.0
 70
    64
  0
VERTEX
  5
3A9
  8
TEAM-NET
 10
-155.234164
 20
-62.694898
 30
900.0
 70
    64
  0
VERTEX
  5
3AA
  8
TEAM-NET
 10
-127.5
 20
-44.163522
 30
900.0
 70
    64
  0
VERTEX
  5
3AB
  8
TEAM-NET
 10
-97.584275
 20
-29.410719
 30
900.0
 70
    64
  0
VERTEX
  5
3AC
  8
TEAM-NET
 10
-65.998857
 20
-18.688914
 30
900.0
 70
    64
  0
VERTEX
  5
3AD
  8
TEAM-NET
 10
-33.284179
 20
-12.18156
 30
900.0
 70
    64
  0
VERTEX
  5
3AE
  8
TEAM-NET
 10
0.0
 20
-10.0
 30
900.0
 70
    64
  0
SEQEND
  5
3AF
  8
TEAM-NET
  0
POLYLINE
  5
3B0
  8
TEAM-NET
 66
     1
 10
0.0
 20
0.0
 30
0.0
 70
    16
 71
     2
 72
    25
  0
VERTEX
  5
3B1
  8
TEAM-NET
 10
0.0
 20
-520.0
 30
900.0
 70
    64
  0
VERTEX
  5
3B2
  8
TEAM-NET
 10
-33.284179
 20
-517.81844
 30
900.0
 70
    64
  0
VERTEX
  5
3B3
  8
TEAM-NET
 10
-65.998857
 20
-511.311086
 30
900.0
 70
    64
  0
VERTEX
  5
3B4
  8
TEAM-NET
 10
-97.584275
 20
-500.589281
 30
900.0
 70
    64
  0
VERTEX
  5
3B5
  8
TEAM-NET
 10
-127.5
 20
-485.836478
 30
900.0
 70
    64
  0
VERTEX
  5
3B6
  8
TEAM-NET
 10
-155.234164
 20
-467.305102
 30
900.0
 70
    64
  0
VERTEX
  5
3B7
  8
TEAM-NET
 10
-180.312229
 20
-445.312229
 30
900.0
 70
    64
  0
VERTEX
  5
3B8
  8
TEAM-NET
 10
-202.305102
 20
-420.234164
 30
900.0
 70
    64
  0
VERTEX
  5
3B9
  8
TEAM-NET
 10
-220.836478
 20
-392.5
 30
900.0
 70
    64
  0
VERTEX
  5
3BA
  8
TEAM-NET
 10
-235.589281
 20
-362.584275
 30
900.0
 70
    64
  0
VERTEX
  5
3BB
  8
TEAM-NET
 10
-246.311086
 20
-330.998857
 30
900.0
 70
    64
  0
VERTEX
  5
3BC
  8
TEAM-NET
 10
-252.81844
 20
-298.284179
 30
900.0
 70
    64
  0
VERTEX
  5
3BD
  8
TEAM-NET
 10
-255.0
 20
-265.0
 30
900.0
 70
    64
  0
VERTEX
  5
3BE
  8
TEAM-NET
 10
-252.81844
 20
-231.715821
 30
900.0
 70
    64
  0
VERTEX
  5
3BF
  8
TEAM-NET
 10
-246.311086
 20
-199.001143
 30
900.0
 70
    64
  0
VERTEX
  5
3C0
  8
TEAM-NET
 10
-235.589281
 20
-167.415725
 30
900.0
 70
    64
  0
VERTEX
  5
3C1
  8
TEAM-NET
 10
-220.836478
 20
-137.5
 30
900.0
 70
    64
  0
VERTEX
  5
3C2
  8
TEAM-NET
 10
-202.305102
 20
-109.765836
 30
900.0
 70
    64
  0
VERTEX
  5
3C3
  8
TEAM-NET
 10
-180.312229
 20
-84.687771
 30
900.0
 70
    64
  0
VERTEX
  5
3C4
  8
TEAM-NET
 10
-155.234164
 20
-62.694898
 30
900.0
 70
    64
  0
VERTEX
  5
3C5
  8
TEAM-NET
 10
-127.5
 20
-44.163522
 30
900.0
 70
    64
  0
VERTEX
  5
3C6
  8
TEAM-NET
 10
-97.584275
 20
-29.410719
 30
900.0
 70
    64
  0
VERTEX
  5
3C7
  8
TEAM-NET
 10
-65.998857
 20
-18.688914
 30
900.0
 70
    64
  0
VERTEX
  5
3C8
  8
TEAM-NET
 10
-33.284179
 20
-12.18156
 30
900.0
 70
    64
  0
VERTEX
  5
3C9
  8
TEAM-NET
 10
0.0
 20
-10.0
 30
900.0
 70
    64
  0
VERTEX
  5
3CA
  8
TEAM-NET
 10
0.0
 20
-530.0
 30
900.0
 70
    64
  0
VERTEX
  5
3CB
  8
TEAM-NET
 10
-34.589441
 20
-527.732888
 30
900.0
 70
    64
  0
VERTEX
  5
3CC
  8
TEAM-NET
 10
-68.587047
 20
-520.970344
 30
900.0
 70
    64
  0
VERTEX
  5
3CD
  8
TEAM-NET
 10
-101.41111
 20
-509.828076
 30
900.0
 70
    64
  0
VERTEX
  5
3CE
  8
TEAM-NET
 10
-132.5
 20
-494.496732
 30
900.0
 70
    64
  0
VERTEX
  5
3CF
  8
TEAM-NET
 10
-161.321779
 20
-475.238635
 30
900.0
 70
    64
  0
VERTEX
  5
3D0
  8
TEAM-NET
 10
-187.383297
 20
-452.383297
 30
900.0
 70
    64
  0
VERTEX
  5
3D1
  8
TEAM-NET
 10
-210.238635
 20
-426.321779
 30
900.0
 70
    64
  0
VERTEX
  5
3D2
  8
TEAM-NET
 10
-229.496732
 20
-397.5
 30
900.0
 70
    64
  0
VERTEX
  5
3D3
  8
TEAM-NET
 10
-244.828076
 20
-366.41111
 30
900.0
 70
    64
  0
VERTEX
  5
3D4
  8
TEAM-NET
 10
-255.970344
 20
-333.587047
 30
900.0
 70
    64
  0
VERTEX
  5
3D5
  8
TEAM-NET
 10
-262.732888
 20
-299.589441
 30
900.0
 70
    64
  0
VERTEX
  5
3D6
  8
TEAM-NET
 10
-265.0
 20
-265.0
 30
900.0
 70
    64
  0
VERTEX
  5
3D7
  8
TEAM-NET
 10
-262.732888
 20
-230.410559
 30
900.0
 70
    64
  0
VERTEX
  5
3D8
  8
TEAM-NET
 10
-255.970344
 20
-196.412953
 30
900.0
 70
    64
  0
VERTEX
  5
3D9
  8
TEAM-NET
 10
-244.828076
 20
-163.58889
 30
900.0
 70
    64
  0
VERTEX
  5
3DA
  8
TEAM-NET
 10
-229.496732
 20
-132.5
 30
900.0
 70
    64
  0
VERTEX
  5
3DB
  8
TEAM-NET
 10
-210.238635
 20
-103.678221
 30
900.0
 70
    64
  0
VERTEX
  5
3DC
  8
TEAM-NET
 10
-187.383297
 20
-77.616703
 30
900.0
 70
    64
  0
VERTEX
  5
3DD
  8
TEAM-NET
 10
-161.321779
 20
-54.761365
 30
900.0
 70
    64
  0
VERTEX
  5
3DE
  8
TEAM-NET
 10
-132.5
 20
-35.503268
 30
900.0
 70
    64
  0
VERTEX
  5
3DF
  8
TEAM-NET
 10
-101.41111
 20
-20.171924
 30
900.0
 70
    64
  0
VERTEX
  5
3E0
  8
TEAM-NET
 10
-68.587047
 20
-9.029656
 30
900.0
 70
    64
  0
VERTEX
  5
3E1
  8
TEAM-NET
 10
-34.589441
 20
-2.267112
 30
900.0
 70
    64
  0
VERTEX
  5
3E2
  8
TEAM-NET
 10
0.0
 20
0.0
 30
900.0
 70
    64
  0
SEQEND
  5
3E3
  8
TEAM-NET
  0
POLYLINE
  5
3E4
  8
TEAM-NET
 66
     1
 10
0.0
 20
0.0
 30
0.0
 70
    16
 71
     2
 72
    25
  0
VERTEX
  5
3E5
  8
TEAM-NET
 10
0.0
 20
-484.93698
 30
900.0
 70
    64
  0
VERTEX
  5
3E6
  8
TEAM-NET
 10
22.842084
 20
-483.439831
 30
900.0
 70
    64
  0
VERTEX
  5
3E7
  8
TEAM-NET
 10
45.293333
 20
-478.974
 30
900.0
 70
    64
  0
VERTEX
  5
3E8
  8
TEAM-NET
 10
66.969601
 20
-471.615898
 30
900.0
 70
    64
  0
VERTEX
  5
3E9
  8
TEAM-NET
 10
87.5
 20
-461.491426
 30
900.0
 70
    64
  0
VERTEX
  5
3EA
  8
TEAM-NET
 10
106.53325
 20
-448.773815
 30
900.0
 70
    64
  0
VERTEX
  5
3EB
  8
TEAM-NET
 10
123.743687
 20
-433.680667
 30
900.0
 70
    64
  0
VERTEX
  5
3EC
  8
TEAM-NET
 10
138.836835
 20
-416.47023
 30
900.0
 70
    64
  0
VERTEX
  5
3ED
  8
TEAM-NET
 10
151.554446
 20
-397.43698
 30
900.0
 70
    64
  0
VERTEX
  5
3EE
  8
TEAM-NET
 10
161.678918
 20
-376.906581
 30
900.0
 70
    64
  0
VERTEX
  5
3EF
  8
TEAM-NET
 10
169.03702
 20
-355.230313
 30
900.0
 70
    64
  0
VERTEX
  5
3F0
  8
TEAM-NET
 10
173.502851
 20
-332.779064
 30
900.0
 70
    64
  0
VERTEX
  5
3F1
  8
TEAM-NET
 10
175.0
 20
-309.93698
 30
900.0
 70
    64
  0
VERTEX
  5
3F2
  8
TEAM-NET
 10
173.502851
 20
-287.094897
 30
900.0
 70
    64
  0
VERTEX
  5
3F3
  8
TEAM-NET
 10
169.03702
 20
-264.643647
 30
900.0
 70
    64
  0
VERTEX
  5
3F4
  8
TEAM-NET
 10
161.678918
 20
-242.96738
 30
900.0
 70
    64
  0
VERTEX
  5
3F5
  8
TEAM-NET
 10
151.554446
 20
-222.43698
 30
900.0
 70
    64
  0
VERTEX
  5
3F6
  8
TEAM-NET
 10
138.836835
 20
-203.40373
 30
900.0
 70
    64
  0
VERTEX
  5
3F7
  8
TEAM-NET
 10
123.743687
 20
-186.193294
 30
900.0
 70
    64
  0
VERTEX
  5
3F8
  8
TEAM-NET
 10
106.53325
 20
-171.100146
 30
900.0
 70
    64
  0
VERTEX
  5
3F9
  8
TEAM-NET
 10
87.5
 20
-158.382535
 30
900.0
 70
    64
  0
VERTEX
  5
3FA
  8
TEAM-NET
 10
66.969601
 20
-148.258062
 30
900.0
 70
    64
  0
VERTEX
  5
3FB
  8
TEAM-NET
 10
45.293333
 20
-140.899961
 30
900.0
 70
    64
  0
VERTEX
  5
3FC
  8
TEAM-NET
 10
22.842084
 20
-136.43413
 30
900.0
 70
    64
  0
VERTEX
  5
3FD
  8
TEAM-NET
 10
0.0
 20
-134.93698
 30
900.0
 70
    64
  0
VERTEX
  5
3FE
  8
TEAM-NET
 10
0.0
 20
-520.0
 30
900.0
 70
    64
  0
VERTEX
  5
3FF
  8
TEAM-NET
 10
33.284179
 20
-517.81844
 30
900.0
 70
    64
  0
VERTEX
  5
400
  8
TEAM-NET
 10
65.998857
 20
-511.311086
 30
900.0
 70
    64
  0
VERTEX
  5
401
  8
TEAM-NET
 10
97.584275
 20
-500.589281
 30
900.0
 70
    64
  0
VERTEX
  5
402
  8
TEAM-NET
 10
127.5
 20
-485.836478
 30
900.0
 70
    64
  0
VERTEX
  5
403
  8
TEAM-NET
 10
155.234164
 20
-467.305102
 30
900.0
 70
    64
  0
VERTEX
  5
404
  8
TEAM-NET
 10
180.312229
 20
-445.312229
 30
900.0
 70
    64
  0
VERTEX
  5
405
  8
TEAM-NET
 10
202.305102
 20
-420.234164
 30
900.0
 70
    64
  0
VERTEX
  5
406
  8
TEAM-NET
 10
220.836478
 20
-392.5
 30
900.0
 70
    64
  0
VERTEX
  5
407
  8
TEAM-NET
 10
235.589281
 20
-362.584275
 30
900.0
 70
    64
  0
VERTEX
  5
408
  8
TEAM-NET
 10
246.311086
 20
-330.998857
 30
900.0
 70
    64
  0
VERTEX
  5
409
  8
TEAM-NET
 10
252.81844
 20
-298.284179
 30
900.0
 70
    64
  0
VERTEX
  5
40A
  8
TEAM-NET
 10
255.0
 20
-265.0
 30
900.0
 70
    64
  0
VERTEX
  5
40B
  8
TEAM-NET
 10
252.81844
 20
-231.715821
 30
900.0
 70
    64
  0
VERTEX
  5
40C
  8
TEAM-NET
 10
246.311086
 20
-199.001143
 30
900.0
 70
    64
  0
VERTEX
  5
40D
  8
TEAM-NET
 10
235.589281
 20
-167.415725
 30
900.0
 70
    64
  0
VERTEX
  5
40E
  8
TEAM-NET
 10
220.836478
 20
-137.5
 30
900.0
 70
    64
  0
VERTEX
  5
40F
  8
TEAM-NET
 10
202.305102
 20
-109.765836
 30
900.0
 70
    64
  0
VERTEX
  5
410
  8
TEAM-NET
 10
180.312229
 20
-84.687771
 30
900.0
 70
    64
  0
VERTEX
  5
411
  8
TEAM-NET
 10
155.234164
 20
-62.694898
 30
900.0
 70
    64
  0
VERTEX
  5
412
  8
TEAM-NET
 10
127.5
 20
-44.163522
 30
900.0
 70
    64
  0
VERTEX
  5
413
  8
TEAM-NET
 10
97.584275
 20
-29.410719
 30
900.0
 70
    64
  0
VERTEX
  5
414
  8
TEAM-NET
 10
65.998857
 20
-18.688914
 30
900.0
 70
    64
  0
VERTEX
  5
415
  8
TEAM-NET
 10
33.284179
 20
-12.18156
 30
900.0
 70
    64
  0
VERTEX
  5
416
  8
TEAM-NET
 10
0.0
 20
-10.0
 30
900.0
 70
    64
  0
SEQEND
  5
417
  8
TEAM-NET
  0
ENDSEC
  0
EOF
