  0
SECTION
  2
HEADER
  9
$ACADVER
  1
AC1009
  9
$INSBASE
 10
0.0
 20
0.0
 30
0.0
  9
$EXTMIN
 10
-602.130418
 20
-472.099065
 30
-0.02127
  9
$EXTMAX
 10
602.09217
 20
10.013477
 30
852.113835
  9
$LIMMIN
 10
-602.130418
 20
-472.099065
  9
$LIMMAX
 10
602.09217
 20
10.013477
  9
$ORTHOMODE
 70
     1
  9
$REGENMODE
 70
     1
  9
$FILLMODE
 70
     1
  9
$QTEXTMODE
 70
     0
  9
$MIRRTEXT
 70
     0
  9
$DRAGMODE
 70
     2
  9
$LTSCALE
 40
25.0
  9
$OSMODE
 70
     0
  9
$ATTMODE
 70
     1
  9
$TEXTSIZE
 40
200.0
  9
$TRACEWID
 40
1.0
  9
$TEXTSTYLE
  7
STANDARD
  9
$CLAYER
  8
TEAM-MAS
  9
$CELTYPE
  6
BYLAYER
  9
$CECOLOR
 62
   256
  9
$DIMSCALE
 40
1.0
  9
$DIMASZ
 40
20.0
  9
$DIMEXO
 40
10.0
  9
$DIMDLI
 40
1.0
  9
$DIMRND
 40
0.0
  9
$DIMDLE
 40
0.0
  9
$DIMEXE
 40
1.0
  9
$DIMTP
 40
0.0
  9
$DIMTM
 40
0.0
  9
$DIMTXT
 40
35.0
  9
$DIMCEN
 40
1.0
  9
$DIMTSZ
 40
0.0
  9
$DIMTOL
 70
     0
  9
$DIMLIM
 70
     0
  9
$DIMTIH
 70
     0
  9
$DIMTOH
 70
     0
  9
$DIMSE1
 70
     0
  9
$DIMSE2
 70
     0
  9
$DIMTAD
 70
     0
  9
$DIMZIN
 70
     0
  9
$DIMBLK
  1

  9
$DIMASO
 70
     1
  9
$DIMSHO
 70
     0
  9
$DIMPOST
  1

  9
$DIMAPOST
  1

  9
$DIMALT
 70
     0
  9
$DIMALTD
 70
     2
  9
$DIMALTF
 40
25.4
  9
$DIMLFAC
 40
1.0
  9
$DIMTOFL
 70
     0
  9
$DIMTVP
 40
0.0
  9
$DIMTIX
 70
     0
  9
$DIMSOXD
 70
     0
  9
$DIMSAH
 70
     0
  9
$DIMBLK1
  1

  9
$DIMBLK2
  1

  9
$DIMSTYLE
  2
TEAM
  9
$DIMCLRD
 70
     9
  9
$DIMCLRE
 70
     9
  9
$DIMCLRT
 70
    11
  9
$DIMTFAC
 40
1.0
  9
$DIMGAP
 40
15.0
  9
$LUNITS
 70
     2
  9
$LUPREC
 70
     1
  9
$SKETCHINC
 40
1.0
  9
$FILLETRAD
 40
10.0
  9
$AUNITS
 70
     0
  9
$AUPREC
 70
     0
  9
$MENU
  1
ROPLANS
  9
$ELEVATION
 40
0.0
  9
$PELEVATION
 40
0.0
  9
$THICKNESS
 40
0.0
  9
$LIMCHECK
 70
     0
  9
$BLIPMODE
 70
     1
  9
$CHAMFERA
 40
0.0
  9
$CHAMFERB
 40
0.0
  9
$SKPOLY
 70
     0
  9
$TDCREATE
 40
2450392.957851
  9
$TDUPDATE
 40
2455509.933601
  9
$TDINDWG
 40
2.904676
  9
$TDUSRTIMER
 40
2.904676
  9
$USRTIMER
 70
     1
  9
$ANGBASE
 50
0.0
  9
$ANGDIR
 70
     0
  9
$PDMODE
 70
     0
  9
$PDSIZE
 40
0.0
  9
$PLINEWID
 40
0.0
  9
$COORDS
 70
     2
  9
$SPLFRAME
 70
     0
  9
$SPLINETYPE
 70
     6
  9
$SPLINESEGS
 70
     8
  9
$ATTDIA
 70
     0
  9
$ATTREQ
 70
     0
  9
$HANDLING
 70
     1
  9
$HANDSEED
  5
637
  9
$SURFTAB1
 70
    24
  9
$SURFTAB2
 70
    24
  9
$SURFTYPE
 70
     6
  9
$SURFU
 70
     6
  9
$SURFV
 70
     6
  9
$UCSNAME
  2

  9
$UCSORG
 10
0.0
 20
0.0
 30
0.0
  9
$UCSXDIR
 10
1.0
 20
0.0
 30
0.0
  9
$UCSYDIR
 10
0.0
 20
1.0
 30
0.0
  9
$PUCSNAME
  2

  9
$PUCSORG
 10
0.0
 20
0.0
 30
0.0
  9
$PUCSXDIR
 10
1.0
 20
0.0
 30
0.0
  9
$PUCSYDIR
 10
0.0
 20
1.0
 30
0.0
  9
$USERI1
 70
     0
  9
$USERI2
 70
     0
  9
$USERI3
 70
     0
  9
$USERI4
 70
     0
  9
$USERI5
 70
     0
  9
$USERR1
 40
0.0
  9
$USERR2
 40
0.0
  9
$USERR3
 40
0.0
  9
$USERR4
 40
0.0
  9
$USERR5
 40
0.0
  9
$WORLDVIEW
 70
     1
  9
$SHADEDGE
 70
     0
  9
$SHADEDIF
 70
    70
  9
$TILEMODE
 70
     1
  9
$MAXACTVP
 70
    16
  9
$PLIMCHECK
 70
     0
  9
$PEXTMIN
 10
-0.805942
 20
0.005011
 30
0.0
  9
$PEXTMAX
 10
20.250094
 20
11.356329
 30
0.0
  9
$PLIMMIN
 10
0.0
 20
0.0
  9
$PLIMMAX
 10
12.0
 20
9.0
  9
$UNITMODE
 70
     0
  9
$VISRETAIN
 70
     0
  9
$PLINEGEN
 70
     0
  9
$PSLTSCALE
 70
     0
  0
ENDSEC
  0
SECTION
  2
TABLES
  0
TABLE
  2
VPORT
 70
     2
  0
VPORT
  2
*ACTIVE
 70
     0
 10
0.0
 20
0.0
 11
1.0
 21
1.0
 12
-0.019124
 22
-231.042794
 13
0.0
 23
0.0
 14
1.0
 24
1.0
 15
50.0
 25
50.0
 16
0.0
 26
0.0
 36
1.0
 17
0.0
 27
0.0
 37
0.0
 40
647.550709
 41
1.865779
 42
50.0
 43
0.0
 44
0.0
 50
0.0
 51
0.0
 71
     0
 72
   100
 73
     1
 74
     1
 75
     0
 76
     0
 77
     0
 78
     0
  0
ENDTAB
  0
TABLE
  2
LTYPE
 70
     2
  0
LTYPE
  2
CONTINUOUS
 70
     0
  3
Solid Line
 72
    65
 73
     0
 40
0.0
  0
LTYPE
  2
31
 70
     0
  3

 72
    65
 73
     4
 40
2.1
 49
1.5
 49
-0.3
 49
0.0
 49
-0.3
  0
ENDTAB
  0
TABLE
  2
LAYER
 70
     7
  0
LAYER
  2
0
 70
     0
 62
     7
  6
CONTINUOUS
  0
LAYER
  2
TEAM-AXE
 70
     0
 62
    10
  6
31
  0
LAYER
  2
TEAM-MAS
 70
     0
 62
     9
  6
CONTINUOUS
  0
LAYER
  2
TEAM-TXT
 70
     0
 62
    11
  6
CONTINUOUS
  0
LAYER
  2
TEAM-DET1
 70
     0
 62
     4
  6
CONTINUOUS
  0
LAYER
  2
TEAM-NET
 70
     0
 62
    15
  6
CONTINUOUS
  0
LAYER
  2
TEAM-INSP
 70
     0
 62
     5
  6
CONTINUOUS
  0
ENDTAB
  0
TABLE
  2
STYLE
 70
     2
  0
STYLE
  2
STANDARD
 70
     0
 40
0.0
 41
1.0
 50
0.0
 71
     0
 42
200.0
  3
txt
  4

  0
STYLE
  2
TEAM
 70
     0
 40
0.0
 41
0.8
 50
15.0
 71
     0
 42
7.0
  3
ROMANS.shx
  4

  0
ENDTAB
  0
TABLE
  2
VIEW
 70
     0
  0
ENDTAB
  0
TABLE
  2
UCS
 70
     0
  0
ENDTAB
  0
TABLE
  2
APPID
 70
     1
  0
APPID
  2
ACAD
 70
     0
  0
ENDTAB
  0
TABLE
  2
DIMSTYLE
 70
     1
  0
DIMSTYLE
  2
TEAM
 70
     0
  3

  4

  5

  6

  7

 40
1.0
 41
20.0
 42
10.0
 43
1.0
 44
1.0
 45
0.0
 46
0.0
 47
0.0
 48
0.0
140
35.0
141
1.0
142
0.0
143
25.4
144
1.0
145
0.0
146
1.0
147
15.0
 71
     0
 72
     0
 73
     0
 74
     0
 75
     0
 76
     0
 77
     0
 78
     0
170
     0
171
     2
172
     0
173
     0
174
     0
175
     0
176
     9
177
     9
178
    11
  0
ENDTAB
  0
ENDSEC
  0
SECTION
  2
BLOCKS
  0
BLOCK
  8
0
  2
$MODEL_SPACE
 70
     0
 10
0.0
 20
0.0
 30
0.0
  3
$MODEL_SPACE
  1

  0
ENDBLK
  5
59A
  8
0
  0
BLOCK
 67
     1
  8
0
  2
$PAPER_SPACE
 70
     0
 10
0.0
 20
0.0
 30
0.0
  3
$PAPER_SPACE
  1

  0
ENDBLK
  5
598
 67
     1
  8
0
  0
ENDSEC
  0
SECTION
  2
ENTITIES
  0
CIRCLE
  5
20
  8
TEAM-INSP
 10
0.0
 20
0.0
 30
0.0
 40
10.0
  0
ARC
  5
22
  8
TEAM-NET
 10
1.181801
 20
820.032548
 30
-117.0
 40
12.5
210
0.0
220
1.0
230
0.0
 50
180.0
 51
270.0
  0
ARC
  5
24
  8
TEAM-NET
 10
1.181801
 20
820.032548
 30
-117.0
 40
12.5
210
0.0
220
1.0
230
0.0
 50
270.0
 51
0.0
  0
ARC
  5
25
  8
TEAM-NET
 10
1.181801
 20
820.032548
 30
-117.0
 40
12.5
210
0.0
220
1.0
230
0.0
 50
270.0
 51
0.0
  0
ARC
  5
26
  8
TEAM-NET
 10
1.181801
 20
820.032548
 30
-117.0
 40
12.5
210
0.0
220
1.0
230
0.0
 50
180.0
 51
270.0
  0
ARC
  5
27
  8
TEAM-NET
 10
-1.181801
 20
820.032548
 30
120.0
 40
15.5
210
0.0
220
-1.0
230
0.0
 50
270.0
 51
0.0
  0
ARC
  5
28
  8
TEAM-NET
 10
-1.181801
 20
820.032548
 30
120.0
 40
15.5
210
0.0
220
-1.0
230
0.0
 50
270.0
 51
0.0
  0
ARC
  5
29
  8
TEAM-NET
 10
-1.181801
 20
820.032548
 30
105.0
 40
12.5
210
0.0
220
-1.0
230
0.0
 50
360.0
 51
180.0
  0
ARC
  5
2A
  8
TEAM-NET
 10
-1.181801
 20
820.032548
 30
120.0
 40
15.5
210
0.0
220
-1.0
230
0.0
 50
90.0
 51
270.0
  0
ARC
  5
2B
  8
TEAM-NET
 10
-1.181801
 20
820.032548
 30
105.0
 40
12.5
210
0.0
220
-1.0
230
0.0
 50
180.0
 51
0.0
  0
ARC
  5
2C
  8
TEAM-NET
 10
-1.181801
 20
820.032548
 30
105.0
 40
12.5
210
0.0
220
-1.0
230
0.0
 50
360.0
 51
180.0
  0
ARC
  5
2D
  8
TEAM-NET
 10
-1.181801
 20
820.032548
 30
120.0
 40
15.5
210
0.0
220
-1.0
230
0.0
 50
90.0
 51
270.0
  0
ARC
  5
2E
  8
TEAM-NET
 10
-1.181801
 20
820.032548
 30
105.0
 40
12.5
210
0.0
220
-1.0
230
0.0
 50
180.0
 51
0.0
  0
LINE
  5
2F
  8
TEAM-NET
 10
-599.998075
 20
0.0
 30
715.032548
 11
-599.998075
 21
0.0
 31
840.032548
210
-1.0
220
0.0
230
0.0
  0
LINE
  5
30
  8
TEAM-NET
 10
-599.998075
 20
-460.0
 30
840.032548
 11
-599.998075
 21
-460.0
 31
715.032548
210
-1.0
220
0.0
230
0.0
  0
LINE
  5
31
  8
TEAM-NET
 10
-589.998075
 20
-470.0
 30
725.032548
 11
-589.998075
 21
-470.0
 31
840.032548
210
0.0
220
-1.0
230
0.0
  0
LINE
  5
32
  8
TEAM-NET
 10
-599.998075
 20
0.0
 30
715.032548
 11
-599.998075
 21
0.0
 31
840.032548
210
0.0
220
1.0
230
0.0
  0
LINE
  5
33
  8
TEAM-NET
 10
-589.998075
 20
-470.0
 30
725.032548
 11
-589.998075
 21
-470.0
 31
840.032548
  0
LINE
  5
34
  8
TEAM-NET
 10
-599.998075
 20
-460.0
 30
840.032548
 11
-599.998075
 21
-460.0
 31
715.032548
  0
LINE
  5
35
  8
TEAM-NET
 10
-549.998075
 20
-120.0
 30
759.522193
 11
-549.998075
 21
-120.0
 31
845.032548
210
0.0
220
-1.0
230
0.0
  0
LINE
  5
36
  8
TEAM-NET
 10
-549.998075
 20
-430.0
 30
845.032548
 11
-549.998075
 21
-430.0
 31
759.522193
210
0.0
220
1.0
230
0.0
  0
LINE
  5
37
  8
TEAM-NET
 10
-549.998075
 20
-430.0
 30
845.032548
 11
-549.998075
 21
-430.0
 31
759.522193
  0
LINE
  5
38
  8
TEAM-NET
 10
-559.998075
 20
-420.0
 30
759.522193
 11
-559.998075
 21
-420.0
 31
845.032548
  0
LINE
  5
39
  8
TEAM-NET
 10
-559.998075
 20
-420.0
 30
759.522193
 11
-559.998075
 21
-420.0
 31
845.032548
210
1.0
220
0.0
230
0.0
  0
LINE
  5
3A
  8
TEAM-NET
 10
-559.998075
 20
-130.0
 30
845.032548
 11
-559.998075
 21
-130.0
 31
759.522193
210
1.0
220
0.0
230
0.0
  0
LINE
  5
3B
  8
TEAM-NET
 10
-559.998075
 20
-130.0
 30
845.032548
 11
-559.998075
 21
-130.0
 31
759.522193
  0
LINE
  5
3C
  8
TEAM-NET
 10
-549.998075
 20
-120.0
 30
759.522193
 11
-549.998075
 21
-120.0
 31
845.032548
  0
LINE
  5
3D
  8
TEAM-NET
 10
590.001925
 20
-470.0
 30
840.032548
 11
590.001925
 21
-470.0
 31
725.032548
210
0.0
220
-1.0
230
0.0
  0
LINE
  5
3E
  8
TEAM-NET
 10
600.001925
 20
-460.0
 30
725.032548
 11
600.001925
 21
-460.0
 31
840.032548
210
1.0
220
0.0
230
0.0
  0
LINE
  5
3F
  8
TEAM-NET
 10
600.001925
 20
0.0
 30
725.032548
 11
600.001925
 21
0.0
 31
840.032548
210
1.0
220
0.0
230
0.0
  0
LINE
  5
40
  8
TEAM-NET
 10
600.001925
 20
0.0
 30
725.032548
 11
600.001925
 21
0.0
 31
840.032548
210
0.0
220
1.0
230
0.0
  0
LINE
  5
41
  8
TEAM-NET
 10
590.001925
 20
-470.0
 30
840.032548
 11
590.001925
 21
-470.0
 31
725.032548
  0
LINE
  5
42
  8
TEAM-NET
 10
600.001925
 20
-460.0
 30
725.032548
 11
600.001925
 21
-460.0
 31
840.032548
  0
LINE
  5
43
  8
TEAM-NET
 10
550.001925
 20
-120.0
 30
845.032548
 11
550.001925
 21
-120.0
 31
759.522193
210
0.0
220
-1.0
230
0.0
  0
LINE
  5
44
  8
TEAM-NET
 10
560.001925
 20
-420.0
 30
845.032548
 11
560.001925
 21
-420.0
 31
759.522193
  0
LINE
  5
45
  8
TEAM-NET
 10
550.001925
 20
-430.0
 30
759.522193
 11
550.001925
 21
-430.0
 31
845.032548
  0
LINE
  5
46
  8
TEAM-NET
 10
560.001925
 20
-130.0
 30
759.522193
 11
560.001925
 21
-130.0
 31
845.032548
210
-1.0
220
0.0
230
0.0
  0
LINE
  5
47
  8
TEAM-NET
 10
560.001925
 20
-420.0
 30
845.032548
 11
560.001925
 21
-420.0
 31
759.522193
210
-1.0
220
0.0
230
0.0
  0
LINE
  5
48
  8
TEAM-NET
 10
550.001925
 20
-120.0
 30
845.032548
 11
550.001925
 21
-120.0
 31
759.522193
  0
LINE
  5
49
  8
TEAM-NET
 10
560.001925
 20
-130.0
 30
759.522193
 11
560.001925
 21
-130.0
 31
845.032548
  0
LINE
  5
4A
  8
TEAM-NET
 10
550.001925
 20
-430.0
 30
759.522193
 11
550.001925
 21
-430.0
 31
845.032548
210
0.0
220
1.0
230
0.0
  0
LINE
  5
4B
  8
TEAM-NET
 10
-563.998075
 20
-20.0
 30
737.792382
 11
-563.998075
 21
-20.0
 31
820.032548
210
0.0
220
-1.0
230
0.0
  0
LINE
  5
4C
  8
TEAM-NET
 10
-563.998075
 20
-20.0
 30
737.792382
 11
-563.998075
 21
-20.0
 31
820.032548
210
1.0
220
0.0
230
0.0
  0
LINE
  5
4D
  8
TEAM-NET
 10
564.001925
 20
-20.0
 30
737.4
 11
564.001925
 21
-20.0
 31
820.032548
210
-1.0
220
0.0
230
0.0
  0
LINE
  5
4E
  8
TEAM-NET
 10
564.001925
 20
-20.0
 30
737.4
 11
564.001925
 21
-20.0
 31
820.032548
210
0.0
220
-1.0
230
0.0
  0
LINE
  5
4F
  8
TEAM-NET
 10
-563.998075
 20
-95.0
 30
715.032548
 11
-563.998075
 21
-95.0
 31
820.032548
210
0.0
220
1.0
230
0.0
  0
LINE
  5
50
  8
TEAM-NET
 10
-563.998075
 20
-95.0
 30
715.032548
 11
-563.998075
 21
-95.0
 31
820.032548
210
1.0
220
0.0
230
0.0
  0
LINE
  5
51
  8
TEAM-NET
 10
564.001925
 20
-95.0
 30
715.032548
 11
564.001925
 21
-95.0
 31
820.032548
210
0.0
220
1.0
230
0.0
  0
LINE
  5
52
  8
TEAM-NET
 10
564.001925
 20
-95.0
 30
715.032548
 11
564.001925
 21
-95.0
 31
820.032548
210
-1.0
220
0.0
230
0.0
  0
LINE
  5
53
  8
TEAM-NET
 10
-31.893608
 20
-190.0
 30
733.883576
 11
-20.998075
 21
-190.0
 31
725.199918
  0
LINE
  5
54
  8
TEAM-NET
 10
31.897458
 20
-190.0
 30
733.883576
 11
21.001925
 21
-190.0
 31
725.199918
  0
LINE
  5
55
  8
TEAM-NET
 10
-32.695842
 20
-190.0
 30
733.883576
 11
-21.998075
 21
-190.0
 31
725.357536
  0
LINE
  5
56
  8
TEAM-NET
 10
32.699691
 20
-190.0
 30
733.883576
 11
22.001925
 21
-190.0
 31
725.357536
  0
LINE
  5
57
  8
TEAM-NET
 10
-32.695842
 20
-190.0
 30
733.883576
 11
-21.998075
 21
-190.0
 31
725.357536
  0
LINE
  5
58
  8
TEAM-NET
 10
32.699691
 20
-190.0
 30
733.883576
 11
22.001925
 21
-190.0
 31
725.357536
  0
LINE
  5
59
  8
TEAM-NET
 10
-31.893608
 20
-190.0
 30
733.883576
 11
-20.998075
 21
-190.0
 31
725.199918
  0
LINE
  5
5A
  8
TEAM-NET
 10
31.897458
 20
-190.0
 30
733.883576
 11
21.001925
 21
-190.0
 31
725.199918
  0
LINE
  5
5B
  8
TEAM-NET
 10
-27.498075
 20
-190.0
 30
727.357536
 11
-36.874332
 21
-190.0
 31
732.770921
  0
LINE
  5
5C
  8
TEAM-NET
 10
27.501925
 20
-190.0
 30
727.357536
 11
36.878182
 21
-190.0
 31
732.770921
  0
LINE
  5
5D
  8
TEAM-NET
 10
-27.498075
 20
-190.0
 30
727.357536
 11
-36.874332
 21
-190.0
 31
732.770921
  0
LINE
  5
5E
  8
TEAM-NET
 10
27.501925
 20
-190.0
 30
727.357536
 11
36.878182
 21
-190.0
 31
732.770921
  0
LINE
  5
5F
  8
TEAM-NET
 10
-14.026576
 20
-205.626937
 30
735.199918
 11
-14.026576
 21
-205.626937
 31
700.199918
210
0.711485
220
-0.702701
230
-0.0
  0
LINE
  5
60
  8
TEAM-NET
 10
-15.625012
 20
-175.971499
 30
735.199918
 11
-15.625012
 21
-175.971499
 31
700.199918
210
-0.702701
220
-0.711485
230
-0.0
  0
LINE
  5
61
  8
TEAM-NET
 10
14.030426
 20
-174.373063
 30
735.199918
 11
14.030426
 21
-174.373063
 31
700.199918
210
-0.711485
220
0.702701
230
0.0
  0
LINE
  5
62
  8
TEAM-NET
 10
15.628862
 20
-204.028501
 30
735.199918
 11
15.628862
 21
-204.028501
 31
700.199918
210
0.702701
220
0.711485
230
0.0
  0
LINE
  5
63
  8
TEAM-NET
 10
-14.026576
 20
-205.626937
 30
735.199918
 11
-14.026576
 21
-205.626937
 31
700.199918
  0
LINE
  5
64
  8
TEAM-NET
 10
-15.449546
 20
-204.221535
 30
735.199918
 11
-15.449546
 21
-204.221535
 31
700.199918
  0
LINE
  5
65
  8
TEAM-NET
 10
-15.449546
 20
-204.221535
 30
735.199918
 11
-15.449546
 21
-204.221535
 31
700.199918
210
-0.711485
220
0.702701
230
0.0
  0
LINE
  5
66
  8
TEAM-NET
 10
15.628862
 20
-204.028501
 30
735.199918
 11
15.628862
 21
-204.028501
 31
700.199918
  0
LINE
  5
67
  8
TEAM-NET
 10
14.223459
 20
-205.451471
 30
735.199918
 11
14.223459
 21
-205.451471
 31
700.199918
  0
LINE
  5
68
  8
TEAM-NET
 10
14.223459
 20
-205.451471
 30
735.199918
 11
14.223459
 21
-205.451471
 31
700.199918
210
-0.702701
220
-0.711485
230
-0.0
  0
LINE
  5
69
  8
TEAM-NET
 10
14.030426
 20
-174.373063
 30
735.199918
 11
14.030426
 21
-174.373063
 31
700.199918
  0
LINE
  5
6A
  8
TEAM-NET
 10
15.453396
 20
-175.778465
 30
735.199918
 11
15.453396
 21
-175.778465
 31
700.199918
  0
LINE
  5
6B
  8
TEAM-NET
 10
15.453396
 20
-175.778465
 30
735.199918
 11
15.453396
 21
-175.778465
 31
700.199918
210
0.711485
220
-0.702701
230
-0.0
  0
LINE
  5
6C
  8
TEAM-NET
 10
-15.625012
 20
-175.971499
 30
735.199918
 11
-15.625012
 21
-175.971499
 31
700.199918
  0
LINE
  5
6D
  8
TEAM-NET
 10
-14.21961
 20
-174.548529
 30
735.199918
 11
-14.21961
 21
-174.548529
 31
700.199918
  0
LINE
  5
6E
  8
TEAM-NET
 10
-14.21961
 20
-174.548529
 30
735.199918
 11
-14.21961
 21
-174.548529
 31
700.199918
210
0.702701
220
0.711485
230
0.0
  0
LINE
  5
6F
  8
TEAM-NET
 10
-563.998075
 20
-30.0
 30
715.032548
 11
-563.998075
 21
-30.0
 31
737.792382
210
1.0
220
0.0
230
0.0
  0
LINE
  5
70
  8
TEAM-NET
 10
-564.001925
 20
0.0
 30
737.4
 11
-564.001925
 21
0.0
 31
715.032548
210
0.0
220
1.0
230
0.0
  0
LINE
  5
71
  8
TEAM-NET
 10
-563.998075
 20
-30.0
 30
715.032548
 11
-563.998075
 21
-30.0
 31
737.792382
210
0.0
220
1.0
230
0.0
  0
LINE
  5
72
  8
TEAM-NET
 10
-564.001925
 20
-30.0
 30
715.032548
 11
-564.001925
 21
-30.0
 31
737.4
210
0.0
220
1.0
230
0.0
  0
LINE
  5
73
  8
TEAM-NET
 10
-564.001925
 20
-30.0
 30
715.032548
 11
-564.001925
 21
-30.0
 31
737.4
210
1.0
220
0.0
230
0.0
  0
LINE
  5
74
  8
TEAM-NET
 10
-564.001925
 20
0.0
 30
737.4
 11
-564.001925
 21
0.0
 31
715.032548
210
1.0
220
0.0
230
0.0
  0
LINE
  5
75
  8
TEAM-NET
 10
564.001925
 20
0.0
 30
715.032548
 11
564.001925
 21
0.0
 31
737.4
210
-1.0
220
0.0
230
0.0
  0
LINE
  5
76
  8
TEAM-NET
 10
564.001925
 20
0.0
 30
715.032548
 11
564.001925
 21
0.0
 31
737.4
210
0.0
220
1.0
230
0.0
  0
LINE
  5
77
  8
TEAM-NET
 10
-3.443827
 20
-194.911903
 30
735.199918
 11
-3.443827
 21
-194.911903
 31
695.199918
210
0.711485
220
-0.702701
230
-0.0
  0
LINE
  5
78
  8
TEAM-NET
 10
3.447676
 20
-185.088097
 30
735.199918
 11
3.447676
 21
-185.088097
 31
695.199918
  0
LINE
  5
79
  8
TEAM-NET
 10
-3.504576
 20
-185.131278
 30
695.199918
 11
-3.504576
 21
-185.131278
 31
735.199918
  0
LINE
  5
7A
  8
TEAM-NET
 10
-4.909979
 20
-186.554248
 30
735.199918
 11
-4.909979
 21
-186.554248
 31
695.199918
  0
LINE
  5
7B
  8
TEAM-NET
 10
-4.866797
 20
-193.506501
 30
735.199918
 11
-4.866797
 21
-193.506501
 31
695.199918
  0
LINE
  5
7C
  8
TEAM-NET
 10
-4.909979
 20
-186.554248
 30
735.199918
 11
-4.909979
 21
-186.554248
 31
695.199918
210
-0.702701
220
-0.711485
230
-0.0
  0
LINE
  5
7D
  8
TEAM-NET
 10
4.913828
 20
-193.445752
 30
735.199918
 11
4.913828
 21
-193.445752
 31
695.199918
  0
LINE
  5
7E
  8
TEAM-NET
 10
4.870646
 20
-186.493499
 30
695.199918
 11
4.870646
 21
-186.493499
 31
735.199918
  0
LINE
  5
7F
  8
TEAM-NET
 10
3.447676
 20
-185.088097
 30
735.199918
 11
3.447676
 21
-185.088097
 31
695.199918
210
-0.711485
220
0.702701
230
0.0
  0
LINE
  5
80
  8
TEAM-NET
 10
3.508426
 20
-194.868722
 30
695.199918
 11
3.508426
 21
-194.868722
 31
735.199918
  0
LINE
  5
81
  8
TEAM-NET
 10
-3.443827
 20
-194.911903
 30
735.199918
 11
-3.443827
 21
-194.911903
 31
695.199918
  0
LINE
  5
82
  8
TEAM-NET
 10
4.913828
 20
-193.445752
 30
735.199918
 11
4.913828
 21
-193.445752
 31
695.199918
210
0.702701
220
0.711485
230
0.0
  0
LINE
  5
83
  8
TEAM-NET
 10
-4.866797
 20
-193.506501
 30
735.199918
 11
-4.866797
 21
-193.506501
 31
695.199918
210
-0.711485
220
0.702701
230
0.0
  0
LINE
  5
84
  8
TEAM-NET
 10
3.508426
 20
-194.868722
 30
695.199918
 11
3.508426
 21
-194.868722
 31
735.199918
210
-0.702701
220
-0.711485
230
-0.0
  0
LINE
  5
85
  8
TEAM-NET
 10
4.870646
 20
-186.493499
 30
695.199918
 11
4.870646
 21
-186.493499
 31
735.199918
210
0.711485
220
-0.702701
230
-0.0
  0
LINE
  5
86
  8
TEAM-NET
 10
-3.504576
 20
-185.131278
 30
695.199918
 11
-3.504576
 21
-185.131278
 31
735.199918
210
0.702701
220
0.711485
230
0.0
  0
LINE
  5
87
  8
TEAM-NET
 10
26.001925
 20
-190.0
 30
675.032548
 11
26.001925
 21
-190.0
 31
724.75946
  0
LINE
  5
88
  8
TEAM-NET
 10
-25.998075
 20
-190.0
 30
675.032548
 11
-25.998075
 21
-190.0
 31
724.75946
  0
LINE
  5
89
  8
TEAM-NET
 10
26.001925
 20
-190.0
 30
675.032548
 11
26.001925
 21
-190.0
 31
724.75946
  0
LINE
  5
8A
  8
TEAM-NET
 10
-25.998075
 20
-190.0
 30
675.032548
 11
-25.998075
 21
-190.0
 31
724.75946
  0
LINE
  5
8B
  8
TEAM-NET
 10
37.501925
 20
-190.0
 30
675.032548
 11
39.404201
 21
-190.0
 31
696.775663
  0
LINE
  5
8C
  8
TEAM-NET
 10
-37.498075
 20
-190.0
 30
675.032548
 11
-39.400351
 21
-190.0
 31
696.775663
  0
LINE
  5
8D
  8
TEAM-NET
 10
37.501925
 20
-190.0
 30
675.032548
 11
39.404201
 21
-190.0
 31
696.775663
  0
LINE
  5
8E
  8
TEAM-NET
 10
-37.498075
 20
-190.0
 30
675.032548
 11
-39.400351
 21
-190.0
 31
696.775663
  0
POLYLINE
  5
8F
  8
TEAM-NET
 66
     1
 10
0.0
 20
0.0
 30
-859.156393
 70
   128
210
0.707107
220
0.0
230
-0.707107
  0
VERTEX
  5
5A0
  8
TEAM-NET
 10
-470.0
 20
95.483791
 30
-859.156393
  0
VERTEX
  5
5A1
  8
TEAM-NET
 10
-469.807853
 20
92.724797
 30
-859.156393
  0
VERTEX
  5
5A2
  8
TEAM-NET
 10
-469.238795
 20
90.07183
 30
-859.156393
  0
VERTEX
  5
5A3
  8
TEAM-NET
 10
-468.314696
 20
87.626842
 30
-859.156393
  0
VERTEX
  5
5A4
  8
TEAM-NET
 10
-467.071068
 20
85.483791
 30
-859.156393
  0
VERTEX
  5
5A5
  8
TEAM-NET
 10
-465.555702
 20
83.725035
 30
-859.156393
  0
VERTEX
  5
5A6
  8
TEAM-NET
 10
-463.826834
 20
82.418162
 30
-859.156393
  0
VERTEX
  5
5A7
  8
TEAM-NET
 10
-461.950903
 20
81.613393
 30
-859.156393
  0
VERTEX
  5
5A8
  8
TEAM-NET
 10
-460.0
 20
81.341656
 30
-859.156393
  0
SEQEND
  5
5A9
  8
TEAM-NET
  0
POLYLINE
  5
90
  8
TEAM-NET
 66
     1
 10
0.0
 20
0.0
 30
-859.156393
 70
   128
210
0.707107
220
0.0
230
-0.707107
  0
VERTEX
  5
5AA
  8
TEAM-NET
 10
-470.0
 20
95.483791
 30
-859.156393
  0
VERTEX
  5
5AB
  8
TEAM-NET
 10
-469.807853
 20
92.724797
 30
-859.156393
  0
VERTEX
  5
5AC
  8
TEAM-NET
 10
-469.238795
 20
90.07183
 30
-859.156393
  0
VERTEX
  5
5AD
  8
TEAM-NET
 10
-468.314696
 20
87.626842
 30
-859.156393
  0
VERTEX
  5
5AE
  8
TEAM-NET
 10
-467.071068
 20
85.483791
 30
-859.156393
  0
VERTEX
  5
5AF
  8
TEAM-NET
 10
-465.555702
 20
83.725035
 30
-859.156393
  0
VERTEX
  5
5B0
  8
TEAM-NET
 10
-463.826834
 20
82.418162
 30
-859.156393
  0
VERTEX
  5
5B1
  8
TEAM-NET
 10
-461.950903
 20
81.613393
 30
-859.156393
  0
VERTEX
  5
5B2
  8
TEAM-NET
 10
-460.0
 20
81.341656
 30
-859.156393
  0
SEQEND
  5
5B3
  8
TEAM-NET
  0
ARC
  5
91
  8
TEAM-NET
 10
0.001925
 20
-190.0
 30
675.032548
 40
26.0
 50
0.0
 51
180.0
  0
ARC
  5
92
  8
TEAM-NET
 10
0.001925
 20
-190.0
 30
675.032548
 40
26.0
 50
180.0
 51
0.0
  0
ARC
  5
93
  8
TEAM-NET
 10
0.001925
 20
-190.0
 30
675.032548
 40
37.5
 50
180.0
 51
0.0
  0
ARC
  5
94
  8
TEAM-NET
 10
0.001925
 20
-190.0
 30
675.032548
 40
37.5
 50
0.0
 51
180.0
  0
ARC
  5
95
  8
TEAM-NET
 10
-0.001925
 20
-190.0
 30
-675.032548
 40
37.5
210
0.0
220
0.0
230
-1.0
 50
180.0
 51
0.0
  0
ARC
  5
96
  8
TEAM-NET
 10
-0.001925
 20
-190.0
 30
-675.032548
 40
37.5
210
0.0
220
0.0
230
-1.0
 50
360.0
 51
180.0
  0
ARC
  5
97
  8
TEAM-NET
 10
-0.001925
 20
-190.0
 30
-675.032548
 40
26.0
210
0.0
220
0.0
230
-1.0
 50
180.0
 51
0.0
  0
ARC
  5
98
  8
TEAM-NET
 10
-0.001925
 20
-190.0
 30
-675.032548
 40
26.0
210
0.0
220
0.0
230
-1.0
 50
360.0
 51
180.0
  0
ARC
  5
99
  8
TEAM-NET
 10
-59.328095
 20
695.032548
 30
-190.0
 40
20.0
210
0.0
220
1.0
230
0.0
 50
5.0
 51
90.0
  0
ARC
  5
9A
  8
TEAM-NET
 10
-59.324245
 20
695.032548
 30
190.0
 40
20.0
210
0.0
220
-1.0
230
0.0
 50
5.0
 51
90.0
  0
ARC
  5
9B
  8
TEAM-NET
 10
-59.328095
 20
695.032548
 30
-190.0
 40
20.0
210
0.0
220
1.0
230
0.0
 50
5.0
 51
90.0
  0
ARC
  5
9C
  8
TEAM-NET
 10
-59.324245
 20
695.032548
 30
190.0
 40
20.0
210
0.0
220
-1.0
230
0.0
 50
5.0
 51
90.0
  0
LINE
  5
9D
  8
TEAM-NET
 10
-20.998075
 20
-190.0
 30
725.199918
 11
-20.998075
 21
-190.0
 31
695.357536
  0
LINE
  5
9E
  8
TEAM-NET
 10
21.001925
 20
-190.0
 30
725.199918
 11
21.001925
 21
-190.0
 31
695.357536
  0
LINE
  5
9F
  8
TEAM-NET
 10
-21.998075
 20
-190.0
 30
725.357536
 11
-21.998075
 21
-190.0
 31
695.357536
  0
LINE
  5
A0
  8
TEAM-NET
 10
22.001925
 20
-190.0
 30
725.357536
 11
22.001925
 21
-190.0
 31
695.357536
  0
LINE
  5
A1
  8
TEAM-NET
 10
-21.998075
 20
-190.0
 30
725.357536
 11
-21.998075
 21
-190.0
 31
695.357536
  0
LINE
  5
A2
  8
TEAM-NET
 10
22.001925
 20
-190.0
 30
725.357536
 11
22.001925
 21
-190.0
 31
695.357536
  0
LINE
  5
A3
  8
TEAM-NET
 10
-20.998075
 20
-190.0
 30
725.199918
 11
-20.998075
 21
-190.0
 31
695.357536
  0
LINE
  5
A4
  8
TEAM-NET
 10
21.001925
 20
-190.0
 30
725.199918
 11
21.001925
 21
-190.0
 31
695.357536
  0
ARC
  5
A5
  8
TEAM-NET
 10
0.001925
 20
-190.0
 30
696.775663
 40
39.402276
 50
180.0
 51
0.0
  0
ARC
  5
A6
  8
TEAM-NET
 10
0.001925
 20
-190.0
 30
696.775663
 40
39.402276
 50
0.0
 51
180.0
  0
ARC
  5
A7
  8
TEAM-NET
 10
0.001925
 20
-190.0
 30
696.775663
 40
39.402276
 50
180.0
 51
0.0
  0
ARC
  5
A8
  8
TEAM-NET
 10
0.001925
 20
-190.0
 30
696.775663
 40
39.402276
 50
0.0
 51
180.0
  0
ARC
  5
A9
  8
TEAM-NET
 10
-0.001925
 20
-190.0
 30
-700.199918
 40
21.0
210
0.0
220
0.0
230
-1.0
 50
311.914727
 51
317.373533
  0
ARC
  5
AA
  8
TEAM-NET
 10
-0.001925
 20
-190.0
 30
-700.199918
 40
21.0
210
0.0
220
0.0
230
-1.0
 50
221.914727
 51
227.373533
  0
ARC
  5
AB
  8
TEAM-NET
 10
-0.001925
 20
-190.0
 30
-700.199918
 40
21.0
210
0.0
220
0.0
230
-1.0
 50
311.914727
 51
317.373533
  0
ARC
  5
AC
  8
TEAM-NET
 10
-0.001925
 20
-190.0
 30
-700.199918
 40
21.0
210
0.0
220
0.0
230
-1.0
 50
221.914727
 51
227.373533
  0
ARC
  5
AD
  8
TEAM-NET
 10
-0.001925
 20
-190.0
 30
-700.199918
 40
21.0
210
0.0
220
0.0
230
-1.0
 50
131.914727
 51
137.373533
  0
ARC
  5
AE
  8
TEAM-NET
 10
-0.001925
 20
-190.0
 30
-700.199918
 40
21.0
210
0.0
220
0.0
230
-1.0
 50
41.914727
 51
47.373533
  0
ARC
  5
AF
  8
TEAM-NET
 10
-0.001925
 20
-190.0
 30
-700.199918
 40
21.0
210
0.0
220
0.0
230
-1.0
 50
131.914727
 51
137.373533
  0
ARC
  5
B0
  8
TEAM-NET
 10
-0.001925
 20
-190.0
 30
-700.199918
 40
21.0
210
0.0
220
0.0
230
-1.0
 50
41.914727
 51
47.373533
  0
LINE
  5
B1
  8
TEAM-NET
 10
-10.507829
 20
-202.064206
 30
695.199918
 11
-3.443827
 21
-194.911903
 31
695.199918
210
0.711485
220
-0.702701
230
-0.0
  0
LINE
  5
B2
  8
TEAM-NET
 10
12.066131
 20
-200.509754
 30
695.199918
 11
4.913828
 21
-193.445752
 31
695.199918
210
0.702701
220
0.711485
230
0.0
  0
LINE
  5
B3
  8
TEAM-NET
 10
-4.866797
 20
-193.506501
 30
695.199918
 11
-11.930799
 21
-200.658804
 31
695.199918
210
-0.711485
220
0.702701
230
0.0
  0
LINE
  5
B4
  8
TEAM-NET
 10
3.508426
 20
-194.868722
 30
695.199918
 11
10.660728
 21
-201.932724
 31
695.199918
210
-0.702701
220
-0.711485
230
-0.0
  0
LINE
  5
B5
  8
TEAM-NET
 10
-4.866797
 20
-193.506501
 30
695.199918
 11
-11.930799
 21
-200.658804
 31
695.199918
210
0.0
220
0.0
230
-1.0
  0
LINE
  5
B6
  8
TEAM-NET
 10
-10.507829
 20
-202.064206
 30
695.199918
 11
-3.443827
 21
-194.911903
 31
695.199918
210
0.0
220
0.0
230
-1.0
  0
LINE
  5
B7
  8
TEAM-NET
 10
12.066131
 20
-200.509754
 30
695.199918
 11
4.913828
 21
-193.445752
 31
695.199918
210
0.0
220
0.0
230
-1.0
  0
LINE
  5
B8
  8
TEAM-NET
 10
3.508426
 20
-194.868722
 30
695.199918
 11
10.660728
 21
-201.932724
 31
695.199918
210
0.0
220
0.0
230
-1.0
  0
ARC
  5
B9
  8
TEAM-NET
 10
0.001925
 20
-190.0
 30
695.357536
 40
21.0
 50
360.0
 51
180.0
  0
ARC
  5
BA
  8
TEAM-NET
 10
0.001925
 20
-190.0
 30
695.357536
 40
22.0
 50
180.0
 51
0.0
  0
ARC
  5
BB
  8
TEAM-NET
 10
0.001925
 20
-190.0
 30
695.357536
 40
22.0
 50
360.0
 51
180.0
  0
ARC
  5
BC
  8
TEAM-NET
 10
0.001925
 20
-190.0
 30
695.357536
 40
21.0
 50
180.0
 51
0.0
  0
ARC
  5
BD
  8
TEAM-NET
 10
-0.001925
 20
-190.0
 30
-695.357536
 40
22.0
210
0.0
220
0.0
230
-1.0
 50
180.0
 51
0.0
  0
ARC
  5
BE
  8
TEAM-NET
 10
-0.001925
 20
-190.0
 30
-695.357536
 40
22.0
210
0.0
220
0.0
230
-1.0
 50
0.0
 51
180.0
  0
ARC
  5
BF
  8
TEAM-NET
 10
-0.001925
 20
-190.0
 30
-695.357536
 40
21.0
210
0.0
220
0.0
230
-1.0
 50
180.0
 51
0.0
  0
ARC
  5
C0
  8
TEAM-NET
 10
-0.001925
 20
-190.0
 30
-695.357536
 40
21.0
210
0.0
220
0.0
230
-1.0
 50
0.0
 51
180.0
  0
ARC
  5
C1
  8
TEAM-NET
 10
-0.001925
 20
-190.0
 30
-695.199918
 40
16.0
210
0.0
220
0.0
230
-1.0
 50
311.060808
 51
318.227452
  0
ARC
  5
C2
  8
TEAM-NET
 10
-0.001925
 20
-190.0
 30
-695.199918
 40
16.0
210
0.0
220
0.0
230
-1.0
 50
221.060808
 51
228.227452
  0
ARC
  5
C3
  8
TEAM-NET
 10
0.001925
 20
-190.0
 30
695.199918
 40
16.0
 50
221.772548
 51
228.939192
  0
ARC
  5
C4
  8
TEAM-NET
 10
0.001925
 20
-190.0
 30
695.199918
 40
16.0
 50
311.772548
 51
318.939192
  0
ARC
  5
C5
  8
TEAM-NET
 10
0.001925
 20
-190.0
 30
695.199918
 40
6.0
 50
54.949938
 51
125.761802
  0
ARC
  5
C6
  8
TEAM-NET
 10
0.001925
 20
-190.0
 30
695.199918
 40
6.0
 50
144.949938
 51
215.761802
  0
LINE
  5
C7
  8
TEAM-NET
 10
-12.062281
 20
-179.490246
 30
695.199918
 11
-4.909979
 21
-186.554248
 31
695.199918
210
-0.702701
220
-0.711485
230
-0.0
  0
ARC
  5
C8
  8
TEAM-NET
 10
0.001925
 20
-190.0
 30
695.199918
 40
6.0
 50
324.949938
 51
35.761802
  0
LINE
  5
C9
  8
TEAM-NET
 10
10.511679
 20
-177.935794
 30
695.199918
 11
3.447676
 21
-185.088097
 31
695.199918
210
-0.711485
220
0.702701
230
0.0
  0
ARC
  5
CA
  8
TEAM-NET
 10
0.001925
 20
-190.0
 30
695.199918
 40
6.0
 50
234.949938
 51
305.761802
  0
LINE
  5
CB
  8
TEAM-NET
 10
4.870646
 20
-186.493499
 30
695.199918
 11
11.934649
 21
-179.341196
 31
695.199918
210
0.711485
220
-0.702701
230
-0.0
  0
LINE
  5
CC
  8
TEAM-NET
 10
-3.504576
 20
-185.131278
 30
695.199918
 11
-10.656879
 21
-178.067276
 31
695.199918
210
0.702701
220
0.711485
230
0.0
  0
ARC
  5
CD
  8
TEAM-NET
 10
-0.001925
 20
-190.0
 30
-695.199918
 40
16.0
210
0.0
220
0.0
230
-1.0
 50
41.060808
 51
48.227452
  0
LINE
  5
CE
  8
TEAM-NET
 10
-3.504576
 20
-185.131278
 30
695.199918
 11
-10.656879
 21
-178.067276
 31
695.199918
210
0.0
220
0.0
230
-1.0
  0
LINE
  5
CF
  8
TEAM-NET
 10
-12.062281
 20
-179.490246
 30
695.199918
 11
-4.909979
 21
-186.554248
 31
695.199918
210
0.0
220
0.0
230
-1.0
  0
ARC
  5
D0
  8
TEAM-NET
 10
-0.001925
 20
-190.0
 30
-695.199918
 40
6.0
210
0.0
220
0.0
230
-1.0
 50
54.238198
 51
125.050062
  0
ARC
  5
D1
  8
TEAM-NET
 10
-0.001925
 20
-190.0
 30
-695.199918
 40
6.0
210
0.0
220
0.0
230
-1.0
 50
324.238198
 51
35.050062
  0
LINE
  5
D2
  8
TEAM-NET
 10
10.511679
 20
-177.935794
 30
695.199918
 11
3.447676
 21
-185.088097
 31
695.199918
210
0.0
220
0.0
230
-1.0
  0
ARC
  5
D3
  8
TEAM-NET
 10
-0.001925
 20
-190.0
 30
-695.199918
 40
16.0
210
0.0
220
0.0
230
-1.0
 50
131.060808
 51
138.227452
  0
LINE
  5
D4
  8
TEAM-NET
 10
4.870646
 20
-186.493499
 30
695.199918
 11
11.934649
 21
-179.341196
 31
695.199918
210
0.0
220
0.0
230
-1.0
  0
ARC
  5
D5
  8
TEAM-NET
 10
-0.001925
 20
-190.0
 30
-695.199918
 40
6.0
210
0.0
220
0.0
230
-1.0
 50
144.238198
 51
215.050062
  0
ARC
  5
D6
  8
TEAM-NET
 10
-0.001925
 20
-190.0
 30
-695.199918
 40
6.0
210
0.0
220
0.0
230
-1.0
 50
234.238198
 51
305.050062
  0
ARC
  5
D7
  8
TEAM-NET
 10
0.001925
 20
-190.0
 30
695.199918
 40
16.0
 50
41.772548
 51
48.939192
  0
ARC
  5
D8
  8
TEAM-NET
 10
0.001925
 20
-190.0
 30
695.199918
 40
16.0
 50
131.772548
 51
138.939192
  0
POLYLINE
  5
D9
  8
TEAM-NET
 66
     1
 10
0.0
 20
0.0
 30
0.0
 70
     8
  0
VERTEX
  5
DA
  8
TEAM-NET
 10
14.223459
 20
-205.451471
 30
700.199918
 70
    32
  0
VERTEX
  5
DB
  8
TEAM-NET
 10
13.951871
 20
-205.183236
 30
698.284784
 70
    32
  0
VERTEX
  5
DC
  8
TEAM-NET
 10
13.179264
 20
-204.420167
 30
696.663012
 70
    32
  0
VERTEX
  5
DD
  8
TEAM-NET
 10
12.023096
 20
-203.278273
 30
695.579695
 70
    32
  0
VERTEX
  5
DE
  8
TEAM-NET
 10
10.660728
 20
-201.932724
 30
695.199918
 70
    32
  0
SEQEND
  5
DF
  8
TEAM-NET
  0
POLYLINE
  5
E0
  8
TEAM-NET
 66
     1
 10
0.0
 20
0.0
 30
0.0
 70
     8
  0
VERTEX
  5
E1
  8
TEAM-NET
 10
12.066131
 20
-200.509754
 30
695.199918
 70
    32
  0
VERTEX
  5
E2
  8
TEAM-NET
 10
13.429226
 20
-201.856021
 30
695.580047
 70
    32
  0
VERTEX
  5
E3
  8
TEAM-NET
 10
14.584671
 20
-202.997202
 30
696.663019
 70
    32
  0
VERTEX
  5
E4
  8
TEAM-NET
 10
15.357573
 20
-203.760562
 30
698.285806
 70
    32
  0
VERTEX
  5
E5
  8
TEAM-NET
 10
15.628862
 20
-204.028501
 30
700.199918
 70
    32
  0
SEQEND
  5
E6
  8
TEAM-NET
  0
POLYLINE
  5
E7
  8
TEAM-NET
 66
     1
 10
0.0
 20
0.0
 30
0.0
 70
     8
  0
VERTEX
  5
E8
  8
TEAM-NET
 10
-15.449546
 20
-204.221535
 30
700.199918
 70
    32
  0
VERTEX
  5
E9
  8
TEAM-NET
 10
-15.181311
 20
-203.949947
 30
698.284784
 70
    32
  0
VERTEX
  5
EA
  8
TEAM-NET
 10
-14.418242
 20
-203.177339
 30
696.663012
 70
    32
  0
VERTEX
  5
EB
  8
TEAM-NET
 10
-13.276348
 20
-202.021172
 30
695.579695
 70
    32
  0
VERTEX
  5
EC
  8
TEAM-NET
 10
-11.930799
 20
-200.658804
 30
695.199918
 70
    32
  0
SEQEND
  5
ED
  8
TEAM-NET
  0
POLYLINE
  5
EE
  8
TEAM-NET
 66
     1
 10
0.0
 20
0.0
 30
0.0
 70
     8
  0
VERTEX
  5
EF
  8
TEAM-NET
 10
-10.507829
 20
-202.064206
 30
695.199918
 70
    32
  0
VERTEX
  5
F0
  8
TEAM-NET
 10
-11.854096
 20
-203.427301
 30
695.580047
 70
    32
  0
VERTEX
  5
F1
  8
TEAM-NET
 10
-12.995277
 20
-204.582747
 30
696.663019
 70
    32
  0
VERTEX
  5
F2
  8
TEAM-NET
 10
-13.758637
 20
-205.355649
 30
698.285806
 70
    32
  0
VERTEX
  5
F3
  8
TEAM-NET
 10
-14.026576
 20
-205.626937
 30
700.199918
 70
    32
  0
SEQEND
  5
F4
  8
TEAM-NET
  0
POLYLINE
  5
F5
  8
TEAM-NET
 66
     1
 10
0.0
 20
0.0
 30
0.0
 70
     8
  0
VERTEX
  5
F6
  8
TEAM-NET
 10
14.223459
 20
-205.451471
 30
700.199918
 70
    32
  0
VERTEX
  5
F7
  8
TEAM-NET
 10
13.951871
 20
-205.183236
 30
698.284784
 70
    32
  0
VERTEX
  5
F8
  8
TEAM-NET
 10
13.179264
 20
-204.420167
 30
696.663012
 70
    32
  0
VERTEX
  5
F9
  8
TEAM-NET
 10
12.023096
 20
-203.278273
 30
695.579695
 70
    32
  0
VERTEX
  5
FA
  8
TEAM-NET
 10
10.660728
 20
-201.932724
 30
695.199918
 70
    32
  0
SEQEND
  5
FB
  8
TEAM-NET
  0
POLYLINE
  5
FC
  8
TEAM-NET
 66
     1
 10
0.0
 20
0.0
 30
0.0
 70
     8
  0
VERTEX
  5
FD
  8
TEAM-NET
 10
-15.449546
 20
-204.221535
 30
700.199918
 70
    32
  0
VERTEX
  5
FE
  8
TEAM-NET
 10
-15.181311
 20
-203.949947
 30
698.284784
 70
    32
  0
VERTEX
  5
FF
  8
TEAM-NET
 10
-14.418242
 20
-203.177339
 30
696.663012
 70
    32
  0
VERTEX
  5
100
  8
TEAM-NET
 10
-13.276348
 20
-202.021172
 30
695.579695
 70
    32
  0
VERTEX
  5
101
  8
TEAM-NET
 10
-11.930799
 20
-200.658804
 30
695.199918
 70
    32
  0
SEQEND
  5
102
  8
TEAM-NET
  0
POLYLINE
  5
103
  8
TEAM-NET
 66
     1
 10
0.0
 20
0.0
 30
0.0
 70
     8
  0
VERTEX
  5
104
  8
TEAM-NET
 10
12.066131
 20
-200.509754
 30
695.199918
 70
    32
  0
VERTEX
  5
105
  8
TEAM-NET
 10
13.429226
 20
-201.856021
 30
695.580047
 70
    32
  0
VERTEX
  5
106
  8
TEAM-NET
 10
14.584671
 20
-202.997202
 30
696.663019
 70
    32
  0
VERTEX
  5
107
  8
TEAM-NET
 10
15.357573
 20
-203.760562
 30
698.285806
 70
    32
  0
VERTEX
  5
108
  8
TEAM-NET
 10
15.628862
 20
-204.028501
 30
700.199918
 70
    32
  0
SEQEND
  5
109
  8
TEAM-NET
  0
POLYLINE
  5
10A
  8
TEAM-NET
 66
     1
 10
0.0
 20
0.0
 30
0.0
 70
     8
  0
VERTEX
  5
10B
  8
TEAM-NET
 10
-10.507829
 20
-202.064206
 30
695.199918
 70
    32
  0
VERTEX
  5
10C
  8
TEAM-NET
 10
-11.854096
 20
-203.427301
 30
695.580047
 70
    32
  0
VERTEX
  5
10D
  8
TEAM-NET
 10
-12.995277
 20
-204.582747
 30
696.663019
 70
    32
  0
VERTEX
  5
10E
  8
TEAM-NET
 10
-13.758637
 20
-205.355649
 30
698.285806
 70
    32
  0
VERTEX
  5
10F
  8
TEAM-NET
 10
-14.026576
 20
-205.626937
 30
700.199918
 70
    32
  0
SEQEND
  5
110
  8
TEAM-NET
  0
POLYLINE
  5
111
  8
TEAM-NET
 66
     1
 10
0.0
 20
0.0
 30
137.738228
 70
   128
210
-0.702701
220
-0.711485
230
0.0
  0
VERTEX
  5
5B4
  8
TEAM-NET
 10
112.538431
 20
700.199918
 30
137.738228
  0
VERTEX
  5
5B5
  8
TEAM-NET
 10
112.920151
 20
698.284784
 30
137.738228
  0
VERTEX
  5
5B6
  8
TEAM-NET
 10
114.006059
 20
696.663012
 30
137.738228
  0
VERTEX
  5
5B7
  8
TEAM-NET
 10
115.631065
 20
695.579695
 30
137.738228
  0
VERTEX
  5
5B8
  8
TEAM-NET
 10
117.545889
 20
695.199918
 30
137.738228
  0
SEQEND
  5
5B9
  8
TEAM-NET
  0
POLYLINE
  5
112
  8
TEAM-NET
 66
     1
 10
0.0
 20
0.0
 30
0.0
 70
     8
  0
VERTEX
  5
113
  8
TEAM-NET
 10
-12.062281
 20
-179.490246
 30
695.199918
 70
    32
  0
VERTEX
  5
114
  8
TEAM-NET
 10
-13.425376
 20
-178.143979
 30
695.580047
 70
    32
  0
VERTEX
  5
115
  8
TEAM-NET
 10
-14.580822
 20
-177.002798
 30
696.663019
 70
    32
  0
VERTEX
  5
116
  8
TEAM-NET
 10
-15.353724
 20
-176.239438
 30
698.285806
 70
    32
  0
VERTEX
  5
117
  8
TEAM-NET
 10
-15.625012
 20
-175.971499
 30
700.199918
 70
    32
  0
SEQEND
  5
118
  8
TEAM-NET
  0
POLYLINE
  5
119
  8
TEAM-NET
 66
     1
 10
0.0
 20
0.0
 30
0.0
 70
     8
  0
VERTEX
  5
11A
  8
TEAM-NET
 10
15.453396
 20
-175.778465
 30
700.199918
 70
    32
  0
VERTEX
  5
11B
  8
TEAM-NET
 10
15.185161
 20
-176.050053
 30
698.284784
 70
    32
  0
VERTEX
  5
11C
  8
TEAM-NET
 10
14.422092
 20
-176.822661
 30
696.663012
 70
    32
  0
VERTEX
  5
11D
  8
TEAM-NET
 10
13.280198
 20
-177.978828
 30
695.579695
 70
    32
  0
VERTEX
  5
11E
  8
TEAM-NET
 10
11.934649
 20
-179.341196
 30
695.199918
 70
    32
  0
SEQEND
  5
11F
  8
TEAM-NET
  0
POLYLINE
  5
120
  8
TEAM-NET
 66
     1
 10
0.0
 20
0.0
 30
0.0
 70
     8
  0
VERTEX
  5
121
  8
TEAM-NET
 10
10.511679
 20
-177.935794
 30
695.199918
 70
    32
  0
VERTEX
  5
122
  8
TEAM-NET
 10
11.857945
 20
-176.572699
 30
695.580047
 70
    32
  0
VERTEX
  5
123
  8
TEAM-NET
 10
12.999126
 20
-175.417253
 30
696.663019
 70
    32
  0
VERTEX
  5
124
  8
TEAM-NET
 10
13.762486
 20
-174.644351
 30
698.285806
 70
    32
  0
VERTEX
  5
125
  8
TEAM-NET
 10
14.030426
 20
-174.373063
 30
700.199918
 70
    32
  0
SEQEND
  5
126
  8
TEAM-NET
  0
POLYLINE
  5
127
  8
TEAM-NET
 66
     1
 10
0.0
 20
0.0
 30
137.738228
 70
   128
210
-0.702701
220
-0.711485
230
0.0
  0
VERTEX
  5
5BA
  8
TEAM-NET
 10
112.538431
 20
700.199918
 30
137.738228
  0
VERTEX
  5
5BB
  8
TEAM-NET
 10
112.920151
 20
698.284784
 30
137.738228
  0
VERTEX
  5
5BC
  8
TEAM-NET
 10
114.006059
 20
696.663012
 30
137.738228
  0
VERTEX
  5
5BD
  8
TEAM-NET
 10
115.631065
 20
695.579695
 30
137.738228
  0
VERTEX
  5
5BE
  8
TEAM-NET
 10
117.545889
 20
695.199918
 30
137.738228
  0
SEQEND
  5
5BF
  8
TEAM-NET
  0
POLYLINE
  5
128
  8
TEAM-NET
 66
     1
 10
0.0
 20
0.0
 30
0.0
 70
     8
  0
VERTEX
  5
129
  8
TEAM-NET
 10
15.453396
 20
-175.778465
 30
700.199918
 70
    32
  0
VERTEX
  5
12A
  8
TEAM-NET
 10
15.185161
 20
-176.050053
 30
698.284784
 70
    32
  0
VERTEX
  5
12B
  8
TEAM-NET
 10
14.422092
 20
-176.822661
 30
696.663012
 70
    32
  0
VERTEX
  5
12C
  8
TEAM-NET
 10
13.280198
 20
-177.978828
 30
695.579695
 70
    32
  0
VERTEX
  5
12D
  8
TEAM-NET
 10
11.934649
 20
-179.341196
 30
695.199918
 70
    32
  0
SEQEND
  5
12E
  8
TEAM-NET
  0
POLYLINE
  5
12F
  8
TEAM-NET
 66
     1
 10
0.0
 20
0.0
 30
0.0
 70
     8
  0
VERTEX
  5
130
  8
TEAM-NET
 10
10.511679
 20
-177.935794
 30
695.199918
 70
    32
  0
VERTEX
  5
131
  8
TEAM-NET
 10
11.857945
 20
-176.572699
 30
695.580047
 70
    32
  0
VERTEX
  5
132
  8
TEAM-NET
 10
12.999126
 20
-175.417253
 30
696.663019
 70
    32
  0
VERTEX
  5
133
  8
TEAM-NET
 10
13.762486
 20
-174.644351
 30
698.285806
 70
    32
  0
VERTEX
  5
134
  8
TEAM-NET
 10
14.030426
 20
-174.373063
 30
700.199918
 70
    32
  0
SEQEND
  5
135
  8
TEAM-NET
  0
POLYLINE
  5
136
  8
TEAM-NET
 66
     1
 10
0.0
 20
0.0
 30
0.0
 70
     8
  0
VERTEX
  5
137
  8
TEAM-NET
 10
-12.062281
 20
-179.490246
 30
695.199918
 70
    32
  0
VERTEX
  5
138
  8
TEAM-NET
 10
-13.425376
 20
-178.143979
 30
695.580047
 70
    32
  0
VERTEX
  5
139
  8
TEAM-NET
 10
-14.580822
 20
-177.002798
 30
696.663019
 70
    32
  0
VERTEX
  5
13A
  8
TEAM-NET
 10
-15.353724
 20
-176.239438
 30
698.285806
 70
    32
  0
VERTEX
  5
13B
  8
TEAM-NET
 10
-15.625012
 20
-175.971499
 30
700.199918
 70
    32
  0
SEQEND
  5
13C
  8
TEAM-NET
  0
ARC
  5
13D
  8
TEAM-NET
 10
-0.001925
 20
-190.0
 30
-724.75946
 40
26.0
210
0.0
220
0.0
230
-1.0
 50
360.0
 51
180.0
  0
ARC
  5
13E
  8
TEAM-NET
 10
-0.001925
 20
-190.0
 30
-724.75946
 40
26.0
210
0.0
220
0.0
230
-1.0
 50
180.0
 51
0.0
  0
ARC
  5
13F
  8
TEAM-NET
 10
-0.001925
 20
-190.0
 30
-724.75946
 40
26.0
210
0.0
220
0.0
230
-1.0
 50
360.0
 51
180.0
  0
ARC
  5
140
  8
TEAM-NET
 10
-0.001925
 20
-190.0
 30
-724.75946
 40
26.0
210
0.0
220
0.0
230
-1.0
 50
180.0
 51
0.0
  0
ARC
  5
141
  8
TEAM-NET
 10
0.001925
 20
-190.0
 30
725.199918
 40
21.0
 50
360.0
 51
180.0
  0
ARC
  5
142
  8
TEAM-NET
 10
0.001925
 20
-190.0
 30
725.357536
 40
22.0
 50
180.0
 51
0.0
  0
ARC
  5
143
  8
TEAM-NET
 10
0.001925
 20
-190.0
 30
725.357536
 40
22.0
 50
360.0
 51
180.0
  0
ARC
  5
144
  8
TEAM-NET
 10
0.001925
 20
-190.0
 30
725.199918
 40
21.0
 50
180.0
 51
0.0
  0
ARC
  5
145
  8
TEAM-NET
 10
0.001925
 20
-190.0
 30
727.357536
 40
27.5
 50
0.0
 51
180.0
  0
ARC
  5
146
  8
TEAM-NET
 10
0.001925
 20
-190.0
 30
727.357536
 40
27.5
 50
180.0
 51
0.0
  0
ARC
  5
147
  8
TEAM-NET
 10
0.001925
 20
-190.0
 30
725.199918
 40
21.0
 50
360.0
 51
180.0
  0
ARC
  5
148
  8
TEAM-NET
 10
0.001925
 20
-190.0
 30
725.357536
 40
22.0
 50
180.0
 51
0.0
  0
ARC
  5
149
  8
TEAM-NET
 10
0.001925
 20
-190.0
 30
725.357536
 40
22.0
 50
360.0
 51
180.0
  0
ARC
  5
14A
  8
TEAM-NET
 10
0.001925
 20
-190.0
 30
725.199918
 40
21.0
 50
180.0
 51
0.0
  0
ARC
  5
14B
  8
TEAM-NET
 10
0.001925
 20
-190.0
 30
727.357536
 40
27.5
 50
180.0
 51
0.0
  0
ARC
  5
14C
  8
TEAM-NET
 10
0.001925
 20
-190.0
 30
727.357536
 40
27.5
 50
0.0
 51
180.0
  0
ARC
  5
14D
  8
TEAM-NET
 10
-29.001925
 20
724.75946
 30
-190.0
 40
3.0
210
0.0
220
1.0
230
0.0
 50
360.0
 51
60.0
  0
ARC
  5
14E
  8
TEAM-NET
 10
-28.998075
 20
724.75946
 30
190.0
 40
3.0
210
0.0
220
-1.0
230
0.0
 50
360.0
 51
60.0
  0
ARC
  5
14F
  8
TEAM-NET
 10
-29.001925
 20
724.75946
 30
-190.0
 40
3.0
210
0.0
220
1.0
230
0.0
 50
360.0
 51
60.0
  0
ARC
  5
150
  8
TEAM-NET
 10
-28.998075
 20
724.75946
 30
190.0
 40
3.0
210
0.0
220
-1.0
230
0.0
 50
360.0
 51
60.0
  0
ARC
  5
151
  8
TEAM-NET
 10
590.001925
 20
-460.0
 30
725.032548
 40
10.0
 50
270.0
 51
360.0
  0
ARC
  5
152
  8
TEAM-NET
 10
590.001925
 20
-460.0
 30
725.032548
 40
10.0
 50
270.0
 51
360.0
  0
LINE
  5
153
  8
TEAM-NET
 10
590.001925
 20
-470.0
 30
725.032548
 11
-589.998075
 21
-470.0
 31
725.032548
210
0.0
220
-1.0
230
0.0
  0
LINE
  5
154
  8
TEAM-NET
 10
590.001925
 20
-470.0
 30
725.032548
 11
-589.998075
 21
-470.0
 31
725.032548
  0
LINE
  5
155
  8
TEAM-NET
 10
600.001925
 20
0.0
 30
725.032548
 11
600.001925
 21
-460.0
 31
725.032548
210
1.0
220
0.0
230
0.0
  0
LINE
  5
156
  8
TEAM-NET
 10
600.001925
 20
0.0
 30
725.032548
 11
600.001925
 21
-460.0
 31
725.032548
  0
LINE
  5
157
  8
TEAM-NET
 10
-563.998075
 20
-95.0
 30
715.032548
 11
564.001925
 21
-95.0
 31
715.032548
210
0.0
220
1.0
230
0.0
  0
LINE
  5
158
  8
TEAM-NET
 10
564.001925
 20
-95.0
 30
715.032548
 11
564.001925
 21
0.0
 31
715.032548
210
-1.0
220
0.0
230
0.0
  0
LINE
  5
159
  8
TEAM-NET
 10
564.001925
 20
0.0
 30
715.032548
 11
590.001925
 21
0.0
 31
715.032548
210
0.0
220
1.0
230
0.0
  0
LINE
  5
15A
  8
TEAM-NET
 10
564.001925
 20
0.0
 30
715.032548
 11
590.001925
 21
0.0
 31
715.032548
210
0.0
220
0.0
230
-1.0
  0
LINE
  5
15B
  8
TEAM-NET
 10
564.001925
 20
-95.0
 30
715.032548
 11
564.001925
 21
0.0
 31
715.032548
210
0.0
220
0.0
230
-1.0
  0
ARC
  5
15C
  8
TEAM-NET
 10
-0.001925
 20
-190.0
 30
-715.032548
 40
59.32617
210
0.0
220
0.0
230
-1.0
 50
180.0
 51
0.0
  0
ARC
  5
15D
  8
TEAM-NET
 10
-0.001925
 20
-190.0
 30
-715.032548
 40
59.32617
210
0.0
220
0.0
230
-1.0
 50
360.0
 51
180.0
  0
ARC
  5
15E
  8
TEAM-NET
 10
-0.001925
 20
-190.0
 30
-715.032548
 40
59.32617
210
0.0
220
0.0
230
-1.0
 50
360.0
 51
180.0
  0
ARC
  5
15F
  8
TEAM-NET
 10
-0.001925
 20
-190.0
 30
-715.032548
 40
59.32617
210
0.0
220
0.0
230
-1.0
 50
180.0
 51
0.0
  0
LINE
  5
160
  8
TEAM-NET
 10
-563.998075
 20
-30.0
 30
715.032548
 11
-563.998075
 21
-95.0
 31
715.032548
210
1.0
220
0.0
230
0.0
  0
LINE
  5
161
  8
TEAM-NET
 10
-599.998075
 20
0.0
 30
715.032548
 11
-564.001925
 21
0.0
 31
715.032548
210
0.0
220
1.0
230
0.0
  0
LINE
  5
162
  8
TEAM-NET
 10
-599.998075
 20
0.0
 30
715.032548
 11
-564.001925
 21
0.0
 31
715.032548
210
0.0
220
0.0
230
-1.0
  0
LINE
  5
163
  8
TEAM-NET
 10
-564.001925
 20
0.0
 30
715.032548
 11
-564.001925
 21
-30.0
 31
715.032548
210
0.0
220
0.0
230
-1.0
  0
LINE
  5
164
  8
TEAM-NET
 10
-564.001925
 20
-30.0
 30
715.032548
 11
-563.998075
 21
-30.0
 31
715.032548
210
0.0
220
0.0
230
-1.0
  0
LINE
  5
165
  8
TEAM-NET
 10
-563.998075
 20
-30.0
 30
715.032548
 11
-563.998075
 21
-95.0
 31
715.032548
210
0.0
220
0.0
230
-1.0
  0
LINE
  5
166
  8
TEAM-NET
 10
-564.001925
 20
-30.0
 30
715.032548
 11
-563.998075
 21
-30.0
 31
715.032548
210
0.0
220
1.0
230
0.0
  0
LINE
  5
167
  8
TEAM-NET
 10
-564.001925
 20
0.0
 30
715.032548
 11
-564.001925
 21
-30.0
 31
715.032548
210
1.0
220
0.0
230
0.0
  0
LINE
  5
168
  8
TEAM-NET
 10
-563.998075
 20
-95.0
 30
715.032548
 11
564.001925
 21
-95.0
 31
715.032548
210
0.0
220
0.0
230
-1.0
  0
LINE
  5
169
  8
TEAM-NET
 10
-599.998075
 20
-460.0
 30
715.032548
 11
590.001925
 21
-460.0
 31
715.032548
210
0.0
220
0.0
230
-1.0
  0
LINE
  5
16A
  8
TEAM-NET
 10
-599.998075
 20
-460.0
 30
715.032548
 11
590.001925
 21
-460.0
 31
715.032548
  0
LINE
  5
16B
  8
TEAM-NET
 10
-599.998075
 20
-460.0
 30
715.032548
 11
-599.998075
 21
0.0
 31
715.032548
210
-1.0
220
0.0
230
0.0
  0
LINE
  5
16C
  8
TEAM-NET
 10
-599.998075
 20
-460.0
 30
715.032548
 11
-599.998075
 21
0.0
 31
715.032548
210
0.0
220
0.0
230
-1.0
  0
LINE
  5
16D
  8
TEAM-NET
 10
590.001925
 20
-460.0
 30
715.032548
 11
590.001925
 21
0.0
 31
715.032548
210
0.0
220
0.0
230
-1.0
  0
LINE
  5
16E
  8
TEAM-NET
 10
590.001925
 20
-460.0
 30
715.032548
 11
590.001925
 21
0.0
 31
715.032548
  0
ARC
  5
16F
  8
TEAM-NET
 10
-590.001925
 20
725.032548
 30
0.0
 40
10.0
210
0.0
220
1.0
230
0.0
 50
180.0
 51
270.0
  0
ARC
  5
170
  8
TEAM-NET
 10
590.001925
 20
725.032548
 30
0.0
 40
10.0
210
0.0
220
-1.0
230
0.0
 50
270.0
 51
0.0
  0
ARC
  5
171
  8
TEAM-NET
 10
590.001925
 20
725.032548
 30
460.0
 40
10.0
210
0.0
220
-1.0
230
0.0
 50
270.0
 51
0.0
  0
ARC
  5
172
  8
TEAM-NET
 10
460.0
 20
725.032548
 30
-590.001925
 40
10.0
210
-1.0
220
0.0
230
0.0
 50
270.0
 51
360.0
  0
ARC
  5
173
  8
TEAM-NET
 10
590.001925
 20
725.032548
 30
460.0
 40
10.0
210
0.0
220
-1.0
230
0.0
 50
270.0
 51
0.0
  0
ARC
  5
174
  8
TEAM-NET
 10
460.0
 20
725.032548
 30
-590.001925
 40
10.0
210
-1.0
220
0.0
230
0.0
 50
270.0
 51
360.0
  0
LINE
  5
175
  8
TEAM-NET
 10
0.001925
 20
-120.0
 30
741.179471
 11
-549.998075
 21
-120.0
 31
759.522193
210
0.0
220
-1.0
230
0.0
  0
LINE
  5
176
  8
TEAM-NET
 10
0.001925
 20
-120.0
 30
741.179471
 11
-549.998075
 21
-120.0
 31
759.522193
  0
LINE
  5
177
  8
TEAM-NET
 10
550.001925
 20
-120.0
 30
759.522193
 11
0.001925
 21
-120.0
 31
741.179471
210
0.0
220
-1.0
230
0.0
  0
LINE
  5
178
  8
TEAM-NET
 10
550.001925
 20
-120.0
 30
759.522193
 11
0.001925
 21
-120.0
 31
741.179471
  0
ARC
  5
179
  8
TEAM-NET
 10
-130.0
 20
729.696619
 30
-588.994642
 40
10.0
210
0.99863
220
-0.0
230
-0.052336
 50
270.0
 51
0.0
  0
ARC
  5
17A
  8
TEAM-NET
 10
549.998075
 20
759.522193
 30
-130.0
 40
10.0
210
0.0
220
1.0
230
0.0
 50
273.0
 51
0.0
  0
ARC
  5
17B
  8
TEAM-NET
 10
549.998075
 20
759.522193
 30
-130.0
 40
10.0
210
0.0
220
1.0
230
0.0
 50
273.0
 51
0.0
  0
ARC
  5
17C
  8
TEAM-NET
 10
-130.0
 20
729.696619
 30
-588.994642
 40
10.0
210
0.99863
220
-0.0
230
-0.052336
 50
270.0
 51
0.0
  0
ARC
  5
17D
  8
TEAM-NET
 10
130.0
 20
729.696418
 30
-588.998486
 40
10.0
210
-0.99863
220
0.0
230
-0.052336
 50
180.0
 51
270.0
  0
ARC
  5
17E
  8
TEAM-NET
 10
-550.001925
 20
759.522193
 30
-130.0
 40
10.0
210
0.0
220
1.0
230
0.0
 50
180.0
 51
267.0
  0
ARC
  5
17F
  8
TEAM-NET
 10
-550.001925
 20
759.522193
 30
-130.0
 40
10.0
210
0.0
220
1.0
230
0.0
 50
180.0
 51
267.0
  0
ARC
  5
180
  8
TEAM-NET
 10
130.0
 20
729.696418
 30
-588.998486
 40
10.0
210
-0.99863
220
0.0
230
-0.052336
 50
180.0
 51
270.0
  0
LINE
  5
181
  8
TEAM-NET
 10
-549.998075
 20
-430.0
 30
759.522193
 11
0.001925
 21
-430.0
 31
741.179471
210
0.0
220
1.0
230
0.0
  0
LINE
  5
182
  8
TEAM-NET
 10
-549.998075
 20
-430.0
 30
759.522193
 11
0.001925
 21
-430.0
 31
741.179471
  0
LINE
  5
183
  8
TEAM-NET
 10
0.001925
 20
-430.0
 30
741.179471
 11
550.001925
 21
-430.0
 31
759.522193
210
0.0
220
1.0
230
0.0
  0
LINE
  5
184
  8
TEAM-NET
 10
0.001925
 20
-430.0
 30
741.179471
 11
550.001925
 21
-430.0
 31
759.522193
  0
ARC
  5
185
  8
TEAM-NET
 10
-420.0
 20
729.696619
 30
-588.994642
 40
10.0
210
0.99863
220
0.0
230
-0.052336
 50
180.0
 51
270.0
  0
ARC
  5
186
  8
TEAM-NET
 10
549.998075
 20
759.522193
 30
-420.0
 40
10.0
210
0.0
220
1.0
230
0.0
 50
273.0
 51
0.0
  0
ARC
  5
187
  8
TEAM-NET
 10
549.998075
 20
759.522193
 30
-420.0
 40
10.0
210
0.0
220
1.0
230
0.0
 50
273.0
 51
0.0
  0
ARC
  5
188
  8
TEAM-NET
 10
-420.0
 20
729.696619
 30
-588.994642
 40
10.0
210
0.99863
220
0.0
230
-0.052336
 50
180.0
 51
270.0
  0
ARC
  5
189
  8
TEAM-NET
 10
420.0
 20
729.696418
 30
-588.998486
 40
10.0
210
-0.99863
220
0.0
230
-0.052336
 50
270.0
 51
0.0
  0
ARC
  5
18A
  8
TEAM-NET
 10
550.001925
 20
759.522193
 30
420.0
 40
10.0
210
0.0
220
-1.0
230
0.0
 50
273.0
 51
0.0
  0
ARC
  5
18B
  8
TEAM-NET
 10
550.001925
 20
759.522193
 30
420.0
 40
10.0
210
0.0
220
-1.0
230
0.0
 50
273.0
 51
0.0
  0
ARC
  5
18C
  8
TEAM-NET
 10
420.0
 20
729.696418
 30
-588.998486
 40
10.0
210
-0.99863
220
0.0
230
-0.052336
 50
270.0
 51
0.0
  0
ARC
  5
18D
  8
TEAM-NET
 10
-544.001925
 20
737.4
 30
20.0
 40
20.0
210
0.0
220
-1.0
230
0.0
 50
90.0
 51
178.875836
  0
ARC
  5
18E
  8
TEAM-NET
 10
544.001925
 20
737.4
 30
0.0
 40
20.0
210
0.0
220
1.0
230
0.0
 50
0.0
 51
90.0
  0
ARC
  5
18F
  8
TEAM-NET
 10
544.001925
 20
737.4
 30
0.0
 40
20.0
210
0.0
220
1.0
230
0.0
 50
0.0
 51
90.0
  0
ARC
  5
190
  8
TEAM-NET
 10
544.001925
 20
737.4
 30
-20.0
 40
20.0
210
0.0
220
1.0
230
0.0
 50
1.124164
 51
90.0
  0
ARC
  5
191
  8
TEAM-NET
 10
544.001925
 20
737.4
 30
20.0
 40
20.0
210
0.0
220
-1.0
230
0.0
 50
0.0
 51
90.0
  0
ARC
  5
192
  8
TEAM-NET
 10
-544.001925
 20
737.4
 30
0.0
 40
20.0
210
0.0
220
1.0
230
0.0
 50
90.0
 51
180.0
  0
ARC
  5
193
  8
TEAM-NET
 10
544.001925
 20
737.4
 30
20.0
 40
20.0
210
0.0
220
-1.0
230
0.0
 50
0.0
 51
90.0
  0
ARC
  5
194
  8
TEAM-NET
 10
-544.001925
 20
737.4
 30
0.0
 40
20.0
210
0.0
220
1.0
230
0.0
 50
90.0
 51
180.0
  0
LINE
  5
195
  8
TEAM-NET
 10
0.001925
 20
-420.0
 30
731.165747
 11
-550.521435
 21
-420.0
 31
749.535898
  0
LINE
  5
196
  8
TEAM-NET
 10
0.001925
 20
-420.0
 30
731.165747
 11
-550.521435
 21
-420.0
 31
749.535898
210
0.052336
220
0.0
230
0.99863
  0
LINE
  5
197
  8
TEAM-NET
 10
550.525284
 20
-420.0
 30
749.535898
 11
0.001925
 21
-420.0
 31
731.165747
210
-0.052336
220
0.0
230
0.99863
  0
LINE
  5
198
  8
TEAM-NET
 10
550.525284
 20
-420.0
 30
749.535898
 11
0.001925
 21
-420.0
 31
731.165747
  0
LINE
  5
199
  8
TEAM-NET
 10
-550.521435
 20
-130.0
 30
749.535898
 11
0.001925
 21
-130.0
 31
731.165747
  0
LINE
  5
19A
  8
TEAM-NET
 10
-550.521435
 20
-130.0
 30
749.535898
 11
0.001925
 21
-130.0
 31
731.165747
210
0.052336
220
0.0
230
0.99863
  0
LINE
  5
19B
  8
TEAM-NET
 10
0.001925
 20
-130.0
 30
731.165747
 11
550.525284
 21
-130.0
 31
749.535898
210
-0.052336
220
0.0
230
0.99863
  0
LINE
  5
19C
  8
TEAM-NET
 10
0.001925
 20
-130.0
 30
731.165747
 11
550.525284
 21
-130.0
 31
749.535898
  0
LINE
  5
19D
  8
TEAM-NET
 10
564.001925
 20
0.0
 30
737.4
 11
564.001925
 21
-20.0
 31
737.4
210
-1.0
220
0.0
230
0.0
  0
LINE
  5
19E
  8
TEAM-NET
 10
564.001925
 20
0.0
 30
737.4
 11
564.001925
 21
-20.0
 31
737.4
  0
LINE
  5
19F
  8
TEAM-NET
 10
-14.026576
 20
-205.626937
 30
735.199918
 11
-3.443827
 21
-194.911903
 31
735.199918
210
0.711485
220
-0.702701
230
-0.0
  0
LINE
  5
1A0
  8
TEAM-NET
 10
15.628862
 20
-204.028501
 30
735.199918
 11
4.913828
 21
-193.445752
 31
735.199918
210
0.702701
220
0.711485
230
0.0
  0
LINE
  5
1A1
  8
TEAM-NET
 10
-4.866797
 20
-193.506501
 30
735.199918
 11
-15.449546
 21
-204.221535
 31
735.199918
210
-0.711485
220
0.702701
230
0.0
  0
LINE
  5
1A2
  8
TEAM-NET
 10
3.508426
 20
-194.868722
 30
735.199918
 11
14.223459
 21
-205.451471
 31
735.199918
210
-0.702701
220
-0.711485
230
-0.0
  0
LINE
  5
1A3
  8
TEAM-NET
 10
15.628862
 20
-204.028501
 30
735.199918
 11
4.913828
 21
-193.445752
 31
735.199918
210
0.0
220
0.0
230
-1.0
  0
LINE
  5
1A4
  8
TEAM-NET
 10
3.508426
 20
-194.868722
 30
735.199918
 11
14.223459
 21
-205.451471
 31
735.199918
210
0.0
220
0.0
230
-1.0
  0
LINE
  5
1A5
  8
TEAM-NET
 10
-14.026576
 20
-205.626937
 30
735.199918
 11
-3.443827
 21
-194.911903
 31
735.199918
210
0.0
220
0.0
230
-1.0
  0
LINE
  5
1A6
  8
TEAM-NET
 10
-4.866797
 20
-193.506501
 30
735.199918
 11
-15.449546
 21
-204.221535
 31
735.199918
210
0.0
220
0.0
230
-1.0
  0
ARC
  5
1A7
  8
TEAM-NET
 10
0.001925
 20
-190.0
 30
733.883576
 40
31.895533
 50
360.0
 51
180.0
  0
ARC
  5
1A8
  8
TEAM-NET
 10
0.001925
 20
-190.0
 30
733.883576
 40
32.697766
 50
180.0
 51
0.0
  0
ARC
  5
1A9
  8
TEAM-NET
 10
0.001925
 20
-190.0
 30
733.883576
 40
32.697766
 50
360.0
 51
180.0
  0
ARC
  5
1AA
  8
TEAM-NET
 10
0.001925
 20
-190.0
 30
733.883576
 40
31.895533
 50
180.0
 51
0.0
  0
ARC
  5
1AB
  8
TEAM-NET
 10
0.001925
 20
-190.0
 30
733.883576
 40
31.895533
 50
360.0
 51
180.0
  0
ARC
  5
1AC
  8
TEAM-NET
 10
0.001925
 20
-190.0
 30
733.883576
 40
32.697766
 50
180.0
 51
0.0
  0
ARC
  5
1AD
  8
TEAM-NET
 10
0.001925
 20
-190.0
 30
733.883576
 40
32.697766
 50
360.0
 51
180.0
  0
ARC
  5
1AE
  8
TEAM-NET
 10
0.001925
 20
-190.0
 30
733.883576
 40
31.895533
 50
180.0
 51
0.0
  0
ARC
  5
1AF
  8
TEAM-NET
 10
0.001925
 20
-190.0
 30
736.021838
 40
30.0
 50
270.0
 51
0.0
  0
ARC
  5
1B0
  8
TEAM-NET
 10
0.001925
 20
-190.0
 30
735.199918
 40
30.0
 50
180.0
 51
0.0
  0
ARC
  5
1B1
  8
TEAM-NET
 10
0.001925
 20
-190.0
 30
736.021838
 40
30.0
 50
180.0
 51
270.0
  0
ARC
  5
1B2
  8
TEAM-NET
 10
0.001925
 20
-190.0
 30
736.021838
 40
30.0
 50
270.0
 51
0.0
  0
ARC
  5
1B3
  8
TEAM-NET
 10
-0.001925
 20
-190.0
 30
-735.199918
 40
30.0
210
0.0
220
0.0
230
-1.0
 50
180.0
 51
0.0
  0
ARC
  5
1B4
  8
TEAM-NET
 10
-0.001925
 20
-190.0
 30
-735.199918
 40
30.0
210
0.0
220
0.0
230
-1.0
 50
0.0
 51
180.0
  0
ARC
  5
1B5
  8
TEAM-NET
 10
0.001925
 20
-190.0
 30
735.199918
 40
30.0
 50
360.0
 51
180.0
  0
ARC
  5
1B6
  8
TEAM-NET
 10
0.001925
 20
-190.0
 30
736.021838
 40
30.0
 50
180.0
 51
270.0
  0
ARC
  5
1B7
  8
TEAM-NET
 10
0.001925
 20
-190.0
 30
735.199918
 40
21.0
 50
222.626467
 51
228.085273
  0
ARC
  5
1B8
  8
TEAM-NET
 10
0.001925
 20
-190.0
 30
735.199918
 40
21.0
 50
312.626467
 51
318.085273
  0
ARC
  5
1B9
  8
TEAM-NET
 10
-0.001925
 20
-190.0
 30
-735.199918
 40
21.0
210
0.0
220
0.0
230
-1.0
 50
221.914727
 51
227.373533
  0
ARC
  5
1BA
  8
TEAM-NET
 10
-0.001925
 20
-190.0
 30
-735.199918
 40
21.0
210
0.0
220
0.0
230
-1.0
 50
311.914727
 51
317.373533
  0
ARC
  5
1BB
  8
TEAM-NET
 10
0.001925
 20
-190.0
 30
735.199918
 40
6.0
 50
54.949938
 51
125.761802
  0
ARC
  5
1BC
  8
TEAM-NET
 10
0.001925
 20
-190.0
 30
735.199918
 40
6.0
 50
144.949938
 51
215.761802
  0
LINE
  5
1BD
  8
TEAM-NET
 10
-15.625012
 20
-175.971499
 30
735.199918
 11
-4.909979
 21
-186.554248
 31
735.199918
210
-0.702701
220
-0.711485
230
-0.0
  0
ARC
  5
1BE
  8
TEAM-NET
 10
0.001925
 20
-190.0
 30
735.199918
 40
6.0
 50
324.949938
 51
35.761802
  0
LINE
  5
1BF
  8
TEAM-NET
 10
14.030426
 20
-174.373063
 30
735.199918
 11
3.447676
 21
-185.088097
 31
735.199918
210
-0.711485
220
0.702701
230
0.0
  0
ARC
  5
1C0
  8
TEAM-NET
 10
0.001925
 20
-190.0
 30
735.199918
 40
6.0
 50
234.949938
 51
305.761802
  0
ARC
  5
1C1
  8
TEAM-NET
 10
0.001925
 20
-190.0
 30
735.199918
 40
21.0
 50
42.626467
 51
48.085273
  0
LINE
  5
1C2
  8
TEAM-NET
 10
4.870646
 20
-186.493499
 30
735.199918
 11
15.453396
 21
-175.778465
 31
735.199918
210
0.711485
220
-0.702701
230
-0.0
  0
ARC
  5
1C3
  8
TEAM-NET
 10
0.001925
 20
-190.0
 30
735.199918
 40
21.0
 50
132.626467
 51
138.085273
  0
LINE
  5
1C4
  8
TEAM-NET
 10
-3.504576
 20
-185.131278
 30
735.199918
 11
-14.21961
 21
-174.548529
 31
735.199918
210
0.702701
220
0.711485
230
0.0
  0
ARC
  5
1C5
  8
TEAM-NET
 10
0.001925
 20
-190.0
 30
736.021838
 40
30.0
 50
360.0
 51
90.0
  0
LINE
  5
1C6
  8
TEAM-NET
 10
-29.998075
 20
-190.0
 30
736.021838
 11
-29.998075
 21
-190.0
 31
735.199918
  0
LINE
  5
1C7
  8
TEAM-NET
 10
30.001925
 20
-190.0
 30
736.021838
 11
30.001925
 21
-190.0
 31
735.199918
  0
ARC
  5
1C8
  8
TEAM-NET
 10
-0.001925
 20
-190.0
 30
-735.199918
 40
6.0
210
0.0
220
0.0
230
-1.0
 50
144.238198
 51
215.050062
  0
LINE
  5
1C9
  8
TEAM-NET
 10
4.870646
 20
-186.493499
 30
735.199918
 11
15.453396
 21
-175.778465
 31
735.199918
210
0.0
220
0.0
230
-1.0
  0
ARC
  5
1CA
  8
TEAM-NET
 10
-0.001925
 20
-190.0
 30
-735.199918
 40
21.0
210
0.0
220
0.0
230
-1.0
 50
131.914727
 51
137.373533
  0
ARC
  5
1CB
  8
TEAM-NET
 10
-0.001925
 20
-190.0
 30
-735.199918
 40
6.0
210
0.0
220
0.0
230
-1.0
 50
234.238198
 51
305.050062
  0
LINE
  5
1CC
  8
TEAM-NET
 10
14.030426
 20
-174.373063
 30
735.199918
 11
3.447676
 21
-185.088097
 31
735.199918
210
0.0
220
0.0
230
-1.0
  0
ARC
  5
1CD
  8
TEAM-NET
 10
-0.001925
 20
-190.0
 30
-735.199918
 40
6.0
210
0.0
220
0.0
230
-1.0
 50
54.238198
 51
125.050062
  0
LINE
  5
1CE
  8
TEAM-NET
 10
-3.504576
 20
-185.131278
 30
735.199918
 11
-14.21961
 21
-174.548529
 31
735.199918
210
0.0
220
0.0
230
-1.0
  0
ARC
  5
1CF
  8
TEAM-NET
 10
-0.001925
 20
-190.0
 30
-735.199918
 40
21.0
210
0.0
220
0.0
230
-1.0
 50
41.914727
 51
47.373533
  0
ARC
  5
1D0
  8
TEAM-NET
 10
-0.001925
 20
-190.0
 30
-735.199918
 40
6.0
210
0.0
220
0.0
230
-1.0
 50
324.238198
 51
35.050062
  0
LINE
  5
1D1
  8
TEAM-NET
 10
-15.625012
 20
-175.971499
 30
735.199918
 11
-4.909979
 21
-186.554248
 31
735.199918
210
0.0
220
0.0
230
-1.0
  0
LINE
  5
1D2
  8
TEAM-NET
 10
-29.998075
 20
-190.0
 30
736.021838
 11
-29.998075
 21
-190.0
 31
735.199918
  0
ARC
  5
1D3
  8
TEAM-NET
 10
0.001925
 20
-190.0
 30
736.021838
 40
30.0
 50
90.0
 51
180.0
  0
ARC
  5
1D4
  8
TEAM-NET
 10
0.001925
 20
-190.0
 30
736.021838
 40
30.0
 50
360.0
 51
90.0
  0
LINE
  5
1D5
  8
TEAM-NET
 10
30.001925
 20
-190.0
 30
736.021838
 11
30.001925
 21
-190.0
 31
735.199918
  0
ARC
  5
1D6
  8
TEAM-NET
 10
0.001925
 20
-190.0
 30
736.021838
 40
30.0
 50
90.0
 51
180.0
  0
LINE
  5
1D7
  8
TEAM-NET
 10
-563.998075
 20
-20.0
 30
737.792382
 11
-563.998075
 21
-30.0
 31
737.792382
210
1.0
220
0.0
230
0.0
  0
ARC
  5
1D8
  8
TEAM-NET
 10
544.001925
 20
737.4
 30
-30.0
 40
20.0
210
0.0
220
1.0
230
0.0
 50
0.0
 51
1.124164
  0
LINE
  5
1D9
  8
TEAM-NET
 10
-564.001925
 20
-30.0
 30
737.4
 11
-564.001925
 21
0.0
 31
737.4
  0
LINE
  5
1DA
  8
TEAM-NET
 10
-563.998075
 20
-20.0
 30
737.792382
 11
-563.998075
 21
-30.0
 31
737.792382
  0
ARC
  5
1DB
  8
TEAM-NET
 10
544.001925
 20
737.4
 30
-30.0
 40
20.0
210
0.0
220
1.0
230
0.0
 50
0.0
 51
1.124164
  0
LINE
  5
1DC
  8
TEAM-NET
 10
-564.001925
 20
-30.0
 30
737.4
 11
-564.001925
 21
0.0
 31
737.4
210
1.0
220
0.0
230
0.0
  0
LINE
  5
1DD
  8
TEAM-NET
 10
0.001925
 20
-224.906631
 30
731.165747
 11
0.001925
 21
-420.0
 31
731.165747
210
-0.052336
220
0.0
230
0.99863
  0
LINE
  5
1DE
  8
TEAM-NET
 10
0.001925
 20
-224.906631
 30
731.165747
 11
0.001925
 21
-420.0
 31
731.165747
210
0.052336
220
0.0
230
0.99863
  0
LINE
  5
1DF
  8
TEAM-NET
 10
0.001925
 20
-223.392732
 30
730.759706
 11
0.001925
 21
-224.906631
 31
731.165747
  0
LINE
  5
1E0
  8
TEAM-NET
 10
0.001925
 20
-223.392732
 30
730.759706
 11
0.001925
 21
-224.906631
 31
731.165747
  0
LINE
  5
1E1
  8
TEAM-NET
 10
0.001925
 20
-156.607268
 30
730.759706
 11
0.001925
 21
-155.093369
 31
731.165747
  0
LINE
  5
1E2
  8
TEAM-NET
 10
0.001925
 20
-156.607268
 30
730.759706
 11
0.001925
 21
-155.093369
 31
731.165747
  0
LINE
  5
1E3
  8
TEAM-NET
 10
0.001925
 20
-130.0
 30
731.165747
 11
0.001925
 21
-155.093369
 31
731.165747
210
-0.052336
220
0.0
230
0.99863
  0
LINE
  5
1E4
  8
TEAM-NET
 10
0.001925
 20
-130.0
 30
731.165747
 11
0.001925
 21
-155.093369
 31
731.165747
210
0.052336
220
0.0
230
0.99863
  0
POLYLINE
  5
1E5
  8
TEAM-NET
 66
     1
 10
0.0
 20
0.0
 30
0.0
 70
     8
  0
VERTEX
  5
1E6
  8
TEAM-NET
 10
36.877997
 20
-190.0
 30
732.770911
 70
    32
  0
VERTEX
  5
1E7
  8
TEAM-NET
 10
36.148615
 20
-196.942439
 30
732.731274
 70
    32
  0
VERTEX
  5
1E8
  8
TEAM-NET
 10
33.992711
 20
-203.583635
 30
732.614086
 70
    32
  0
VERTEX
  5
1E9
  8
TEAM-NET
 10
30.504131
 20
-209.635184
 30
732.424359
 70
    32
  0
VERTEX
  5
1EA
  8
TEAM-NET
 10
25.836396
 20
-214.835866
 30
732.170305
 70
    32
  0
VERTEX
  5
1EB
  8
TEAM-NET
 10
20.191847
 20
-218.960505
 30
731.862773
 70
    32
  0
VERTEX
  5
1EC
  8
TEAM-NET
 10
13.816775
 20
-221.832414
 30
731.515008
 70
    32
  0
VERTEX
  5
1ED
  8
TEAM-NET
 10
6.988444
 20
-223.330607
 30
731.141982
 70
    32
  0
VERTEX
  5
1EE
  8
TEAM-NET
 10
0.001925
 20
-223.392732
 30
730.759706
 70
    32
  0
SEQEND
  5
1EF
  8
TEAM-NET
  0
POLYLINE
  5
1F0
  8
TEAM-NET
 66
     1
 10
0.0
 20
0.0
 30
0.0
 70
     8
  0
VERTEX
  5
1F1
  8
TEAM-NET
 10
0.001925
 20
-223.392732
 30
730.759706
 70
    32
  0
VERTEX
  5
1F2
  8
TEAM-NET
 10
-6.984506
 20
-223.330533
 30
731.141977
 70
    32
  0
VERTEX
  5
1F3
  8
TEAM-NET
 10
-13.812783
 20
-221.832329
 30
731.515
 70
    32
  0
VERTEX
  5
1F4
  8
TEAM-NET
 10
-20.187681
 20
-218.960265
 30
731.862756
 70
    32
  0
VERTEX
  5
1F5
  8
TEAM-NET
 10
-25.83233
 20
-214.835556
 30
732.170293
 70
    32
  0
VERTEX
  5
1F6
  8
TEAM-NET
 10
-30.500455
 20
-209.635288
 30
732.424368
 70
    32
  0
VERTEX
  5
1F7
  8
TEAM-NET
 10
-33.989443
 20
-203.583934
 30
732.614118
 70
    32
  0
VERTEX
  5
1F8
  8
TEAM-NET
 10
-36.144963
 20
-196.942541
 30
732.731285
 70
    32
  0
VERTEX
  5
1F9
  8
TEAM-NET
 10
-36.874197
 20
-190.0
 30
732.770913
 70
    32
  0
SEQEND
  5
1FA
  8
TEAM-NET
  0
POLYLINE
  5
1FB
  8
TEAM-NET
 66
     1
 10
0.0
 20
0.0
 30
730.163811
 70
   128
210
0.052336
220
-0.0
230
0.99863
  0
VERTEX
  5
5C0
  8
TEAM-NET
 10
-155.093369
 20
38.264336
 30
730.163811
  0
VERTEX
  5
5C1
  8
TEAM-NET
 10
-155.168837
 20
45.121885
 30
730.163811
  0
VERTEX
  5
5C2
  8
TEAM-NET
 10
-156.564114
 20
51.834811
 30
730.163811
  0
VERTEX
  5
5C3
  8
TEAM-NET
 10
-159.226332
 20
58.148749
 30
730.163811
  0
VERTEX
  5
5C4
  8
TEAM-NET
 10
-163.054613
 20
63.824456
 30
730.163811
  0
VERTEX
  5
5C5
  8
TEAM-NET
 10
-167.9039
 20
68.646868
 30
730.163811
  0
VERTEX
  5
5C6
  8
TEAM-NET
 10
-173.590443
 20
72.433257
 30
730.163811
  0
VERTEX
  5
5C7
  8
TEAM-NET
 10
-179.898771
 20
75.040151
 30
730.163811
  0
VERTEX
  5
5C8
  8
TEAM-NET
 10
-186.589852
 20
76.368769
 30
730.163811
  0
VERTEX
  5
5C9
  8
TEAM-NET
 10
-193.410148
 20
76.368769
 30
730.163811
  0
VERTEX
  5
5CA
  8
TEAM-NET
 10
-200.101229
 20
75.040151
 30
730.163811
  0
VERTEX
  5
5CB
  8
TEAM-NET
 10
-206.409557
 20
72.433257
 30
730.163811
  0
VERTEX
  5
5CC
  8
TEAM-NET
 10
-212.0961
 20
68.646868
 30
730.163811
  0
VERTEX
  5
5CD
  8
TEAM-NET
 10
-216.945387
 20
63.824456
 30
730.163811
  0
VERTEX
  5
5CE
  8
TEAM-NET
 10
-220.773668
 20
58.148749
 30
730.163811
  0
VERTEX
  5
5CF
  8
TEAM-NET
 10
-223.435886
 20
51.834811
 30
730.163811
  0
VERTEX
  5
5D0
  8
TEAM-NET
 10
-224.831163
 20
45.121885
 30
730.163811
  0
VERTEX
  5
5D1
  8
TEAM-NET
 10
-224.906631
 20
38.264336
 30
730.163811
  0
SEQEND
  5
5D2
  8
TEAM-NET
  0
POLYLINE
  5
1FC
  8
TEAM-NET
 66
     1
 10
0.0
 20
0.0
 30
0.0
 70
     8
  0
VERTEX
  5
1FD
  8
TEAM-NET
 10
0.001925
 20
-223.392732
 30
730.759706
 70
    32
  0
VERTEX
  5
1FE
  8
TEAM-NET
 10
-6.984506
 20
-223.330533
 30
731.141977
 70
    32
  0
VERTEX
  5
1FF
  8
TEAM-NET
 10
-13.812783
 20
-221.832329
 30
731.515
 70
    32
  0
VERTEX
  5
200
  8
TEAM-NET
 10
-20.187681
 20
-218.960265
 30
731.862756
 70
    32
  0
VERTEX
  5
201
  8
TEAM-NET
 10
-25.83233
 20
-214.835556
 30
732.170293
 70
    32
  0
VERTEX
  5
202
  8
TEAM-NET
 10
-30.500455
 20
-209.635288
 30
732.424368
 70
    32
  0
VERTEX
  5
203
  8
TEAM-NET
 10
-33.989443
 20
-203.583934
 30
732.614118
 70
    32
  0
VERTEX
  5
204
  8
TEAM-NET
 10
-36.144963
 20
-196.942541
 30
732.731285
 70
    32
  0
VERTEX
  5
205
  8
TEAM-NET
 10
-36.874197
 20
-190.0
 30
732.770913
 70
    32
  0
SEQEND
  5
206
  8
TEAM-NET
  0
POLYLINE
  5
207
  8
TEAM-NET
 66
     1
 10
0.0
 20
0.0
 30
730.163609
 70
   128
210
-0.052336
220
-0.0
230
0.99863
  0
VERTEX
  5
5D3
  8
TEAM-NET
 10
224.906631
 20
38.268181
 30
730.163609
  0
VERTEX
  5
5D4
  8
TEAM-NET
 10
224.831163
 20
45.125729
 30
730.163609
  0
VERTEX
  5
5D5
  8
TEAM-NET
 10
223.435886
 20
51.838655
 30
730.163609
  0
VERTEX
  5
5D6
  8
TEAM-NET
 10
220.773668
 20
58.152594
 30
730.163609
  0
VERTEX
  5
5D7
  8
TEAM-NET
 10
216.945387
 20
63.8283
 30
730.163609
  0
VERTEX
  5
5D8
  8
TEAM-NET
 10
212.0961
 20
68.650712
 30
730.163609
  0
VERTEX
  5
5D9
  8
TEAM-NET
 10
206.409557
 20
72.437101
 30
730.163609
  0
VERTEX
  5
5DA
  8
TEAM-NET
 10
200.101229
 20
75.043995
 30
730.163609
  0
VERTEX
  5
5DB
  8
TEAM-NET
 10
193.410148
 20
76.372613
 30
730.163609
  0
VERTEX
  5
5DC
  8
TEAM-NET
 10
186.589852
 20
76.372613
 30
730.163609
  0
VERTEX
  5
5DD
  8
TEAM-NET
 10
179.898771
 20
75.043995
 30
730.163609
  0
VERTEX
  5
5DE
  8
TEAM-NET
 10
173.590443
 20
72.437101
 30
730.163609
  0
VERTEX
  5
5DF
  8
TEAM-NET
 10
167.9039
 20
68.650712
 30
730.163609
  0
VERTEX
  5
5E0
  8
TEAM-NET
 10
163.054613
 20
63.8283
 30
730.163609
  0
VERTEX
  5
5E1
  8
TEAM-NET
 10
159.226332
 20
58.152594
 30
730.163609
  0
VERTEX
  5
5E2
  8
TEAM-NET
 10
156.564114
 20
51.838655
 30
730.163609
  0
VERTEX
  5
5E3
  8
TEAM-NET
 10
155.168837
 20
45.125729
 30
730.163609
  0
VERTEX
  5
5E4
  8
TEAM-NET
 10
155.093369
 20
38.268181
 30
730.163609
  0
SEQEND
  5
5E5
  8
TEAM-NET
  0
POLYLINE
  5
208
  8
TEAM-NET
 66
     1
 10
0.0
 20
0.0
 30
0.0
 70
     8
  0
VERTEX
  5
209
  8
TEAM-NET
 10
36.877997
 20
-190.0
 30
732.770911
 70
    32
  0
VERTEX
  5
20A
  8
TEAM-NET
 10
36.148615
 20
-196.942439
 30
732.731274
 70
    32
  0
VERTEX
  5
20B
  8
TEAM-NET
 10
33.992711
 20
-203.583635
 30
732.614086
 70
    32
  0
VERTEX
  5
20C
  8
TEAM-NET
 10
30.504131
 20
-209.635184
 30
732.424359
 70
    32
  0
VERTEX
  5
20D
  8
TEAM-NET
 10
25.836396
 20
-214.835866
 30
732.170305
 70
    32
  0
VERTEX
  5
20E
  8
TEAM-NET
 10
20.191847
 20
-218.960505
 30
731.862773
 70
    32
  0
VERTEX
  5
20F
  8
TEAM-NET
 10
13.816775
 20
-221.832414
 30
731.515008
 70
    32
  0
VERTEX
  5
210
  8
TEAM-NET
 10
6.988444
 20
-223.330607
 30
731.141982
 70
    32
  0
VERTEX
  5
211
  8
TEAM-NET
 10
0.001925
 20
-223.392732
 30
730.759706
 70
    32
  0
SEQEND
  5
212
  8
TEAM-NET
  0
POLYLINE
  5
213
  8
TEAM-NET
 66
     1
 10
0.0
 20
0.0
 30
730.163811
 70
   128
210
0.052336
220
-0.0
230
0.99863
  0
VERTEX
  5
5E6
  8
TEAM-NET
 10
-155.093369
 20
38.264336
 30
730.163811
  0
VERTEX
  5
5E7
  8
TEAM-NET
 10
-155.168837
 20
45.121885
 30
730.163811
  0
VERTEX
  5
5E8
  8
TEAM-NET
 10
-156.564114
 20
51.834811
 30
730.163811
  0
VERTEX
  5
5E9
  8
TEAM-NET
 10
-159.226332
 20
58.148749
 30
730.163811
  0
VERTEX
  5
5EA
  8
TEAM-NET
 10
-163.054613
 20
63.824456
 30
730.163811
  0
VERTEX
  5
5EB
  8
TEAM-NET
 10
-167.9039
 20
68.646868
 30
730.163811
  0
VERTEX
  5
5EC
  8
TEAM-NET
 10
-173.590443
 20
72.433257
 30
730.163811
  0
VERTEX
  5
5ED
  8
TEAM-NET
 10
-179.898771
 20
75.040151
 30
730.163811
  0
VERTEX
  5
5EE
  8
TEAM-NET
 10
-186.589852
 20
76.368769
 30
730.163811
  0
VERTEX
  5
5EF
  8
TEAM-NET
 10
-193.410148
 20
76.368769
 30
730.163811
  0
VERTEX
  5
5F0
  8
TEAM-NET
 10
-200.101229
 20
75.040151
 30
730.163811
  0
VERTEX
  5
5F1
  8
TEAM-NET
 10
-206.409557
 20
72.433257
 30
730.163811
  0
VERTEX
  5
5F2
  8
TEAM-NET
 10
-212.0961
 20
68.646868
 30
730.163811
  0
VERTEX
  5
5F3
  8
TEAM-NET
 10
-216.945387
 20
63.824456
 30
730.163811
  0
VERTEX
  5
5F4
  8
TEAM-NET
 10
-220.773668
 20
58.148749
 30
730.163811
  0
VERTEX
  5
5F5
  8
TEAM-NET
 10
-223.435886
 20
51.834811
 30
730.163811
  0
VERTEX
  5
5F6
  8
TEAM-NET
 10
-224.831163
 20
45.121885
 30
730.163811
  0
VERTEX
  5
5F7
  8
TEAM-NET
 10
-224.906631
 20
38.264336
 30
730.163811
  0
SEQEND
  5
5F8
  8
TEAM-NET
  0
POLYLINE
  5
214
  8
TEAM-NET
 66
     1
 10
0.0
 20
0.0
 30
730.163609
 70
   128
210
-0.052336
220
-0.0
230
0.99863
  0
VERTEX
  5
5F9
  8
TEAM-NET
 10
224.906631
 20
38.268181
 30
730.163609
  0
VERTEX
  5
5FA
  8
TEAM-NET
 10
224.831163
 20
45.125729
 30
730.163609
  0
VERTEX
  5
5FB
  8
TEAM-NET
 10
223.435886
 20
51.838655
 30
730.163609
  0
VERTEX
  5
5FC
  8
TEAM-NET
 10
220.773668
 20
58.152594
 30
730.163609
  0
VERTEX
  5
5FD
  8
TEAM-NET
 10
216.945387
 20
63.8283
 30
730.163609
  0
VERTEX
  5
5FE
  8
TEAM-NET
 10
212.0961
 20
68.650712
 30
730.163609
  0
VERTEX
  5
5FF
  8
TEAM-NET
 10
206.409557
 20
72.437101
 30
730.163609
  0
VERTEX
  5
600
  8
TEAM-NET
 10
200.101229
 20
75.043995
 30
730.163609
  0
VERTEX
  5
601
  8
TEAM-NET
 10
193.410148
 20
76.372613
 30
730.163609
  0
VERTEX
  5
602
  8
TEAM-NET
 10
186.589852
 20
76.372613
 30
730.163609
  0
VERTEX
  5
603
  8
TEAM-NET
 10
179.898771
 20
75.043995
 30
730.163609
  0
VERTEX
  5
604
  8
TEAM-NET
 10
173.590443
 20
72.437101
 30
730.163609
  0
VERTEX
  5
605
  8
TEAM-NET
 10
167.9039
 20
68.650712
 30
730.163609
  0
VERTEX
  5
606
  8
TEAM-NET
 10
163.054613
 20
63.8283
 30
730.163609
  0
VERTEX
  5
607
  8
TEAM-NET
 10
159.226332
 20
58.152594
 30
730.163609
  0
VERTEX
  5
608
  8
TEAM-NET
 10
156.564114
 20
51.838655
 30
730.163609
  0
VERTEX
  5
609
  8
TEAM-NET
 10
155.168837
 20
45.125729
 30
730.163609
  0
VERTEX
  5
60A
  8
TEAM-NET
 10
155.093369
 20
38.268181
 30
730.163609
  0
SEQEND
  5
60B
  8
TEAM-NET
  0
POLYLINE
  5
215
  8
TEAM-NET
 66
     1
 10
0.0
 20
0.0
 30
0.0
 70
     8
  0
VERTEX
  5
216
  8
TEAM-NET
 10
0.001925
 20
-156.607268
 30
730.759706
 70
    32
  0
VERTEX
  5
217
  8
TEAM-NET
 10
6.988293
 20
-156.669547
 30
731.141974
 70
    32
  0
VERTEX
  5
218
  8
TEAM-NET
 10
13.816794
 20
-158.167578
 30
731.515009
 70
    32
  0
VERTEX
  5
219
  8
TEAM-NET
 10
20.191381
 20
-161.039987
 30
731.862748
 70
    32
  0
VERTEX
  5
21A
  8
TEAM-NET
 10
25.836206
 20
-165.164369
 30
732.170295
 70
    32
  0
VERTEX
  5
21B
  8
TEAM-NET
 10
30.504166
 20
-170.364754
 30
732.424361
 70
    32
  0
VERTEX
  5
21C
  8
TEAM-NET
 10
33.993236
 20
-176.416074
 30
732.614115
 70
    32
  0
VERTEX
  5
21D
  8
TEAM-NET
 10
36.148725
 20
-183.057488
 30
732.73128
 70
    32
  0
VERTEX
  5
21E
  8
TEAM-NET
 10
36.877997
 20
-190.0
 30
732.770911
 70
    32
  0
SEQEND
  5
21F
  8
TEAM-NET
  0
POLYLINE
  5
220
  8
TEAM-NET
 66
     1
 10
0.0
 20
0.0
 30
0.0
 70
     8
  0
VERTEX
  5
221
  8
TEAM-NET
 10
-36.874197
 20
-190.0
 30
732.770913
 70
    32
  0
VERTEX
  5
222
  8
TEAM-NET
 10
-36.144803
 20
-183.057559
 30
732.731276
 70
    32
  0
VERTEX
  5
223
  8
TEAM-NET
 10
-33.988899
 20
-176.416364
 30
732.614088
 70
    32
  0
VERTEX
  5
224
  8
TEAM-NET
 10
-30.500302
 20
-170.364824
 30
732.42436
 70
    32
  0
VERTEX
  5
225
  8
TEAM-NET
 10
-25.832549
 20
-165.164149
 30
732.170305
 70
    32
  0
VERTEX
  5
226
  8
TEAM-NET
 10
-20.187994
 20
-161.039509
 30
731.862773
 70
    32
  0
VERTEX
  5
227
  8
TEAM-NET
 10
-13.81292
 20
-158.167594
 30
731.515008
 70
    32
  0
VERTEX
  5
228
  8
TEAM-NET
 10
-6.984593
 20
-156.669395
 30
731.141982
 70
    32
  0
VERTEX
  5
229
  8
TEAM-NET
 10
0.001925
 20
-156.607268
 30
730.759706
 70
    32
  0
SEQEND
  5
22A
  8
TEAM-NET
  0
POLYLINE
  5
22B
  8
TEAM-NET
 66
     1
 10
0.0
 20
0.0
 30
0.0
 70
     8
  0
VERTEX
  5
22C
  8
TEAM-NET
 10
-36.874197
 20
-190.0
 30
732.770913
 70
    32
  0
VERTEX
  5
22D
  8
TEAM-NET
 10
-36.144803
 20
-183.057559
 30
732.731276
 70
    32
  0
VERTEX
  5
22E
  8
TEAM-NET
 10
-33.988899
 20
-176.416364
 30
732.614088
 70
    32
  0
VERTEX
  5
22F
  8
TEAM-NET
 10
-30.500302
 20
-170.364824
 30
732.42436
 70
    32
  0
VERTEX
  5
230
  8
TEAM-NET
 10
-25.832549
 20
-165.164149
 30
732.170305
 70
    32
  0
VERTEX
  5
231
  8
TEAM-NET
 10
-20.187994
 20
-161.039509
 30
731.862773
 70
    32
  0
VERTEX
  5
232
  8
TEAM-NET
 10
-13.81292
 20
-158.167594
 30
731.515008
 70
    32
  0
VERTEX
  5
233
  8
TEAM-NET
 10
-6.984593
 20
-156.669395
 30
731.141982
 70
    32
  0
VERTEX
  5
234
  8
TEAM-NET
 10
0.001925
 20
-156.607268
 30
730.759706
 70
    32
  0
SEQEND
  5
235
  8
TEAM-NET
  0
POLYLINE
  5
236
  8
TEAM-NET
 66
     1
 10
0.0
 20
0.0
 30
0.0
 70
     8
  0
VERTEX
  5
237
  8
TEAM-NET
 10
0.001925
 20
-156.607268
 30
730.759706
 70
    32
  0
VERTEX
  5
238
  8
TEAM-NET
 10
6.988293
 20
-156.669547
 30
731.141974
 70
    32
  0
VERTEX
  5
239
  8
TEAM-NET
 10
13.816794
 20
-158.167578
 30
731.515009
 70
    32
  0
VERTEX
  5
23A
  8
TEAM-NET
 10
20.191381
 20
-161.039987
 30
731.862748
 70
    32
  0
VERTEX
  5
23B
  8
TEAM-NET
 10
25.836206
 20
-165.164369
 30
732.170295
 70
    32
  0
VERTEX
  5
23C
  8
TEAM-NET
 10
30.504166
 20
-170.364754
 30
732.424361
 70
    32
  0
VERTEX
  5
23D
  8
TEAM-NET
 10
33.993236
 20
-176.416074
 30
732.614115
 70
    32
  0
VERTEX
  5
23E
  8
TEAM-NET
 10
36.148725
 20
-183.057488
 30
732.73128
 70
    32
  0
VERTEX
  5
23F
  8
TEAM-NET
 10
36.877997
 20
-190.0
 30
732.770911
 70
    32
  0
SEQEND
  5
240
  8
TEAM-NET
  0
ARC
  5
241
  8
TEAM-NET
 10
-190.646429
 20
649.050622
 30
0.001925
 40
91.7912
210
1.0
220
0.0
230
0.0
 50
89.596498
 51
108.650003
  0
ARC
  5
242
  8
TEAM-NET
 10
-190.646429
 20
649.050622
 30
0.001925
 40
91.7912
210
1.0
220
0.0
230
0.0
 50
89.596498
 51
108.650003
  0
ARC
  5
243
  8
TEAM-NET
 10
189.353571
 20
649.050622
 30
-0.001925
 40
91.7912
210
-1.0
220
0.0
230
0.0
 50
89.596498
 51
108.650003
  0
ARC
  5
244
  8
TEAM-NET
 10
189.353571
 20
649.050622
 30
-0.001925
 40
91.7912
210
-1.0
220
0.0
230
0.0
 50
89.596498
 51
108.650003
  0
POLYLINE
  5
245
  8
TEAM-NET
 66
     1
 10
0.0
 20
0.0
 30
0.001925
 70
   128
210
1.0
220
0.0
230
0.0
  0
VERTEX
  5
60C
  8
TEAM-NET
 10
-430.0
 20
741.179471
 30
0.001925
  0
VERTEX
  5
60D
  8
TEAM-NET
 10
-429.848078
 20
739.440606
 30
0.001925
  0
VERTEX
  5
60E
  8
TEAM-NET
 10
-429.396926
 20
737.754576
 30
0.001925
  0
VERTEX
  5
60F
  8
TEAM-NET
 10
-428.660254
 20
736.172609
 30
0.001925
  0
VERTEX
  5
610
  8
TEAM-NET
 10
-427.660444
 20
734.742773
 30
0.001925
  0
VERTEX
  5
611
  8
TEAM-NET
 10
-426.427876
 20
733.508513
 30
0.001925
  0
VERTEX
  5
612
  8
TEAM-NET
 10
-425.0
 20
732.507332
 30
0.001925
  0
VERTEX
  5
613
  8
TEAM-NET
 10
-423.420201
 20
731.769649
 30
0.001925
  0
VERTEX
  5
614
  8
TEAM-NET
 10
-421.736482
 20
731.317878
 30
0.001925
  0
VERTEX
  5
615
  8
TEAM-NET
 10
-420.0
 20
731.165747
 30
0.001925
  0
SEQEND
  5
616
  8
TEAM-NET
  0
POLYLINE
  5
246
  8
TEAM-NET
 66
     1
 10
0.0
 20
0.0
 30
0.001925
 70
   128
210
1.0
220
0.0
230
0.0
  0
VERTEX
  5
617
  8
TEAM-NET
 10
-430.0
 20
741.179471
 30
0.001925
  0
VERTEX
  5
618
  8
TEAM-NET
 10
-429.848078
 20
739.440606
 30
0.001925
  0
VERTEX
  5
619
  8
TEAM-NET
 10
-429.396926
 20
737.754576
 30
0.001925
  0
VERTEX
  5
61A
  8
TEAM-NET
 10
-428.660254
 20
736.172609
 30
0.001925
  0
VERTEX
  5
61B
  8
TEAM-NET
 10
-427.660444
 20
734.742773
 30
0.001925
  0
VERTEX
  5
61C
  8
TEAM-NET
 10
-426.427876
 20
733.508513
 30
0.001925
  0
VERTEX
  5
61D
  8
TEAM-NET
 10
-425.0
 20
732.507332
 30
0.001925
  0
VERTEX
  5
61E
  8
TEAM-NET
 10
-423.420201
 20
731.769649
 30
0.001925
  0
VERTEX
  5
61F
  8
TEAM-NET
 10
-421.736482
 20
731.317878
 30
0.001925
  0
VERTEX
  5
620
  8
TEAM-NET
 10
-420.0
 20
731.165747
 30
0.001925
  0
SEQEND
  5
621
  8
TEAM-NET
  0
POLYLINE
  5
247
  8
TEAM-NET
 66
     1
 10
0.0
 20
0.0
 30
0.001925
 70
   128
210
1.0
220
0.0
230
0.0
  0
VERTEX
  5
622
  8
TEAM-NET
 10
-130.0
 20
731.165747
 30
0.001925
  0
VERTEX
  5
623
  8
TEAM-NET
 10
-128.049097
 20
731.358158
 30
0.001925
  0
VERTEX
  5
624
  8
TEAM-NET
 10
-126.173166
 20
731.927997
 30
0.001925
  0
VERTEX
  5
625
  8
TEAM-NET
 10
-124.444298
 20
732.853364
 30
0.001925
  0
VERTEX
  5
626
  8
TEAM-NET
 10
-122.928932
 20
734.098699
 30
0.001925
  0
VERTEX
  5
627
  8
TEAM-NET
 10
-121.685304
 20
735.616144
 30
0.001925
  0
VERTEX
  5
628
  8
TEAM-NET
 10
-120.761205
 20
737.347385
 30
0.001925
  0
VERTEX
  5
629
  8
TEAM-NET
 10
-120.192147
 20
739.22589
 30
0.001925
  0
VERTEX
  5
62A
  8
TEAM-NET
 10
-120.0
 20
741.179471
 30
0.001925
  0
SEQEND
  5
62B
  8
TEAM-NET
  0
POLYLINE
  5
248
  8
TEAM-NET
 66
     1
 10
0.0
 20
0.0
 30
0.001925
 70
   128
210
1.0
220
0.0
230
0.0
  0
VERTEX
  5
62C
  8
TEAM-NET
 10
-130.0
 20
731.165747
 30
0.001925
  0
VERTEX
  5
62D
  8
TEAM-NET
 10
-128.049097
 20
731.358158
 30
0.001925
  0
VERTEX
  5
62E
  8
TEAM-NET
 10
-126.173166
 20
731.927997
 30
0.001925
  0
VERTEX
  5
62F
  8
TEAM-NET
 10
-124.444298
 20
732.853364
 30
0.001925
  0
VERTEX
  5
630
  8
TEAM-NET
 10
-122.928932
 20
734.098699
 30
0.001925
  0
VERTEX
  5
631
  8
TEAM-NET
 10
-121.685304
 20
735.616144
 30
0.001925
  0
VERTEX
  5
632
  8
TEAM-NET
 10
-120.761205
 20
737.347385
 30
0.001925
  0
VERTEX
  5
633
  8
TEAM-NET
 10
-120.192147
 20
739.22589
 30
0.001925
  0
VERTEX
  5
634
  8
TEAM-NET
 10
-120.0
 20
741.179471
 30
0.001925
  0
SEQEND
  5
635
  8
TEAM-NET
  0
LINE
  5
249
  8
TEAM-NET
 10
560.001925
 20
-420.0
 30
759.522193
 11
560.001925
 21
-130.0
 31
759.522193
210
-1.0
220
0.0
230
0.0
  0
LINE
  5
24A
  8
TEAM-NET
 10
560.001925
 20
-420.0
 30
759.522193
 11
560.001925
 21
-130.0
 31
759.522193
  0
ARC
  5
24B
  8
TEAM-NET
 10
550.001925
 20
-420.0
 30
759.522193
 40
10.0
 50
270.0
 51
0.0
  0
ARC
  5
24C
  8
TEAM-NET
 10
550.001925
 20
-420.0
 30
759.522193
 40
10.0
 50
270.0
 51
0.0
  0
ARC
  5
24D
  8
TEAM-NET
 10
550.001925
 20
-130.0
 30
759.522193
 40
10.0
 50
0.0
 51
90.0
  0
LINE
  5
24E
  8
TEAM-NET
 10
544.001925
 20
-20.0
 30
757.4
 11
544.001925
 21
0.0
 31
757.4
  0
LINE
  5
24F
  8
TEAM-NET
 10
544.001925
 20
-20.0
 30
757.4
 11
544.001925
 21
0.0
 31
757.4
210
0.0
220
0.0
230
-1.0
  0
ARC
  5
250
  8
TEAM-NET
 10
550.001925
 20
-130.0
 30
759.522193
 40
10.0
 50
0.0
 51
90.0
  0
LINE
  5
251
  8
TEAM-NET
 10
-559.998075
 20
-130.0
 30
759.522193
 11
-559.998075
 21
-420.0
 31
759.522193
210
1.0
220
0.0
230
0.0
  0
LINE
  5
252
  8
TEAM-NET
 10
-559.998075
 20
-130.0
 30
759.522193
 11
-559.998075
 21
-420.0
 31
759.522193
  0
ARC
  5
253
  8
TEAM-NET
 10
-549.998075
 20
-420.0
 30
759.522193
 40
10.0
 50
180.0
 51
270.0
  0
ARC
  5
254
  8
TEAM-NET
 10
-549.998075
 20
-420.0
 30
759.522193
 40
10.0
 50
180.0
 51
270.0
  0
ARC
  5
255
  8
TEAM-NET
 10
-549.998075
 20
-130.0
 30
759.522193
 40
10.0
 50
90.0
 51
180.0
  0
LINE
  5
256
  8
TEAM-NET
 10
-544.001925
 20
0.0
 30
757.4
 11
-544.001925
 21
-20.0
 31
757.4
  0
LINE
  5
257
  8
TEAM-NET
 10
-544.001925
 20
0.0
 30
757.4
 11
-544.001925
 21
-20.0
 31
757.4
210
0.0
220
0.0
230
-1.0
  0
ARC
  5
258
  8
TEAM-NET
 10
-549.998075
 20
-130.0
 30
759.522193
 40
10.0
 50
90.0
 51
180.0
  0
LINE
  5
259
  8
TEAM-NET
 10
-544.001925
 20
-20.0
 30
757.4
 11
544.001925
 21
-20.0
 31
757.4
210
0.0
220
-1.0
230
0.0
  0
LINE
  5
25A
  8
TEAM-NET
 10
544.001925
 20
0.0
 30
757.4
 11
-544.001925
 21
0.0
 31
757.4
210
0.0
220
1.0
230
0.0
  0
LINE
  5
25B
  8
TEAM-NET
 10
544.001925
 20
0.0
 30
757.4
 11
-544.001925
 21
0.0
 31
757.4
210
0.0
220
0.0
230
-1.0
  0
LINE
  5
25C
  8
TEAM-NET
 10
-544.001925
 20
-20.0
 30
757.4
 11
544.001925
 21
-20.0
 31
757.4
210
0.0
220
0.0
230
-1.0
  0
LINE
  5
25D
  8
TEAM-NET
 10
550.525284
 20
-130.0
 30
749.535898
 11
550.525284
 21
-420.0
 31
749.535898
210
-0.052336
220
0.0
230
0.99863
  0
LINE
  5
25E
  8
TEAM-NET
 10
550.525284
 20
-130.0
 30
749.535898
 11
550.525284
 21
-420.0
 31
749.535898
  0
LINE
  5
25F
  8
TEAM-NET
 10
-550.521435
 20
-420.0
 30
749.535898
 11
-550.521435
 21
-130.0
 31
749.535898
210
0.052336
220
0.0
230
0.99863
  0
LINE
  5
260
  8
TEAM-NET
 10
-550.521435
 20
-420.0
 30
749.535898
 11
-550.521435
 21
-130.0
 31
749.535898
  0
ARC
  5
261
  8
TEAM-NET
 10
140.001925
 20
795.032548
 30
20.0
 40
10.0
210
0.0
220
-1.0
230
0.0
 50
180.0
 51
0.0
  0
ARC
  5
262
  8
TEAM-NET
 10
140.001925
 20
795.032548
 30
20.0
 40
10.0
210
0.0
220
-1.0
230
0.0
 50
360.0
 51
180.0
  0
ARC
  5
263
  8
TEAM-NET
 10
-139.998075
 20
795.032548
 30
20.0
 40
10.0
210
0.0
220
-1.0
230
0.0
 50
180.0
 51
0.0
  0
ARC
  5
264
  8
TEAM-NET
 10
-139.998075
 20
795.032548
 30
20.0
 40
10.0
210
0.0
220
-1.0
230
0.0
 50
360.0
 51
180.0
  0
ARC
  5
265
  8
TEAM-NET
 10
-140.001925
 20
795.032548
 30
0.0
 40
10.0
210
0.0
220
1.0
230
0.0
 50
0.0
 51
180.0
  0
ARC
  5
266
  8
TEAM-NET
 10
-140.001925
 20
795.032548
 30
0.0
 40
10.0
210
0.0
220
1.0
230
0.0
 50
180.0
 51
0.0
  0
ARC
  5
267
  8
TEAM-NET
 10
139.998075
 20
795.032548
 30
0.0
 40
10.0
210
0.0
220
1.0
230
0.0
 50
0.0
 51
180.0
  0
ARC
  5
268
  8
TEAM-NET
 10
139.998075
 20
795.032548
 30
0.0
 40
10.0
210
0.0
220
1.0
230
0.0
 50
180.0
 51
0.0
  0
ARC
  5
269
  8
TEAM-NET
 10
-139.998075
 20
795.032548
 30
0.0
 40
10.0
210
0.0
220
-1.0
230
0.0
 50
360.0
 51
180.0
  0
ARC
  5
26A
  8
TEAM-NET
 10
139.998075
 20
795.032548
 30
-20.0
 40
10.0
210
0.0
220
1.0
230
0.0
 50
0.0
 51
180.0
  0
ARC
  5
26B
  8
TEAM-NET
 10
140.001925
 20
795.032548
 30
0.0
 40
10.0
210
0.0
220
-1.0
230
0.0
 50
360.0
 51
180.0
  0
ARC
  5
26C
  8
TEAM-NET
 10
-140.001925
 20
795.032548
 30
-20.0
 40
10.0
210
0.0
220
1.0
230
0.0
 50
0.0
 51
180.0
  0
ARC
  5
26D
  8
TEAM-NET
 10
-140.001925
 20
795.032548
 30
-20.0
 40
10.0
210
0.0
220
1.0
230
0.0
 50
180.0
 51
0.0
  0
ARC
  5
26E
  8
TEAM-NET
 10
140.001925
 20
795.032548
 30
0.0
 40
10.0
210
0.0
220
-1.0
230
0.0
 50
180.0
 51
0.0
  0
ARC
  5
26F
  8
TEAM-NET
 10
139.998075
 20
795.032548
 30
-20.0
 40
10.0
210
0.0
220
1.0
230
0.0
 50
180.0
 51
0.0
  0
ARC
  5
270
  8
TEAM-NET
 10
-139.998075
 20
795.032548
 30
0.0
 40
10.0
210
0.0
220
-1.0
230
0.0
 50
180.0
 51
0.0
  0
ARC
  5
271
  8
TEAM-NET
 10
117.0
 20
804.532548
 30
1.181801
 40
3.0
210
-1.0
220
0.0
230
0.0
 50
0.0
 51
90.0
  0
ARC
  5
272
  8
TEAM-NET
 10
117.0
 20
804.532548
 30
1.181801
 40
3.0
210
-1.0
220
0.0
230
0.0
 50
0.0
 51
90.0
  0
LINE
  5
273
  8
TEAM-NET
 10
130.001925
 20
0.0
 30
795.032548
 11
130.001925
 21
-20.0
 31
795.032548
  0
LINE
  5
274
  8
TEAM-NET
 10
150.001925
 20
0.0
 30
795.032548
 11
150.001925
 21
-20.0
 31
795.032548
  0
LINE
  5
275
  8
TEAM-NET
 10
130.001925
 20
0.0
 30
795.032548
 11
130.001925
 21
-20.0
 31
795.032548
  0
LINE
  5
276
  8
TEAM-NET
 10
150.001925
 20
0.0
 30
795.032548
 11
150.001925
 21
-20.0
 31
795.032548
  0
LINE
  5
277
  8
TEAM-NET
 10
-149.998075
 20
0.0
 30
795.032548
 11
-149.998075
 21
-20.0
 31
795.032548
  0
LINE
  5
278
  8
TEAM-NET
 10
-129.998075
 20
0.0
 30
795.032548
 11
-129.998075
 21
-20.0
 31
795.032548
  0
LINE
  5
279
  8
TEAM-NET
 10
-149.998075
 20
0.0
 30
795.032548
 11
-149.998075
 21
-20.0
 31
795.032548
  0
LINE
  5
27A
  8
TEAM-NET
 10
-129.998075
 20
0.0
 30
795.032548
 11
-129.998075
 21
-20.0
 31
795.032548
  0
ARC
  5
27B
  8
TEAM-NET
 10
565.001925
 20
845.032548
 30
420.0
 40
5.0
210
0.0
220
-1.0
230
0.0
 50
90.0
 51
180.0
  0
ARC
  5
27C
  8
TEAM-NET
 10
565.001925
 20
845.032548
 30
420.0
 40
5.0
210
0.0
220
-1.0
230
0.0
 50
90.0
 51
180.0
  0
ARC
  5
27D
  8
TEAM-NET
 10
565.001925
 20
845.032548
 30
130.0
 40
5.0
210
0.0
220
-1.0
230
0.0
 50
90.0
 51
180.0
  0
ARC
  5
27E
  8
TEAM-NET
 10
-115.0
 20
845.032548
 30
550.001925
 40
5.0
210
1.0
220
0.0
230
0.0
 50
90.0
 51
180.0
  0
ARC
  5
27F
  8
TEAM-NET
 10
-115.0
 20
845.032548
 30
550.001925
 40
5.0
210
1.0
220
0.0
230
0.0
 50
90.0
 51
180.0
  0
ARC
  5
280
  8
TEAM-NET
 10
565.001925
 20
845.032548
 30
130.0
 40
5.0
210
0.0
220
-1.0
230
0.0
 50
90.0
 51
180.0
  0
ARC
  5
281
  8
TEAM-NET
 10
-564.998075
 20
845.032548
 30
420.0
 40
5.0
210
0.0
220
-1.0
230
0.0
 50
0.0
 51
90.0
  0
ARC
  5
282
  8
TEAM-NET
 10
-564.998075
 20
845.032548
 30
420.0
 40
5.0
210
0.0
220
-1.0
230
0.0
 50
0.0
 51
90.0
  0
ARC
  5
283
  8
TEAM-NET
 10
-564.998075
 20
845.032548
 30
130.0
 40
5.0
210
0.0
220
-1.0
230
0.0
 50
0.0
 51
90.0
  0
ARC
  5
284
  8
TEAM-NET
 10
115.0
 20
845.032548
 30
549.998075
 40
5.0
210
-1.0
220
0.0
230
0.0
 50
0.0
 51
90.0
  0
ARC
  5
285
  8
TEAM-NET
 10
115.0
 20
845.032548
 30
549.998075
 40
5.0
210
-1.0
220
0.0
230
0.0
 50
0.0
 51
90.0
  0
ARC
  5
286
  8
TEAM-NET
 10
-564.998075
 20
845.032548
 30
130.0
 40
5.0
210
0.0
220
-1.0
230
0.0
 50
0.0
 51
90.0
  0
ARC
  5
287
  8
TEAM-NET
 10
589.998075
 20
840.032548
 30
0.0
 40
10.0
210
0.0
220
1.0
230
0.0
 50
0.0
 51
90.0
  0
ARC
  5
288
  8
TEAM-NET
 10
-589.998075
 20
840.032548
 30
0.0
 40
10.0
210
0.0
220
-1.0
230
0.0
 50
90.0
 51
180.0
  0
ARC
  5
289
  8
TEAM-NET
 10
-590.001925
 20
840.032548
 30
0.0
 40
10.0
210
0.0
220
1.0
230
0.0
 50
90.0
 51
180.0
  0
ARC
  5
28A
  8
TEAM-NET
 10
590.001925
 20
840.032548
 30
0.0
 40
10.0
210
0.0
220
-1.0
230
0.0
 50
0.0
 51
90.0
  0
ARC
  5
28B
  8
TEAM-NET
 10
589.998075
 20
840.032548
 30
-460.0
 40
10.0
210
0.0
220
1.0
230
0.0
 50
360.0
 51
90.0
  0
ARC
  5
28C
  8
TEAM-NET
 10
460.0
 20
840.032548
 30
589.998075
 40
10.0
210
-1.0
220
0.0
230
0.0
 50
0.0
 51
90.0
  0
ARC
  5
28D
  8
TEAM-NET
 10
460.0
 20
840.032548
 30
589.998075
 40
10.0
210
-1.0
220
0.0
230
0.0
 50
0.0
 51
90.0
  0
ARC
  5
28E
  8
TEAM-NET
 10
589.998075
 20
840.032548
 30
-460.0
 40
10.0
210
0.0
220
1.0
230
0.0
 50
360.0
 51
90.0
  0
ARC
  5
28F
  8
TEAM-NET
 10
590.001925
 20
840.032548
 30
460.0
 40
10.0
210
0.0
220
-1.0
230
0.0
 50
0.0
 51
90.0
  0
ARC
  5
290
  8
TEAM-NET
 10
460.0
 20
840.032548
 30
-590.001925
 40
10.0
210
-1.0
220
0.0
230
0.0
 50
360.0
 51
90.0
  0
ARC
  5
291
  8
TEAM-NET
 10
590.001925
 20
840.032548
 30
460.0
 40
10.0
210
0.0
220
-1.0
230
0.0
 50
0.0
 51
90.0
  0
ARC
  5
292
  8
TEAM-NET
 10
460.0
 20
840.032548
 30
-590.001925
 40
10.0
210
-1.0
220
0.0
230
0.0
 50
360.0
 51
90.0
  0
ARC
  5
293
  8
TEAM-NET
 10
-435.0
 20
845.032548
 30
-549.998075
 40
5.0
210
1.0
220
0.0
230
0.0
 50
0.0
 51
90.0
  0
ARC
  5
294
  8
TEAM-NET
 10
-435.0
 20
845.032548
 30
-549.998075
 40
5.0
210
1.0
220
0.0
230
0.0
 50
0.0
 51
90.0
  0
ARC
  5
295
  8
TEAM-NET
 10
435.0
 20
845.032548
 30
-550.001925
 40
5.0
210
-1.0
220
0.0
230
0.0
 50
90.0
 51
180.0
  0
ARC
  5
296
  8
TEAM-NET
 10
435.0
 20
845.032548
 30
-550.001925
 40
5.0
210
-1.0
220
0.0
230
0.0
 50
90.0
 51
180.0
  0
ARC
  5
297
  8
TEAM-NET
 10
-1.181801
 20
820.032548
 30
120.0
 40
15.5
210
0.0
220
-1.0
230
0.0
 50
360.0
 51
90.0
  0
ARC
  5
298
  8
TEAM-NET
 10
1.181801
 20
820.032548
 30
-117.0
 40
12.5
210
0.0
220
1.0
230
0.0
 50
0.0
 51
90.0
  0
ARC
  5
299
  8
TEAM-NET
 10
1.181801
 20
820.032548
 30
-117.0
 40
12.5
210
0.0
220
1.0
230
0.0
 50
90.0
 51
180.0
  0
ARC
  5
29A
  8
TEAM-NET
 10
1.181801
 20
820.032548
 30
-117.0
 40
12.5
210
0.0
220
1.0
230
0.0
 50
90.0
 51
180.0
  0
ARC
  5
29B
  8
TEAM-NET
 10
-1.181801
 20
820.032548
 30
120.0
 40
15.5
210
0.0
220
-1.0
230
0.0
 50
360.0
 51
90.0
  0
ARC
  5
29C
  8
TEAM-NET
 10
1.181801
 20
820.032548
 30
-117.0
 40
12.5
210
0.0
220
1.0
230
0.0
 50
0.0
 51
90.0
  0
LINE
  5
29D
  8
TEAM-NET
 10
564.001925
 20
-20.0
 30
820.032548
 11
564.001925
 21
-95.0
 31
820.032548
210
-1.0
220
0.0
230
0.0
  0
LINE
  5
29E
  8
TEAM-NET
 10
564.001925
 20
-20.0
 30
820.032548
 11
564.001925
 21
-95.0
 31
820.032548
210
0.0
220
0.0
230
-1.0
  0
LINE
  5
29F
  8
TEAM-NET
 10
-563.998075
 20
-95.0
 30
820.032548
 11
-563.998075
 21
-20.0
 31
820.032548
210
1.0
220
0.0
230
0.0
  0
LINE
  5
2A0
  8
TEAM-NET
 10
-13.681801
 20
-117.0
 30
820.032548
 11
-13.681801
 21
-105.0
 31
820.032548
  0
LINE
  5
2A1
  8
TEAM-NET
 10
11.318199
 20
-117.0
 30
820.032548
 11
11.318199
 21
-105.0
 31
820.032548
  0
LINE
  5
2A2
  8
TEAM-NET
 10
-563.998075
 20
-95.0
 30
820.032548
 11
-563.998075
 21
-20.0
 31
820.032548
210
0.0
220
0.0
230
-1.0
  0
LINE
  5
2A3
  8
TEAM-NET
 10
-13.681801
 20
-117.0
 30
820.032548
 11
-13.681801
 21
-105.0
 31
820.032548
  0
LINE
  5
2A4
  8
TEAM-NET
 10
11.318199
 20
-117.0
 30
820.032548
 11
11.318199
 21
-105.0
 31
820.032548
  0
LINE
  5
2A5
  8
TEAM-NET
 10
564.001925
 20
-95.0
 30
820.032548
 11
-563.998075
 21
-95.0
 31
820.032548
210
0.0
220
1.0
230
0.0
  0
LINE
  5
2A6
  8
TEAM-NET
 10
-563.998075
 20
-20.0
 30
820.032548
 11
564.001925
 21
-20.0
 31
820.032548
210
0.0
220
-1.0
230
0.0
  0
LINE
  5
2A7
  8
TEAM-NET
 10
564.001925
 20
-95.0
 30
820.032548
 11
-563.998075
 21
-95.0
 31
820.032548
210
0.0
220
0.0
230
-1.0
  0
LINE
  5
2A8
  8
TEAM-NET
 10
-563.998075
 20
-20.0
 30
820.032548
 11
564.001925
 21
-20.0
 31
820.032548
210
0.0
220
0.0
230
-1.0
  0
LINE
  5
2A9
  8
TEAM-NET
 10
560.001925
 20
-130.0
 30
845.032548
 11
560.001925
 21
-420.0
 31
845.032548
210
-1.0
220
0.0
230
0.0
  0
LINE
  5
2AA
  8
TEAM-NET
 10
560.001925
 20
-130.0
 30
845.032548
 11
560.001925
 21
-420.0
 31
845.032548
  0
ARC
  5
2AB
  8
TEAM-NET
 10
-550.001925
 20
-420.0
 30
-845.032548
 40
10.0
210
0.0
220
0.0
230
-1.0
 50
180.0
 51
270.0
  0
ARC
  5
2AC
  8
TEAM-NET
 10
-550.001925
 20
-420.0
 30
-845.032548
 40
10.0
210
0.0
220
0.0
230
-1.0
 50
180.0
 51
270.0
  0
ARC
  5
2AD
  8
TEAM-NET
 10
-550.001925
 20
-130.0
 30
-845.032548
 40
10.0
210
0.0
220
0.0
230
-1.0
 50
90.0
 51
180.0
  0
ARC
  5
2AE
  8
TEAM-NET
 10
-550.001925
 20
-130.0
 30
-845.032548
 40
10.0
210
0.0
220
0.0
230
-1.0
 50
90.0
 51
180.0
  0
LINE
  5
2AF
  8
TEAM-NET
 10
-559.998075
 20
-420.0
 30
845.032548
 11
-559.998075
 21
-130.0
 31
845.032548
210
1.0
220
0.0
230
0.0
  0
LINE
  5
2B0
  8
TEAM-NET
 10
-559.998075
 20
-420.0
 30
845.032548
 11
-559.998075
 21
-130.0
 31
845.032548
  0
ARC
  5
2B1
  8
TEAM-NET
 10
549.998075
 20
-420.0
 30
-845.032548
 40
10.0
210
0.0
220
0.0
230
-1.0
 50
270.0
 51
0.0
  0
ARC
  5
2B2
  8
TEAM-NET
 10
549.998075
 20
-420.0
 30
-845.032548
 40
10.0
210
0.0
220
0.0
230
-1.0
 50
270.0
 51
0.0
  0
ARC
  5
2B3
  8
TEAM-NET
 10
549.998075
 20
-130.0
 30
-845.032548
 40
10.0
210
0.0
220
0.0
230
-1.0
 50
0.0
 51
90.0
  0
ARC
  5
2B4
  8
TEAM-NET
 10
549.998075
 20
-130.0
 30
-845.032548
 40
10.0
210
0.0
220
0.0
230
-1.0
 50
0.0
 51
90.0
  0
LINE
  5
2B5
  8
TEAM-NET
 10
550.001925
 20
-430.0
 30
845.032548
 11
-549.998075
 21
-430.0
 31
845.032548
210
0.0
220
1.0
230
0.0
  0
LINE
  5
2B6
  8
TEAM-NET
 10
550.001925
 20
-430.0
 30
845.032548
 11
-549.998075
 21
-430.0
 31
845.032548
  0
LINE
  5
2B7
  8
TEAM-NET
 10
-549.998075
 20
-120.0
 30
845.032548
 11
550.001925
 21
-120.0
 31
845.032548
210
0.0
220
-1.0
230
0.0
  0
LINE
  5
2B8
  8
TEAM-NET
 10
-549.998075
 20
-120.0
 30
845.032548
 11
550.001925
 21
-120.0
 31
845.032548
  0
ARC
  5
2B9
  8
TEAM-NET
 10
-117.0
 20
835.532548
 30
-1.181801
 40
3.0
210
1.0
220
0.0
230
0.0
 50
180.0
 51
270.0
  0
ARC
  5
2BA
  8
TEAM-NET
 10
-117.0
 20
835.532548
 30
-1.181801
 40
3.0
210
1.0
220
0.0
230
0.0
 50
180.0
 51
270.0
  0
ARC
  5
2BB
  8
TEAM-NET
 10
590.001925
 20
-460.0
 30
840.032548
 40
10.0
 50
270.0
 51
0.0
  0
ARC
  5
2BC
  8
TEAM-NET
 10
590.001925
 20
-460.0
 30
840.032548
 40
10.0
 50
270.0
 51
0.0
  0
ARC
  5
2BD
  8
TEAM-NET
 10
-589.998075
 20
-460.0
 30
840.032548
 40
10.0
 50
180.0
 51
270.0
  0
ARC
  5
2BE
  8
TEAM-NET
 10
-589.998075
 20
-460.0
 30
840.032548
 40
10.0
 50
180.0
 51
270.0
  0
LINE
  5
2BF
  8
TEAM-NET
 10
-589.998075
 20
-470.0
 30
840.032548
 11
590.001925
 21
-470.0
 31
840.032548
210
0.0
220
-1.0
230
0.0
  0
LINE
  5
2C0
  8
TEAM-NET
 10
-589.998075
 20
-470.0
 30
840.032548
 11
590.001925
 21
-470.0
 31
840.032548
  0
LINE
  5
2C1
  8
TEAM-NET
 10
-599.998075
 20
0.0
 30
840.032548
 11
-599.998075
 21
-460.0
 31
840.032548
210
-1.0
220
0.0
230
0.0
  0
LINE
  5
2C2
  8
TEAM-NET
 10
-599.998075
 20
0.0
 30
840.032548
 11
-599.998075
 21
-460.0
 31
840.032548
  0
LINE
  5
2C3
  8
TEAM-NET
 10
600.001925
 20
-460.0
 30
840.032548
 11
600.001925
 21
0.0
 31
840.032548
210
1.0
220
0.0
230
0.0
  0
LINE
  5
2C4
  8
TEAM-NET
 10
600.001925
 20
-460.0
 30
840.032548
 11
600.001925
 21
0.0
 31
840.032548
  0
LINE
  5
2C5
  8
TEAM-NET
 10
-589.998075
 20
0.0
 30
850.032548
 11
590.001925
 21
0.0
 31
850.032548
210
0.0
220
1.0
230
0.0
  0
LINE
  5
2C6
  8
TEAM-NET
 10
565.001925
 20
-420.0
 30
850.032548
 11
565.001925
 21
-130.0
 31
850.032548
  0
LINE
  5
2C7
  8
TEAM-NET
 10
565.001925
 20
-420.0
 30
850.032548
 11
565.001925
 21
-130.0
 31
850.032548
  0
ARC
  5
2C8
  8
TEAM-NET
 10
550.001925
 20
-130.0
 30
850.032548
 40
15.0
 50
0.0
 51
90.0
  0
ARC
  5
2C9
  8
TEAM-NET
 10
550.001925
 20
-130.0
 30
850.032548
 40
15.0
 50
0.0
 51
90.0
  0
LINE
  5
2CA
  8
TEAM-NET
 10
-564.998075
 20
-130.0
 30
850.032548
 11
-564.998075
 21
-420.0
 31
850.032548
  0
LINE
  5
2CB
  8
TEAM-NET
 10
-564.998075
 20
-130.0
 30
850.032548
 11
-564.998075
 21
-420.0
 31
850.032548
  0
ARC
  5
2CC
  8
TEAM-NET
 10
-549.998075
 20
-130.0
 30
850.032548
 40
15.0
 50
90.0
 51
180.0
  0
ARC
  5
2CD
  8
TEAM-NET
 10
-549.998075
 20
-130.0
 30
850.032548
 40
15.0
 50
90.0
 51
180.0
  0
LINE
  5
2CE
  8
TEAM-NET
 10
-589.998075
 20
0.0
 30
850.032548
 11
590.001925
 21
0.0
 31
850.032548
  0
LINE
  5
2CF
  8
TEAM-NET
 10
550.001925
 20
-115.0
 30
850.032548
 11
-549.998075
 21
-115.0
 31
850.032548
  0
LINE
  5
2D0
  8
TEAM-NET
 10
550.001925
 20
-115.0
 30
850.032548
 11
-549.998075
 21
-115.0
 31
850.032548
  0
LINE
  5
2D1
  8
TEAM-NET
 10
590.001925
 20
-460.0
 30
850.032548
 11
-589.998075
 21
-460.0
 31
850.032548
  0
LINE
  5
2D2
  8
TEAM-NET
 10
-549.998075
 20
-435.0
 30
850.032548
 11
550.001925
 21
-435.0
 31
850.032548
  0
LINE
  5
2D3
  8
TEAM-NET
 10
590.001925
 20
-460.0
 30
850.032548
 11
-589.998075
 21
-460.0
 31
850.032548
  0
LINE
  5
2D4
  8
TEAM-NET
 10
-549.998075
 20
-435.0
 30
850.032548
 11
550.001925
 21
-435.0
 31
850.032548
  0
LINE
  5
2D5
  8
TEAM-NET
 10
-589.998075
 20
-460.0
 30
850.032548
 11
-589.998075
 21
0.0
 31
850.032548
  0
LINE
  5
2D6
  8
TEAM-NET
 10
-589.998075
 20
-460.0
 30
850.032548
 11
-589.998075
 21
0.0
 31
850.032548
  0
LINE
  5
2D7
  8
TEAM-NET
 10
590.001925
 20
0.0
 30
850.032548
 11
590.001925
 21
-460.0
 31
850.032548
  0
LINE
  5
2D8
  8
TEAM-NET
 10
590.001925
 20
0.0
 30
850.032548
 11
590.001925
 21
-460.0
 31
850.032548
  0
ARC
  5
2D9
  8
TEAM-NET
 10
-549.998075
 20
-420.0
 30
850.032548
 40
15.0
 50
180.0
 51
270.0
  0
ARC
  5
2DA
  8
TEAM-NET
 10
-549.998075
 20
-420.0
 30
850.032548
 40
15.0
 50
180.0
 51
270.0
  0
ARC
  5
2DB
  8
TEAM-NET
 10
550.001925
 20
-420.0
 30
850.032548
 40
15.0
 50
270.0
 51
0.0
  0
ARC
  5
2DC
  8
TEAM-NET
 10
550.001925
 20
-420.0
 30
850.032548
 40
15.0
 50
270.0
 51
0.0
  0
CIRCLE
  5
2DD
  8
TEAM-DET1
 10
0.0
 20
-58.562904
 30
850.0
 40
17.5
  0
LINE
  5
2DF
  8
TEAM-AXE
 10
0.0
 20
-28.104327
 30
850.0
 11
0.0
 21
-89.015968
 31
850.0
  0
LINE
  5
2E2
  8
TEAM-AXE
 10
-30.455821
 20
-58.562904
 30
850.0
 11
30.455821
 21
-58.562904
 31
850.0
  0
TEXT
  5
2E3
  8
TEAM-TXT
 10
-509.818938
 20
-326.551537
 30
851.0
 40
30.0
  1
team 212241
 41
0.8
 51
15.0
  7
TEAM
  0
ENDSEC
  0
EOF
