  0
SECTION
  2
HEADER
  9
$ACADVER
  1
AC1009
  9
$INSBASE
 10
0.0
 20
0.0
 30
725.0
  9
$EXTMIN
 10
-292.544033
 20
-405.013988
 30
-0.038511
  9
$EXTMAX
 10
292.543091
 20
10.014593
 30
850.034882
  9
$LIMMIN
 10
-292.5
 20
-405.0
  9
$LIMMAX
 10
292.543091
 20
10.014593
  9
$ORTHOMODE
 70
     1
  9
$REGENMODE
 70
     1
  9
$FILLMODE
 70
     1
  9
$QTEXTMODE
 70
     0
  9
$MIRRTEXT
 70
     0
  9
$DRAGMODE
 70
     2
  9
$LTSCALE
 40
50.0
  9
$OSMODE
 70
     7
  9
$ATTMODE
 70
     1
  9
$TEXTSIZE
 40
200.0
  9
$TRACEWID
 40
1.0
  9
$TEXTSTYLE
  7
STANDARD
  9
$CLAYER
  8
TEAM-MAS
  9
$CELTYPE
  6
BYLAYER
  9
$CECOLOR
 62
   256
  9
$DIMSCALE
 40
1.0
  9
$DIMASZ
 40
20.0
  9
$DIMEXO
 40
10.0
  9
$DIMDLI
 40
1.0
  9
$DIMRND
 40
0.0
  9
$DIMDLE
 40
0.0
  9
$DIMEXE
 40
1.0
  9
$DIMTP
 40
0.0
  9
$DIMTM
 40
0.0
  9
$DIMTXT
 40
35.0
  9
$DIMCEN
 40
1.0
  9
$DIMTSZ
 40
0.0
  9
$DIMTOL
 70
     0
  9
$DIMLIM
 70
     0
  9
$DIMTIH
 70
     0
  9
$DIMTOH
 70
     0
  9
$DIMSE1
 70
     0
  9
$DIMSE2
 70
     0
  9
$DIMTAD
 70
     0
  9
$DIMZIN
 70
     0
  9
$DIMBLK
  1

  9
$DIMASO
 70
     1
  9
$DIMSHO
 70
     0
  9
$DIMPOST
  1

  9
$DIMAPOST
  1

  9
$DIMALT
 70
     0
  9
$DIMALTD
 70
     2
  9
$DIMALTF
 40
25.4
  9
$DIMLFAC
 40
1.0
  9
$DIMTOFL
 70
     0
  9
$DIMTVP
 40
0.0
  9
$DIMTIX
 70
     0
  9
$DIMSOXD
 70
     0
  9
$DIMSAH
 70
     0
  9
$DIMBLK1
  1

  9
$DIMBLK2
  1

  9
$DIMSTYLE
  2
TEAM
  9
$DIMCLRD
 70
     9
  9
$DIMCLRE
 70
     9
  9
$DIMCLRT
 70
    11
  9
$DIMTFAC
 40
1.0
  9
$DIMGAP
 40
7.0
  9
$LUNITS
 70
     2
  9
$LUPREC
 70
     1
  9
$SKETCHINC
 40
1.0
  9
$FILLETRAD
 40
44.0
  9
$AUNITS
 70
     0
  9
$AUPREC
 70
     0
  9
$MENU
  1
ROPLANS
  9
$ELEVATION
 40
0.0
  9
$PELEVATION
 40
0.0
  9
$THICKNESS
 40
0.0
  9
$LIMCHECK
 70
     0
  9
$BLIPMODE
 70
     1
  9
$CHAMFERA
 40
0.0
  9
$CHAMFERB
 40
0.0
  9
$SKPOLY
 70
     0
  9
$TDCREATE
 40
2450392.957851
  9
$TDUPDATE
 40
2455981.928629
  9
$TDINDWG
 40
3.777306
  9
$TDUSRTIMER
 40
3.777306
  9
$USRTIMER
 70
     1
  9
$ANGBASE
 50
0.0
  9
$ANGDIR
 70
     0
  9
$PDMODE
 70
     0
  9
$PDSIZE
 40
0.0
  9
$PLINEWID
 40
0.0
  9
$COORDS
 70
     2
  9
$SPLFRAME
 70
     0
  9
$SPLINETYPE
 70
     6
  9
$SPLINESEGS
 70
     8
  9
$ATTDIA
 70
     0
  9
$ATTREQ
 70
     0
  9
$HANDLING
 70
     1
  9
$HANDSEED
  5
356
  9
$SURFTAB1
 70
    36
  9
$SURFTAB2
 70
    36
  9
$SURFTYPE
 70
     6
  9
$SURFU
 70
     6
  9
$SURFV
 70
     6
  9
$UCSNAME
  2

  9
$UCSORG
 10
0.0
 20
0.0
 30
0.0
  9
$UCSXDIR
 10
1.0
 20
0.0
 30
0.0
  9
$UCSYDIR
 10
0.0
 20
1.0
 30
0.0
  9
$PUCSNAME
  2

  9
$PUCSORG
 10
0.0
 20
0.0
 30
0.0
  9
$PUCSXDIR
 10
1.0
 20
0.0
 30
0.0
  9
$PUCSYDIR
 10
0.0
 20
1.0
 30
0.0
  9
$USERI1
 70
     0
  9
$USERI2
 70
     0
  9
$USERI3
 70
     0
  9
$USERI4
 70
     0
  9
$USERI5
 70
     0
  9
$USERR1
 40
0.0
  9
$USERR2
 40
0.0
  9
$USERR3
 40
0.0
  9
$USERR4
 40
0.0
  9
$USERR5
 40
0.0
  9
$WORLDVIEW
 70
     1
  9
$SHADEDGE
 70
     0
  9
$SHADEDIF
 70
    70
  9
$TILEMODE
 70
     1
  9
$MAXACTVP
 70
    16
  9
$PLIMCHECK
 70
     0
  9
$PEXTMIN
 10
-0.805942
 20
0.005011
 30
0.0
  9
$PEXTMAX
 10
20.250094
 20
11.356329
 30
0.0
  9
$PLIMMIN
 10
0.0
 20
0.0
  9
$PLIMMAX
 10
12.0
 20
9.0
  9
$UNITMODE
 70
     0
  9
$VISRETAIN
 70
     0
  9
$PLINEGEN
 70
     0
  9
$PSLTSCALE
 70
     0
  0
ENDSEC
  0
SECTION
  2
TABLES
  0
TABLE
  2
VPORT
 70
     2
  0
VPORT
  2
*ACTIVE
 70
     0
 10
0.0
 20
0.0
 11
1.0
 21
1.0
 12
-0.000471
 22
-197.499697
 13
0.0
 23
0.0
 14
1.0
 24
1.0
 15
50.0
 25
50.0
 16
0.0
 26
0.0
 36
1.0
 17
0.0
 27
0.0
 37
0.0
 40
417.630641
 41
1.903766
 42
50.0
 43
0.0
 44
0.0
 50
0.0
 51
0.0
 71
     0
 72
   100
 73
     1
 74
     1
 75
     0
 76
     0
 77
     0
 78
     0
  0
ENDTAB
  0
TABLE
  2
LTYPE
 70
     2
  0
LTYPE
  2
CONTINUOUS
 70
     0
  3
Solid Line
 72
    65
 73
     0
 40
0.0
  0
LTYPE
  2
31
 70
     0
  3

 72
    65
 73
     4
 40
2.1
 49
1.5
 49
-0.3
 49
0.0
 49
-0.3
  0
ENDTAB
  0
TABLE
  2
LAYER
 70
    10
  0
LAYER
  2
0
 70
     0
 62
     7
  6
CONTINUOUS
  0
LAYER
  2
TEAM-BODY
 70
     0
 62
     2
  6
CONTINUOUS
  0
LAYER
  2
TEAM-AXE
 70
     0
 62
    10
  6
31
  0
LAYER
  2
TEAM-MAS
 70
     0
 62
     9
  6
CONTINUOUS
  0
LAYER
  2
TEAM-TXT
 70
     0
 62
    11
  6
CONTINUOUS
  0
LAYER
  2
TEAM-DET1
 70
     0
 62
     4
  6
CONTINUOUS
  0
LAYER
  2
TEAM-KAN
 70
     0
 62
     6
  6
CONTINUOUS
  0
LAYER
  2
TEAM-DET3
 70
     0
 62
    14
  6
CONTINUOUS
  0
LAYER
  2
TEAM-NET
 70
     0
 62
    15
  6
CONTINUOUS
  0
LAYER
  2
TEAM-INSP
 70
     0
 62
     5
  6
CONTINUOUS
  0
ENDTAB
  0
TABLE
  2
STYLE
 70
     2
  0
STYLE
  2
STANDARD
 70
     0
 40
0.0
 41
1.0
 50
0.0
 71
     0
 42
200.0
  3
txt
  4

  0
STYLE
  2
TEAM
 70
     0
 40
0.0
 41
0.8
 50
15.0
 71
     0
 42
7.0
  3
ROMANS.shx
  4

  0
ENDTAB
  0
TABLE
  2
VIEW
 70
     0
  0
ENDTAB
  0
TABLE
  2
UCS
 70
     0
  0
ENDTAB
  0
TABLE
  2
APPID
 70
     1
  0
APPID
  2
ACAD
 70
     0
  0
ENDTAB
  0
TABLE
  2
DIMSTYLE
 70
     1
  0
DIMSTYLE
  2
TEAM
 70
     0
  3

  4

  5

  6

  7

 40
1.0
 41
20.0
 42
10.0
 43
1.0
 44
1.0
 45
0.0
 46
0.0
 47
0.0
 48
0.0
140
35.0
141
1.0
142
0.0
143
25.4
144
1.0
145
0.0
146
1.0
147
7.0
 71
     0
 72
     0
 73
     0
 74
     0
 75
     0
 76
     0
 77
     0
 78
     0
170
     0
171
     2
172
     0
173
     0
174
     0
175
     0
176
     9
177
     9
178
    11
  0
ENDTAB
  0
ENDSEC
  0
SECTION
  2
BLOCKS
  0
BLOCK
  8
0
  2
$MODEL_SPACE
 70
     0
 10
0.0
 20
0.0
 30
0.0
  3
$MODEL_SPACE
  1

  0
ENDBLK
  5
323
  8
0
  0
BLOCK
 67
     1
  8
0
  2
$PAPER_SPACE
 70
     0
 10
0.0
 20
0.0
 30
0.0
  3
$PAPER_SPACE
  1

  0
ENDBLK
  5
321
 67
     1
  8
0
  0
ENDSEC
  0
SECTION
  2
ENTITIES
  0
CIRCLE
  5
20
  8
TEAM-INSP
 10
0.0
 20
0.0
 30
0.0
 40
10.0
  0
POLYLINE
  5
22
  8
TEAM-NET
 66
     1
 10
0.0
 20
0.0
 30
0.0
 70
    16
 71
     2
 72
    37
  0
VERTEX
  5
23
  8
TEAM-NET
 10
245.0
 20
-230.0
 30
730.0
 70
    64
  0
VERTEX
  5
24
  8
TEAM-NET
 10
245.0
 20
-210.555556
 30
730.0
 70
    64
  0
VERTEX
  5
25
  8
TEAM-NET
 10
245.0
 20
-191.111111
 30
730.0
 70
    64
  0
VERTEX
  5
26
  8
TEAM-NET
 10
245.0
 20
-171.666667
 30
730.0
 70
    64
  0
VERTEX
  5
27
  8
TEAM-NET
 10
245.0
 20
-152.222222
 30
730.0
 70
    64
  0
VERTEX
  5
28
  8
TEAM-NET
 10
245.0
 20
-132.777778
 30
730.0
 70
    64
  0
VERTEX
  5
29
  8
TEAM-NET
 10
233.333333
 20
-125.0
 30
730.0
 70
    64
  0
VERTEX
  5
2A
  8
TEAM-NET
 10
213.888889
 20
-125.0
 30
730.0
 70
    64
  0
VERTEX
  5
2B
  8
TEAM-NET
 10
194.444444
 20
-125.0
 30
730.0
 70
    64
  0
VERTEX
  5
2C
  8
TEAM-NET
 10
175.0
 20
-125.0
 30
730.0
 70
    64
  0
VERTEX
  5
2D
  8
TEAM-NET
 10
155.555556
 20
-125.0
 30
730.0
 70
    64
  0
VERTEX
  5
2E
  8
TEAM-NET
 10
136.111111
 20
-125.0
 30
730.0
 70
    64
  0
VERTEX
  5
2F
  8
TEAM-NET
 10
116.666667
 20
-125.0
 30
730.0
 70
    64
  0
VERTEX
  5
30
  8
TEAM-NET
 10
97.222222
 20
-125.0
 30
730.0
 70
    64
  0
VERTEX
  5
31
  8
TEAM-NET
 10
77.777778
 20
-125.0
 30
730.0
 70
    64
  0
VERTEX
  5
32
  8
TEAM-NET
 10
58.333333
 20
-125.0
 30
730.0
 70
    64
  0
VERTEX
  5
33
  8
TEAM-NET
 10
38.888889
 20
-125.0
 30
730.0
 70
    64
  0
VERTEX
  5
34
  8
TEAM-NET
 10
19.444444
 20
-125.0
 30
730.0
 70
    64
  0
VERTEX
  5
35
  8
TEAM-NET
 10
0.0
 20
-125.0
 30
730.0
 70
    64
  0
VERTEX
  5
36
  8
TEAM-NET
 10
-19.444444
 20
-125.0
 30
730.0
 70
    64
  0
VERTEX
  5
37
  8
TEAM-NET
 10
-38.888889
 20
-125.0
 30
730.0
 70
    64
  0
VERTEX
  5
38
  8
TEAM-NET
 10
-58.333333
 20
-125.0
 30
730.0
 70
    64
  0
VERTEX
  5
39
  8
TEAM-NET
 10
-77.777778
 20
-125.0
 30
730.0
 70
    64
  0
VERTEX
  5
3A
  8
TEAM-NET
 10
-97.222222
 20
-125.0
 30
730.0
 70
    64
  0
VERTEX
  5
3B
  8
TEAM-NET
 10
-116.666667
 20
-125.0
 30
730.0
 70
    64
  0
VERTEX
  5
3C
  8
TEAM-NET
 10
-136.111111
 20
-125.0
 30
730.0
 70
    64
  0
VERTEX
  5
3D
  8
TEAM-NET
 10
-155.555556
 20
-125.0
 30
730.0
 70
    64
  0
VERTEX
  5
3E
  8
TEAM-NET
 10
-175.0
 20
-125.0
 30
730.0
 70
    64
  0
VERTEX
  5
3F
  8
TEAM-NET
 10
-194.444444
 20
-125.0
 30
730.0
 70
    64
  0
VERTEX
  5
40
  8
TEAM-NET
 10
-213.888889
 20
-125.0
 30
730.0
 70
    64
  0
VERTEX
  5
41
  8
TEAM-NET
 10
-233.333333
 20
-125.0
 30
730.0
 70
    64
  0
VERTEX
  5
42
  8
TEAM-NET
 10
-245.0
 20
-132.777778
 30
730.0
 70
    64
  0
VERTEX
  5
43
  8
TEAM-NET
 10
-245.0
 20
-152.222222
 30
730.0
 70
    64
  0
VERTEX
  5
44
  8
TEAM-NET
 10
-245.0
 20
-171.666667
 30
730.0
 70
    64
  0
VERTEX
  5
45
  8
TEAM-NET
 10
-245.0
 20
-191.111111
 30
730.0
 70
    64
  0
VERTEX
  5
46
  8
TEAM-NET
 10
-245.0
 20
-210.555556
 30
730.0
 70
    64
  0
VERTEX
  5
47
  8
TEAM-NET
 10
-245.0
 20
-230.0
 30
730.0
 70
    64
  0
VERTEX
  5
48
  8
TEAM-NET
 10
250.0
 20
-230.0
 30
850.0
 70
    64
  0
VERTEX
  5
49
  8
TEAM-NET
 10
250.0
 20
-209.365782
 30
850.0
 70
    64
  0
VERTEX
  5
4A
  8
TEAM-NET
 10
250.0
 20
-188.731564
 30
850.0
 70
    64
  0
VERTEX
  5
4B
  8
TEAM-NET
 10
250.0
 20
-168.097346
 30
850.0
 70
    64
  0
VERTEX
  5
4C
  8
TEAM-NET
 10
250.0
 20
-147.463127
 30
850.0
 70
    64
  0
VERTEX
  5
4D
  8
TEAM-NET
 10
250.0
 20
-126.828909
 30
850.0
 70
    64
  0
VERTEX
  5
4E
  8
TEAM-NET
 10
245.42154
 20
-107.265162
 30
850.0
 70
    64
  0
VERTEX
  5
4F
  8
TEAM-NET
 10
226.9764
 20
-100.0
 30
850.0
 70
    64
  0
VERTEX
  5
50
  8
TEAM-NET
 10
206.342181
 20
-100.0
 30
850.0
 70
    64
  0
VERTEX
  5
51
  8
TEAM-NET
 10
185.707963
 20
-100.0
 30
850.0
 70
    64
  0
VERTEX
  5
52
  8
TEAM-NET
 10
165.073745
 20
-100.0
 30
850.0
 70
    64
  0
VERTEX
  5
53
  8
TEAM-NET
 10
144.439527
 20
-100.0
 30
850.0
 70
    64
  0
VERTEX
  5
54
  8
TEAM-NET
 10
123.805309
 20
-100.0
 30
850.0
 70
    64
  0
VERTEX
  5
55
  8
TEAM-NET
 10
103.171091
 20
-100.0
 30
850.0
 70
    64
  0
VERTEX
  5
56
  8
TEAM-NET
 10
82.536873
 20
-100.0
 30
850.0
 70
    64
  0
VERTEX
  5
57
  8
TEAM-NET
 10
61.902654
 20
-100.0
 30
850.0
 70
    64
  0
VERTEX
  5
58
  8
TEAM-NET
 10
41.268436
 20
-100.0
 30
850.0
 70
    64
  0
VERTEX
  5
59
  8
TEAM-NET
 10
20.634218
 20
-100.0
 30
850.0
 70
    64
  0
VERTEX
  5
5A
  8
TEAM-NET
 10
0.0
 20
-100.0
 30
850.0
 70
    64
  0
VERTEX
  5
5B
  8
TEAM-NET
 10
-20.634218
 20
-100.0
 30
850.0
 70
    64
  0
VERTEX
  5
5C
  8
TEAM-NET
 10
-41.268436
 20
-100.0
 30
850.0
 70
    64
  0
VERTEX
  5
5D
  8
TEAM-NET
 10
-61.902654
 20
-100.0
 30
850.0
 70
    64
  0
VERTEX
  5
5E
  8
TEAM-NET
 10
-82.536873
 20
-100.0
 30
850.0
 70
    64
  0
VERTEX
  5
5F
  8
TEAM-NET
 10
-103.171091
 20
-100.0
 30
850.0
 70
    64
  0
VERTEX
  5
60
  8
TEAM-NET
 10
-123.805309
 20
-100.0
 30
850.0
 70
    64
  0
VERTEX
  5
61
  8
TEAM-NET
 10
-144.439527
 20
-100.0
 30
850.0
 70
    64
  0
VERTEX
  5
62
  8
TEAM-NET
 10
-165.073745
 20
-100.0
 30
850.0
 70
    64
  0
VERTEX
  5
63
  8
TEAM-NET
 10
-185.707963
 20
-100.0
 30
850.0
 70
    64
  0
VERTEX
  5
64
  8
TEAM-NET
 10
-206.342181
 20
-100.0
 30
850.0
 70
    64
  0
VERTEX
  5
65
  8
TEAM-NET
 10
-226.9764
 20
-100.0
 30
850.0
 70
    64
  0
VERTEX
  5
66
  8
TEAM-NET
 10
-245.42154
 20
-107.265162
 30
850.0
 70
    64
  0
VERTEX
  5
67
  8
TEAM-NET
 10
-250.0
 20
-126.828909
 30
850.0
 70
    64
  0
VERTEX
  5
68
  8
TEAM-NET
 10
-250.0
 20
-147.463127
 30
850.0
 70
    64
  0
VERTEX
  5
69
  8
TEAM-NET
 10
-250.0
 20
-168.097346
 30
850.0
 70
    64
  0
VERTEX
  5
6A
  8
TEAM-NET
 10
-250.0
 20
-188.731564
 30
850.0
 70
    64
  0
VERTEX
  5
6B
  8
TEAM-NET
 10
-250.0
 20
-209.365782
 30
850.0
 70
    64
  0
VERTEX
  5
6C
  8
TEAM-NET
 10
-250.0
 20
-230.0
 30
850.0
 70
    64
  0
SEQEND
  5
6E
  8
TEAM-NET
  0
POLYLINE
  5
6F
  8
TEAM-NET
 66
     1
 10
0.0
 20
0.0
 30
0.0
 70
    16
 71
     2
 72
    37
  0
VERTEX
  5
70
  8
TEAM-NET
 10
245.0
 20
-230.0
 30
730.0
 70
    64
  0
VERTEX
  5
71
  8
TEAM-NET
 10
245.0
 20
-249.444444
 30
730.0
 70
    64
  0
VERTEX
  5
72
  8
TEAM-NET
 10
245.0
 20
-268.888889
 30
730.0
 70
    64
  0
VERTEX
  5
73
  8
TEAM-NET
 10
245.0
 20
-288.333333
 30
730.0
 70
    64
  0
VERTEX
  5
74
  8
TEAM-NET
 10
245.0
 20
-307.777778
 30
730.0
 70
    64
  0
VERTEX
  5
75
  8
TEAM-NET
 10
245.0
 20
-327.222222
 30
730.0
 70
    64
  0
VERTEX
  5
76
  8
TEAM-NET
 10
233.333333
 20
-335.0
 30
730.0
 70
    64
  0
VERTEX
  5
77
  8
TEAM-NET
 10
213.888889
 20
-335.0
 30
730.0
 70
    64
  0
VERTEX
  5
78
  8
TEAM-NET
 10
194.444444
 20
-335.0
 30
730.0
 70
    64
  0
VERTEX
  5
79
  8
TEAM-NET
 10
175.0
 20
-335.0
 30
730.0
 70
    64
  0
VERTEX
  5
7A
  8
TEAM-NET
 10
155.555556
 20
-335.0
 30
730.0
 70
    64
  0
VERTEX
  5
7B
  8
TEAM-NET
 10
136.111111
 20
-335.0
 30
730.0
 70
    64
  0
VERTEX
  5
7C
  8
TEAM-NET
 10
116.666667
 20
-335.0
 30
730.0
 70
    64
  0
VERTEX
  5
7D
  8
TEAM-NET
 10
97.222222
 20
-335.0
 30
730.0
 70
    64
  0
VERTEX
  5
7E
  8
TEAM-NET
 10
77.777778
 20
-335.0
 30
730.0
 70
    64
  0
VERTEX
  5
7F
  8
TEAM-NET
 10
58.333333
 20
-335.0
 30
730.0
 70
    64
  0
VERTEX
  5
80
  8
TEAM-NET
 10
38.888889
 20
-335.0
 30
730.0
 70
    64
  0
VERTEX
  5
81
  8
TEAM-NET
 10
19.444444
 20
-335.0
 30
730.0
 70
    64
  0
VERTEX
  5
82
  8
TEAM-NET
 10
0.0
 20
-335.0
 30
730.0
 70
    64
  0
VERTEX
  5
83
  8
TEAM-NET
 10
-19.444444
 20
-335.0
 30
730.0
 70
    64
  0
VERTEX
  5
84
  8
TEAM-NET
 10
-38.888889
 20
-335.0
 30
730.0
 70
    64
  0
VERTEX
  5
85
  8
TEAM-NET
 10
-58.333333
 20
-335.0
 30
730.0
 70
    64
  0
VERTEX
  5
86
  8
TEAM-NET
 10
-77.777778
 20
-335.0
 30
730.0
 70
    64
  0
VERTEX
  5
87
  8
TEAM-NET
 10
-97.222222
 20
-335.0
 30
730.0
 70
    64
  0
VERTEX
  5
88
  8
TEAM-NET
 10
-116.666667
 20
-335.0
 30
730.0
 70
    64
  0
VERTEX
  5
89
  8
TEAM-NET
 10
-136.111111
 20
-335.0
 30
730.0
 70
    64
  0
VERTEX
  5
8A
  8
TEAM-NET
 10
-155.555556
 20
-335.0
 30
730.0
 70
    64
  0
VERTEX
  5
8B
  8
TEAM-NET
 10
-175.0
 20
-335.0
 30
730.0
 70
    64
  0
VERTEX
  5
8C
  8
TEAM-NET
 10
-194.444444
 20
-335.0
 30
730.0
 70
    64
  0
VERTEX
  5
8D
  8
TEAM-NET
 10
-213.888889
 20
-335.0
 30
730.0
 70
    64
  0
VERTEX
  5
8E
  8
TEAM-NET
 10
-233.333333
 20
-335.0
 30
730.0
 70
    64
  0
VERTEX
  5
8F
  8
TEAM-NET
 10
-245.0
 20
-327.222222
 30
730.0
 70
    64
  0
VERTEX
  5
90
  8
TEAM-NET
 10
-245.0
 20
-307.777778
 30
730.0
 70
    64
  0
VERTEX
  5
91
  8
TEAM-NET
 10
-245.0
 20
-288.333333
 30
730.0
 70
    64
  0
VERTEX
  5
92
  8
TEAM-NET
 10
-245.0
 20
-268.888889
 30
730.0
 70
    64
  0
VERTEX
  5
93
  8
TEAM-NET
 10
-245.0
 20
-249.444444
 30
730.0
 70
    64
  0
VERTEX
  5
94
  8
TEAM-NET
 10
-245.0
 20
-230.0
 30
730.0
 70
    64
  0
VERTEX
  5
95
  8
TEAM-NET
 10
250.0
 20
-230.0
 30
850.0
 70
    64
  0
VERTEX
  5
96
  8
TEAM-NET
 10
250.0
 20
-250.634218
 30
850.0
 70
    64
  0
VERTEX
  5
97
  8
TEAM-NET
 10
250.0
 20
-271.268436
 30
850.0
 70
    64
  0
VERTEX
  5
98
  8
TEAM-NET
 10
250.0
 20
-291.902654
 30
850.0
 70
    64
  0
VERTEX
  5
99
  8
TEAM-NET
 10
250.0
 20
-312.536873
 30
850.0
 70
    64
  0
VERTEX
  5
9A
  8
TEAM-NET
 10
250.0
 20
-333.171091
 30
850.0
 70
    64
  0
VERTEX
  5
9B
  8
TEAM-NET
 10
245.42154
 20
-352.734838
 30
850.0
 70
    64
  0
VERTEX
  5
9C
  8
TEAM-NET
 10
226.9764
 20
-360.0
 30
850.0
 70
    64
  0
VERTEX
  5
9D
  8
TEAM-NET
 10
206.342181
 20
-360.0
 30
850.0
 70
    64
  0
VERTEX
  5
9E
  8
TEAM-NET
 10
185.707963
 20
-360.0
 30
850.0
 70
    64
  0
VERTEX
  5
9F
  8
TEAM-NET
 10
165.073745
 20
-360.0
 30
850.0
 70
    64
  0
VERTEX
  5
A0
  8
TEAM-NET
 10
144.439527
 20
-360.0
 30
850.0
 70
    64
  0
VERTEX
  5
A1
  8
TEAM-NET
 10
123.805309
 20
-360.0
 30
850.0
 70
    64
  0
VERTEX
  5
A2
  8
TEAM-NET
 10
103.171091
 20
-360.0
 30
850.0
 70
    64
  0
VERTEX
  5
A3
  8
TEAM-NET
 10
82.536873
 20
-360.0
 30
850.0
 70
    64
  0
VERTEX
  5
A4
  8
TEAM-NET
 10
61.902654
 20
-360.0
 30
850.0
 70
    64
  0
VERTEX
  5
A5
  8
TEAM-NET
 10
41.268436
 20
-360.0
 30
850.0
 70
    64
  0
VERTEX
  5
A6
  8
TEAM-NET
 10
20.634218
 20
-360.0
 30
850.0
 70
    64
  0
VERTEX
  5
A7
  8
TEAM-NET
 10
0.0
 20
-360.0
 30
850.0
 70
    64
  0
VERTEX
  5
A8
  8
TEAM-NET
 10
-20.634218
 20
-360.0
 30
850.0
 70
    64
  0
VERTEX
  5
A9
  8
TEAM-NET
 10
-41.268436
 20
-360.0
 30
850.0
 70
    64
  0
VERTEX
  5
AA
  8
TEAM-NET
 10
-61.902654
 20
-360.0
 30
850.0
 70
    64
  0
VERTEX
  5
AB
  8
TEAM-NET
 10
-82.536873
 20
-360.0
 30
850.0
 70
    64
  0
VERTEX
  5
AC
  8
TEAM-NET
 10
-103.171091
 20
-360.0
 30
850.0
 70
    64
  0
VERTEX
  5
AD
  8
TEAM-NET
 10
-123.805309
 20
-360.0
 30
850.0
 70
    64
  0
VERTEX
  5
AE
  8
TEAM-NET
 10
-144.439527
 20
-360.0
 30
850.0
 70
    64
  0
VERTEX
  5
AF
  8
TEAM-NET
 10
-165.073745
 20
-360.0
 30
850.0
 70
    64
  0
VERTEX
  5
B0
  8
TEAM-NET
 10
-185.707963
 20
-360.0
 30
850.0
 70
    64
  0
VERTEX
  5
B1
  8
TEAM-NET
 10
-206.342181
 20
-360.0
 30
850.0
 70
    64
  0
VERTEX
  5
B2
  8
TEAM-NET
 10
-226.9764
 20
-360.0
 30
850.0
 70
    64
  0
VERTEX
  5
B3
  8
TEAM-NET
 10
-245.42154
 20
-352.734838
 30
850.0
 70
    64
  0
VERTEX
  5
B4
  8
TEAM-NET
 10
-250.0
 20
-333.171091
 30
850.0
 70
    64
  0
VERTEX
  5
B5
  8
TEAM-NET
 10
-250.0
 20
-312.536873
 30
850.0
 70
    64
  0
VERTEX
  5
B6
  8
TEAM-NET
 10
-250.0
 20
-291.902654
 30
850.0
 70
    64
  0
VERTEX
  5
B7
  8
TEAM-NET
 10
-250.0
 20
-271.268436
 30
850.0
 70
    64
  0
VERTEX
  5
B8
  8
TEAM-NET
 10
-250.0
 20
-250.634218
 30
850.0
 70
    64
  0
VERTEX
  5
B9
  8
TEAM-NET
 10
-250.0
 20
-230.0
 30
850.0
 70
    64
  0
SEQEND
  5
BA
  8
TEAM-NET
  0
POLYLINE
  5
BB
  8
TEAM-NET
 66
     1
 10
0.0
 20
0.0
 30
0.0
 70
    16
 71
     2
 72
    37
  0
VERTEX
  5
BC
  8
TEAM-NET
 10
-292.5
 20
-230.0
 30
850.0
 70
    64
  0
VERTEX
  5
BD
  8
TEAM-NET
 10
-292.5
 20
-200.972222
 30
850.0
 70
    64
  0
VERTEX
  5
BE
  8
TEAM-NET
 10
-292.5
 20
-171.944444
 30
850.0
 70
    64
  0
VERTEX
  5
BF
  8
TEAM-NET
 10
-292.5
 20
-142.916667
 30
850.0
 70
    64
  0
VERTEX
  5
C0
  8
TEAM-NET
 10
-292.5
 20
-113.888889
 30
850.0
 70
    64
  0
VERTEX
  5
C1
  8
TEAM-NET
 10
-292.5
 20
-84.861111
 30
850.0
 70
    64
  0
VERTEX
  5
C2
  8
TEAM-NET
 10
-292.5
 20
-55.833333
 30
850.0
 70
    64
  0
VERTEX
  5
C3
  8
TEAM-NET
 10
-292.5
 20
-26.805556
 30
850.0
 70
    64
  0
VERTEX
  5
C4
  8
TEAM-NET
 10
-290.277778
 20
0.0
 30
850.0
 70
    64
  0
VERTEX
  5
C5
  8
TEAM-NET
 10
-261.25
 20
0.0
 30
850.0
 70
    64
  0
VERTEX
  5
C6
  8
TEAM-NET
 10
-232.222222
 20
0.0
 30
850.0
 70
    64
  0
VERTEX
  5
C7
  8
TEAM-NET
 10
-203.194444
 20
0.0
 30
850.0
 70
    64
  0
VERTEX
  5
C8
  8
TEAM-NET
 10
-174.166667
 20
0.0
 30
850.0
 70
    64
  0
VERTEX
  5
C9
  8
TEAM-NET
 10
-145.138889
 20
0.0
 30
850.0
 70
    64
  0
VERTEX
  5
CA
  8
TEAM-NET
 10
-116.111111
 20
0.0
 30
850.0
 70
    64
  0
VERTEX
  5
CB
  8
TEAM-NET
 10
-87.083333
 20
0.0
 30
850.0
 70
    64
  0
VERTEX
  5
CC
  8
TEAM-NET
 10
-58.055556
 20
0.0
 30
850.0
 70
    64
  0
VERTEX
  5
CD
  8
TEAM-NET
 10
-29.027778
 20
0.0
 30
850.0
 70
    64
  0
VERTEX
  5
CE
  8
TEAM-NET
 10
0.0
 20
0.0
 30
850.0
 70
    64
  0
VERTEX
  5
CF
  8
TEAM-NET
 10
29.027778
 20
0.0
 30
850.0
 70
    64
  0
VERTEX
  5
D0
  8
TEAM-NET
 10
58.055556
 20
0.0
 30
850.0
 70
    64
  0
VERTEX
  5
D1
  8
TEAM-NET
 10
87.083333
 20
0.0
 30
850.0
 70
    64
  0
VERTEX
  5
D2
  8
TEAM-NET
 10
116.111111
 20
0.0
 30
850.0
 70
    64
  0
VERTEX
  5
D3
  8
TEAM-NET
 10
145.138889
 20
0.0
 30
850.0
 70
    64
  0
VERTEX
  5
D4
  8
TEAM-NET
 10
174.166667
 20
0.0
 30
850.0
 70
    64
  0
VERTEX
  5
D5
  8
TEAM-NET
 10
203.194444
 20
0.0
 30
850.0
 70
    64
  0
VERTEX
  5
D6
  8
TEAM-NET
 10
232.222222
 20
0.0
 30
850.0
 70
    64
  0
VERTEX
  5
D7
  8
TEAM-NET
 10
261.25
 20
0.0
 30
850.0
 70
    64
  0
VERTEX
  5
D8
  8
TEAM-NET
 10
290.277778
 20
0.0
 30
850.0
 70
    64
  0
VERTEX
  5
D9
  8
TEAM-NET
 10
292.5
 20
-26.805556
 30
850.0
 70
    64
  0
VERTEX
  5
DA
  8
TEAM-NET
 10
292.5
 20
-55.833333
 30
850.0
 70
    64
  0
VERTEX
  5
DB
  8
TEAM-NET
 10
292.5
 20
-84.861111
 30
850.0
 70
    64
  0
VERTEX
  5
DC
  8
TEAM-NET
 10
292.5
 20
-113.888889
 30
850.0
 70
    64
  0
VERTEX
  5
DD
  8
TEAM-NET
 10
292.5
 20
-142.916667
 30
850.0
 70
    64
  0
VERTEX
  5
DE
  8
TEAM-NET
 10
292.5
 20
-171.944444
 30
850.0
 70
    64
  0
VERTEX
  5
DF
  8
TEAM-NET
 10
292.5
 20
-200.972222
 30
850.0
 70
    64
  0
VERTEX
  5
E0
  8
TEAM-NET
 10
292.5
 20
-230.0
 30
850.0
 70
    64
  0
VERTEX
  5
E1
  8
TEAM-NET
 10
-292.5
 20
-230.0
 30
725.0
 70
    64
  0
VERTEX
  5
E2
  8
TEAM-NET
 10
-292.5
 20
-200.972222
 30
725.0
 70
    64
  0
VERTEX
  5
E3
  8
TEAM-NET
 10
-292.5
 20
-171.944444
 30
725.0
 70
    64
  0
VERTEX
  5
E4
  8
TEAM-NET
 10
-292.5
 20
-142.916667
 30
725.0
 70
    64
  0
VERTEX
  5
E5
  8
TEAM-NET
 10
-292.5
 20
-113.888889
 30
725.0
 70
    64
  0
VERTEX
  5
E6
  8
TEAM-NET
 10
-292.5
 20
-84.861111
 30
725.0
 70
    64
  0
VERTEX
  5
E7
  8
TEAM-NET
 10
-292.5
 20
-55.833333
 30
725.0
 70
    64
  0
VERTEX
  5
E8
  8
TEAM-NET
 10
-292.5
 20
-26.805556
 30
725.0
 70
    64
  0
VERTEX
  5
E9
  8
TEAM-NET
 10
-290.277778
 20
0.0
 30
725.0
 70
    64
  0
VERTEX
  5
EA
  8
TEAM-NET
 10
-261.25
 20
0.0
 30
725.0
 70
    64
  0
VERTEX
  5
EB
  8
TEAM-NET
 10
-232.222222
 20
0.0
 30
725.0
 70
    64
  0
VERTEX
  5
EC
  8
TEAM-NET
 10
-203.194444
 20
0.0
 30
725.0
 70
    64
  0
VERTEX
  5
ED
  8
TEAM-NET
 10
-174.166667
 20
0.0
 30
725.0
 70
    64
  0
VERTEX
  5
EE
  8
TEAM-NET
 10
-145.138889
 20
0.0
 30
725.0
 70
    64
  0
VERTEX
  5
EF
  8
TEAM-NET
 10
-116.111111
 20
0.0
 30
725.0
 70
    64
  0
VERTEX
  5
F0
  8
TEAM-NET
 10
-87.083333
 20
0.0
 30
725.0
 70
    64
  0
VERTEX
  5
F1
  8
TEAM-NET
 10
-58.055556
 20
0.0
 30
725.0
 70
    64
  0
VERTEX
  5
F2
  8
TEAM-NET
 10
-29.027778
 20
0.0
 30
725.0
 70
    64
  0
VERTEX
  5
F3
  8
TEAM-NET
 10
0.0
 20
0.0
 30
725.0
 70
    64
  0
VERTEX
  5
F4
  8
TEAM-NET
 10
29.027778
 20
0.0
 30
725.0
 70
    64
  0
VERTEX
  5
F5
  8
TEAM-NET
 10
58.055556
 20
0.0
 30
725.0
 70
    64
  0
VERTEX
  5
F6
  8
TEAM-NET
 10
87.083333
 20
0.0
 30
725.0
 70
    64
  0
VERTEX
  5
F7
  8
TEAM-NET
 10
116.111111
 20
0.0
 30
725.0
 70
    64
  0
VERTEX
  5
F8
  8
TEAM-NET
 10
145.138889
 20
0.0
 30
725.0
 70
    64
  0
VERTEX
  5
F9
  8
TEAM-NET
 10
174.166667
 20
0.0
 30
725.0
 70
    64
  0
VERTEX
  5
FA
  8
TEAM-NET
 10
203.194444
 20
0.0
 30
725.0
 70
    64
  0
VERTEX
  5
FB
  8
TEAM-NET
 10
232.222222
 20
0.0
 30
725.0
 70
    64
  0
VERTEX
  5
FC
  8
TEAM-NET
 10
261.25
 20
0.0
 30
725.0
 70
    64
  0
VERTEX
  5
FD
  8
TEAM-NET
 10
290.277778
 20
0.0
 30
725.0
 70
    64
  0
VERTEX
  5
FE
  8
TEAM-NET
 10
292.5
 20
-26.805556
 30
725.0
 70
    64
  0
VERTEX
  5
FF
  8
TEAM-NET
 10
292.5
 20
-55.833333
 30
725.0
 70
    64
  0
VERTEX
  5
100
  8
TEAM-NET
 10
292.5
 20
-84.861111
 30
725.0
 70
    64
  0
VERTEX
  5
101
  8
TEAM-NET
 10
292.5
 20
-113.888889
 30
725.0
 70
    64
  0
VERTEX
  5
102
  8
TEAM-NET
 10
292.5
 20
-142.916667
 30
725.0
 70
    64
  0
VERTEX
  5
103
  8
TEAM-NET
 10
292.5
 20
-171.944444
 30
725.0
 70
    64
  0
VERTEX
  5
104
  8
TEAM-NET
 10
292.5
 20
-200.972222
 30
725.0
 70
    64
  0
VERTEX
  5
105
  8
TEAM-NET
 10
292.5
 20
-230.0
 30
725.0
 70
    64
  0
SEQEND
  5
106
  8
TEAM-NET
  0
POLYLINE
  5
107
  8
TEAM-NET
 66
     1
 10
0.0
 20
0.0
 30
0.0
 70
    16
 71
     2
 72
    37
  0
VERTEX
  5
108
  8
TEAM-NET
 10
-292.5
 20
-230.0
 30
850.0
 70
    64
  0
VERTEX
  5
109
  8
TEAM-NET
 10
-292.5
 20
-255.972222
 30
850.0
 70
    64
  0
VERTEX
  5
10A
  8
TEAM-NET
 10
-292.5
 20
-281.944444
 30
850.0
 70
    64
  0
VERTEX
  5
10B
  8
TEAM-NET
 10
-292.5
 20
-307.916667
 30
850.0
 70
    64
  0
VERTEX
  5
10C
  8
TEAM-NET
 10
-292.5
 20
-333.888889
 30
850.0
 70
    64
  0
VERTEX
  5
10D
  8
TEAM-NET
 10
-292.5
 20
-359.861111
 30
850.0
 70
    64
  0
VERTEX
  5
10E
  8
TEAM-NET
 10
-292.5
 20
-385.833333
 30
850.0
 70
    64
  0
VERTEX
  5
10F
  8
TEAM-NET
 10
-285.694444
 20
-405.0
 30
850.0
 70
    64
  0
VERTEX
  5
110
  8
TEAM-NET
 10
-259.722222
 20
-405.0
 30
850.0
 70
    64
  0
VERTEX
  5
111
  8
TEAM-NET
 10
-233.75
 20
-405.0
 30
850.0
 70
    64
  0
VERTEX
  5
112
  8
TEAM-NET
 10
-207.777778
 20
-405.0
 30
850.0
 70
    64
  0
VERTEX
  5
113
  8
TEAM-NET
 10
-181.805556
 20
-405.0
 30
850.0
 70
    64
  0
VERTEX
  5
114
  8
TEAM-NET
 10
-155.833333
 20
-405.0
 30
850.0
 70
    64
  0
VERTEX
  5
115
  8
TEAM-NET
 10
-129.861111
 20
-405.0
 30
850.0
 70
    64
  0
VERTEX
  5
116
  8
TEAM-NET
 10
-103.888889
 20
-405.0
 30
850.0
 70
    64
  0
VERTEX
  5
117
  8
TEAM-NET
 10
-77.916667
 20
-405.0
 30
850.0
 70
    64
  0
VERTEX
  5
118
  8
TEAM-NET
 10
-51.944444
 20
-405.0
 30
850.0
 70
    64
  0
VERTEX
  5
119
  8
TEAM-NET
 10
-25.972222
 20
-405.0
 30
850.0
 70
    64
  0
VERTEX
  5
11A
  8
TEAM-NET
 10
0.0
 20
-405.0
 30
850.0
 70
    64
  0
VERTEX
  5
11B
  8
TEAM-NET
 10
25.972222
 20
-405.0
 30
850.0
 70
    64
  0
VERTEX
  5
11C
  8
TEAM-NET
 10
51.944444
 20
-405.0
 30
850.0
 70
    64
  0
VERTEX
  5
11D
  8
TEAM-NET
 10
77.916667
 20
-405.0
 30
850.0
 70
    64
  0
VERTEX
  5
11E
  8
TEAM-NET
 10
103.888889
 20
-405.0
 30
850.0
 70
    64
  0
VERTEX
  5
11F
  8
TEAM-NET
 10
129.861111
 20
-405.0
 30
850.0
 70
    64
  0
VERTEX
  5
120
  8
TEAM-NET
 10
155.833333
 20
-405.0
 30
850.0
 70
    64
  0
VERTEX
  5
121
  8
TEAM-NET
 10
181.805556
 20
-405.0
 30
850.0
 70
    64
  0
VERTEX
  5
122
  8
TEAM-NET
 10
207.777778
 20
-405.0
 30
850.0
 70
    64
  0
VERTEX
  5
123
  8
TEAM-NET
 10
233.75
 20
-405.0
 30
850.0
 70
    64
  0
VERTEX
  5
124
  8
TEAM-NET
 10
259.722222
 20
-405.0
 30
850.0
 70
    64
  0
VERTEX
  5
125
  8
TEAM-NET
 10
285.694444
 20
-405.0
 30
850.0
 70
    64
  0
VERTEX
  5
126
  8
TEAM-NET
 10
292.5
 20
-385.833333
 30
850.0
 70
    64
  0
VERTEX
  5
127
  8
TEAM-NET
 10
292.5
 20
-359.861111
 30
850.0
 70
    64
  0
VERTEX
  5
128
  8
TEAM-NET
 10
292.5
 20
-333.888889
 30
850.0
 70
    64
  0
VERTEX
  5
129
  8
TEAM-NET
 10
292.5
 20
-307.916667
 30
850.0
 70
    64
  0
VERTEX
  5
12A
  8
TEAM-NET
 10
292.5
 20
-281.944444
 30
850.0
 70
    64
  0
VERTEX
  5
12B
  8
TEAM-NET
 10
292.5
 20
-255.972222
 30
850.0
 70
    64
  0
VERTEX
  5
12C
  8
TEAM-NET
 10
292.5
 20
-230.0
 30
850.0
 70
    64
  0
VERTEX
  5
12D
  8
TEAM-NET
 10
-292.5
 20
-230.0
 30
725.0
 70
    64
  0
VERTEX
  5
12E
  8
TEAM-NET
 10
-292.5
 20
-255.972222
 30
725.0
 70
    64
  0
VERTEX
  5
12F
  8
TEAM-NET
 10
-292.5
 20
-281.944444
 30
725.0
 70
    64
  0
VERTEX
  5
130
  8
TEAM-NET
 10
-292.5
 20
-307.916667
 30
725.0
 70
    64
  0
VERTEX
  5
131
  8
TEAM-NET
 10
-292.5
 20
-333.888889
 30
725.0
 70
    64
  0
VERTEX
  5
132
  8
TEAM-NET
 10
-292.5
 20
-359.861111
 30
725.0
 70
    64
  0
VERTEX
  5
133
  8
TEAM-NET
 10
-292.5
 20
-385.833333
 30
725.0
 70
    64
  0
VERTEX
  5
134
  8
TEAM-NET
 10
-285.694444
 20
-405.0
 30
725.0
 70
    64
  0
VERTEX
  5
135
  8
TEAM-NET
 10
-259.722222
 20
-405.0
 30
725.0
 70
    64
  0
VERTEX
  5
136
  8
TEAM-NET
 10
-233.75
 20
-405.0
 30
725.0
 70
    64
  0
VERTEX
  5
137
  8
TEAM-NET
 10
-207.777778
 20
-405.0
 30
725.0
 70
    64
  0
VERTEX
  5
138
  8
TEAM-NET
 10
-181.805556
 20
-405.0
 30
725.0
 70
    64
  0
VERTEX
  5
139
  8
TEAM-NET
 10
-155.833333
 20
-405.0
 30
725.0
 70
    64
  0
VERTEX
  5
13A
  8
TEAM-NET
 10
-129.861111
 20
-405.0
 30
725.0
 70
    64
  0
VERTEX
  5
13B
  8
TEAM-NET
 10
-103.888889
 20
-405.0
 30
725.0
 70
    64
  0
VERTEX
  5
13C
  8
TEAM-NET
 10
-77.916667
 20
-405.0
 30
725.0
 70
    64
  0
VERTEX
  5
13D
  8
TEAM-NET
 10
-51.944444
 20
-405.0
 30
725.0
 70
    64
  0
VERTEX
  5
13E
  8
TEAM-NET
 10
-25.972222
 20
-405.0
 30
725.0
 70
    64
  0
VERTEX
  5
13F
  8
TEAM-NET
 10
0.0
 20
-405.0
 30
725.0
 70
    64
  0
VERTEX
  5
140
  8
TEAM-NET
 10
25.972222
 20
-405.0
 30
725.0
 70
    64
  0
VERTEX
  5
141
  8
TEAM-NET
 10
51.944444
 20
-405.0
 30
725.0
 70
    64
  0
VERTEX
  5
142
  8
TEAM-NET
 10
77.916667
 20
-405.0
 30
725.0
 70
    64
  0
VERTEX
  5
143
  8
TEAM-NET
 10
103.888889
 20
-405.0
 30
725.0
 70
    64
  0
VERTEX
  5
144
  8
TEAM-NET
 10
129.861111
 20
-405.0
 30
725.0
 70
    64
  0
VERTEX
  5
145
  8
TEAM-NET
 10
155.833333
 20
-405.0
 30
725.0
 70
    64
  0
VERTEX
  5
146
  8
TEAM-NET
 10
181.805556
 20
-405.0
 30
725.0
 70
    64
  0
VERTEX
  5
147
  8
TEAM-NET
 10
207.777778
 20
-405.0
 30
725.0
 70
    64
  0
VERTEX
  5
148
  8
TEAM-NET
 10
233.75
 20
-405.0
 30
725.0
 70
    64
  0
VERTEX
  5
149
  8
TEAM-NET
 10
259.722222
 20
-405.0
 30
725.0
 70
    64
  0
VERTEX
  5
14A
  8
TEAM-NET
 10
285.694444
 20
-405.0
 30
725.0
 70
    64
  0
VERTEX
  5
14B
  8
TEAM-NET
 10
292.5
 20
-385.833333
 30
725.0
 70
    64
  0
VERTEX
  5
14C
  8
TEAM-NET
 10
292.5
 20
-359.861111
 30
725.0
 70
    64
  0
VERTEX
  5
14D
  8
TEAM-NET
 10
292.5
 20
-333.888889
 30
725.0
 70
    64
  0
VERTEX
  5
14E
  8
TEAM-NET
 10
292.5
 20
-307.916667
 30
725.0
 70
    64
  0
VERTEX
  5
14F
  8
TEAM-NET
 10
292.5
 20
-281.944444
 30
725.0
 70
    64
  0
VERTEX
  5
150
  8
TEAM-NET
 10
292.5
 20
-255.972222
 30
725.0
 70
    64
  0
VERTEX
  5
151
  8
TEAM-NET
 10
292.5
 20
-230.0
 30
725.0
 70
    64
  0
SEQEND
  5
152
  8
TEAM-NET
  0
CIRCLE
  5
153
  8
TEAM-DET1
 39
-15.0
 10
0.0
 20
-175.0
 30
730.0
 40
30.0
  0
CIRCLE
  5
155
  8
TEAM-KAN
 39
-15.0
 10
0.0
 20
-175.0
 30
730.0
 40
20.0
  0
POLYLINE
  5
157
  8
TEAM-DET3
 66
     1
 10
0.0
 20
0.0
 30
725.0
  0
VERTEX
  5
329
  8
TEAM-DET3
 10
-292.5
 20
-230.0
 30
725.0
  0
VERTEX
  5
32A
  8
TEAM-DET3
 10
-292.5
 20
0.0
 30
725.0
  0
VERTEX
  5
32B
  8
TEAM-DET3
 10
292.5
 20
0.0
 30
725.0
  0
VERTEX
  5
32C
  8
TEAM-DET3
 10
292.5
 20
-230.0
 30
725.0
  0
SEQEND
  5
32D
  8
TEAM-DET3
  0
POLYLINE
  5
159
  8
TEAM-DET3
 66
     1
 10
0.0
 20
0.0
 30
725.0
  0
VERTEX
  5
32E
  8
TEAM-DET3
 10
292.5
 20
-230.0
 30
725.0
  0
VERTEX
  5
32F
  8
TEAM-DET3
 10
292.5
 20
-405.0
 30
725.0
  0
VERTEX
  5
330
  8
TEAM-DET3
 10
-292.5
 20
-405.0
 30
725.0
  0
VERTEX
  5
331
  8
TEAM-DET3
 10
-292.5
 20
-230.0
 30
725.0
  0
SEQEND
  5
332
  8
TEAM-DET3
  0
POLYLINE
  5
15A
  8
TEAM-NET
 66
     1
 10
0.0
 20
0.0
 30
0.0
 70
    16
 71
     2
 72
    37
  0
VERTEX
  5
15B
  8
TEAM-NET
 10
292.5
 20
-230.0
 30
725.0
 70
    64
  0
VERTEX
  5
15C
  8
TEAM-NET
 10
292.5
 20
-255.972222
 30
725.0
 70
    64
  0
VERTEX
  5
15D
  8
TEAM-NET
 10
292.5
 20
-281.944444
 30
725.0
 70
    64
  0
VERTEX
  5
15E
  8
TEAM-NET
 10
292.5
 20
-307.916667
 30
725.0
 70
    64
  0
VERTEX
  5
15F
  8
TEAM-NET
 10
292.5
 20
-333.888889
 30
725.0
 70
    64
  0
VERTEX
  5
160
  8
TEAM-NET
 10
292.5
 20
-359.861111
 30
725.0
 70
    64
  0
VERTEX
  5
161
  8
TEAM-NET
 10
292.5
 20
-385.833333
 30
725.0
 70
    64
  0
VERTEX
  5
162
  8
TEAM-NET
 10
285.694444
 20
-405.0
 30
725.0
 70
    64
  0
VERTEX
  5
163
  8
TEAM-NET
 10
259.722222
 20
-405.0
 30
725.0
 70
    64
  0
VERTEX
  5
164
  8
TEAM-NET
 10
233.75
 20
-405.0
 30
725.0
 70
    64
  0
VERTEX
  5
165
  8
TEAM-NET
 10
207.777778
 20
-405.0
 30
725.0
 70
    64
  0
VERTEX
  5
166
  8
TEAM-NET
 10
181.805556
 20
-405.0
 30
725.0
 70
    64
  0
VERTEX
  5
167
  8
TEAM-NET
 10
155.833333
 20
-405.0
 30
725.0
 70
    64
  0
VERTEX
  5
168
  8
TEAM-NET
 10
129.861111
 20
-405.0
 30
725.0
 70
    64
  0
VERTEX
  5
169
  8
TEAM-NET
 10
103.888889
 20
-405.0
 30
725.0
 70
    64
  0
VERTEX
  5
16A
  8
TEAM-NET
 10
77.916667
 20
-405.0
 30
725.0
 70
    64
  0
VERTEX
  5
16B
  8
TEAM-NET
 10
51.944444
 20
-405.0
 30
725.0
 70
    64
  0
VERTEX
  5
16C
  8
TEAM-NET
 10
25.972222
 20
-405.0
 30
725.0
 70
    64
  0
VERTEX
  5
16D
  8
TEAM-NET
 10
0.0
 20
-405.0
 30
725.0
 70
    64
  0
VERTEX
  5
16E
  8
TEAM-NET
 10
-25.972222
 20
-405.0
 30
725.0
 70
    64
  0
VERTEX
  5
16F
  8
TEAM-NET
 10
-51.944444
 20
-405.0
 30
725.0
 70
    64
  0
VERTEX
  5
170
  8
TEAM-NET
 10
-77.916667
 20
-405.0
 30
725.0
 70
    64
  0
VERTEX
  5
171
  8
TEAM-NET
 10
-103.888889
 20
-405.0
 30
725.0
 70
    64
  0
VERTEX
  5
172
  8
TEAM-NET
 10
-129.861111
 20
-405.0
 30
725.0
 70
    64
  0
VERTEX
  5
173
  8
TEAM-NET
 10
-155.833333
 20
-405.0
 30
725.0
 70
    64
  0
VERTEX
  5
174
  8
TEAM-NET
 10
-181.805556
 20
-405.0
 30
725.0
 70
    64
  0
VERTEX
  5
175
  8
TEAM-NET
 10
-207.777778
 20
-405.0
 30
725.0
 70
    64
  0
VERTEX
  5
176
  8
TEAM-NET
 10
-233.75
 20
-405.0
 30
725.0
 70
    64
  0
VERTEX
  5
177
  8
TEAM-NET
 10
-259.722222
 20
-405.0
 30
725.0
 70
    64
  0
VERTEX
  5
178
  8
TEAM-NET
 10
-285.694444
 20
-405.0
 30
725.0
 70
    64
  0
VERTEX
  5
179
  8
TEAM-NET
 10
-292.5
 20
-385.833333
 30
725.0
 70
    64
  0
VERTEX
  5
17A
  8
TEAM-NET
 10
-292.5
 20
-359.861111
 30
725.0
 70
    64
  0
VERTEX
  5
17B
  8
TEAM-NET
 10
-292.5
 20
-333.888889
 30
725.0
 70
    64
  0
VERTEX
  5
17C
  8
TEAM-NET
 10
-292.5
 20
-307.916667
 30
725.0
 70
    64
  0
VERTEX
  5
17D
  8
TEAM-NET
 10
-292.5
 20
-281.944444
 30
725.0
 70
    64
  0
VERTEX
  5
17E
  8
TEAM-NET
 10
-292.5
 20
-255.972222
 30
725.0
 70
    64
  0
VERTEX
  5
17F
  8
TEAM-NET
 10
-292.5
 20
-230.0
 30
725.0
 70
    64
  0
VERTEX
  5
180
  8
TEAM-NET
 10
292.5
 20
-230.0
 30
725.0
 70
    64
  0
VERTEX
  5
181
  8
TEAM-NET
 10
292.5
 20
-200.972222
 30
725.0
 70
    64
  0
VERTEX
  5
182
  8
TEAM-NET
 10
292.5
 20
-171.944444
 30
725.0
 70
    64
  0
VERTEX
  5
183
  8
TEAM-NET
 10
292.5
 20
-142.916667
 30
725.0
 70
    64
  0
VERTEX
  5
184
  8
TEAM-NET
 10
292.5
 20
-113.888889
 30
725.0
 70
    64
  0
VERTEX
  5
185
  8
TEAM-NET
 10
292.5
 20
-84.861111
 30
725.0
 70
    64
  0
VERTEX
  5
186
  8
TEAM-NET
 10
292.5
 20
-55.833333
 30
725.0
 70
    64
  0
VERTEX
  5
187
  8
TEAM-NET
 10
292.5
 20
-26.805556
 30
725.0
 70
    64
  0
VERTEX
  5
188
  8
TEAM-NET
 10
290.277778
 20
0.0
 30
725.0
 70
    64
  0
VERTEX
  5
189
  8
TEAM-NET
 10
261.25
 20
0.0
 30
725.0
 70
    64
  0
VERTEX
  5
18A
  8
TEAM-NET
 10
232.222222
 20
0.0
 30
725.0
 70
    64
  0
VERTEX
  5
18B
  8
TEAM-NET
 10
203.194444
 20
0.0
 30
725.0
 70
    64
  0
VERTEX
  5
18C
  8
TEAM-NET
 10
174.166667
 20
0.0
 30
725.0
 70
    64
  0
VERTEX
  5
18D
  8
TEAM-NET
 10
145.138889
 20
0.0
 30
725.0
 70
    64
  0
VERTEX
  5
18E
  8
TEAM-NET
 10
116.111111
 20
0.0
 30
725.0
 70
    64
  0
VERTEX
  5
18F
  8
TEAM-NET
 10
87.083333
 20
0.0
 30
725.0
 70
    64
  0
VERTEX
  5
190
  8
TEAM-NET
 10
58.055556
 20
0.0
 30
725.0
 70
    64
  0
VERTEX
  5
191
  8
TEAM-NET
 10
29.027778
 20
0.0
 30
725.0
 70
    64
  0
VERTEX
  5
192
  8
TEAM-NET
 10
0.0
 20
0.0
 30
725.0
 70
    64
  0
VERTEX
  5
193
  8
TEAM-NET
 10
-29.027778
 20
0.0
 30
725.0
 70
    64
  0
VERTEX
  5
194
  8
TEAM-NET
 10
-58.055556
 20
0.0
 30
725.0
 70
    64
  0
VERTEX
  5
195
  8
TEAM-NET
 10
-87.083333
 20
0.0
 30
725.0
 70
    64
  0
VERTEX
  5
196
  8
TEAM-NET
 10
-116.111111
 20
0.0
 30
725.0
 70
    64
  0
VERTEX
  5
197
  8
TEAM-NET
 10
-145.138889
 20
0.0
 30
725.0
 70
    64
  0
VERTEX
  5
198
  8
TEAM-NET
 10
-174.166667
 20
0.0
 30
725.0
 70
    64
  0
VERTEX
  5
199
  8
TEAM-NET
 10
-203.194444
 20
0.0
 30
725.0
 70
    64
  0
VERTEX
  5
19A
  8
TEAM-NET
 10
-232.222222
 20
0.0
 30
725.0
 70
    64
  0
VERTEX
  5
19B
  8
TEAM-NET
 10
-261.25
 20
0.0
 30
725.0
 70
    64
  0
VERTEX
  5
19C
  8
TEAM-NET
 10
-290.277778
 20
0.0
 30
725.0
 70
    64
  0
VERTEX
  5
19D
  8
TEAM-NET
 10
-292.5
 20
-26.805556
 30
725.0
 70
    64
  0
VERTEX
  5
19E
  8
TEAM-NET
 10
-292.5
 20
-55.833333
 30
725.0
 70
    64
  0
VERTEX
  5
19F
  8
TEAM-NET
 10
-292.5
 20
-84.861111
 30
725.0
 70
    64
  0
VERTEX
  5
1A0
  8
TEAM-NET
 10
-292.5
 20
-113.888889
 30
725.0
 70
    64
  0
VERTEX
  5
1A1
  8
TEAM-NET
 10
-292.5
 20
-142.916667
 30
725.0
 70
    64
  0
VERTEX
  5
1A2
  8
TEAM-NET
 10
-292.5
 20
-171.944444
 30
725.0
 70
    64
  0
VERTEX
  5
1A3
  8
TEAM-NET
 10
-292.5
 20
-200.972222
 30
725.0
 70
    64
  0
VERTEX
  5
1A4
  8
TEAM-NET
 10
-292.5
 20
-230.0
 30
725.0
 70
    64
  0
SEQEND
  5
1A5
  8
TEAM-NET
  0
POLYLINE
  5
1A6
  8
TEAM-DET1
 66
     1
 10
0.0
 20
0.0
 30
730.0
  0
VERTEX
  5
333
  8
TEAM-DET1
 10
-245.0
 20
-230.0
 30
730.0
  0
VERTEX
  5
334
  8
TEAM-DET1
 10
-245.0
 20
-125.0
 30
730.0
  0
VERTEX
  5
335
  8
TEAM-DET1
 10
245.0
 20
-125.0
 30
730.0
  0
VERTEX
  5
336
  8
TEAM-DET1
 10
245.0
 20
-230.0
 30
730.0
  0
SEQEND
  5
337
  8
TEAM-DET1
  0
POLYLINE
  5
1A7
  8
TEAM-DET1
 66
     1
 10
0.0
 20
0.0
 30
730.0
  0
VERTEX
  5
338
  8
TEAM-DET1
 10
245.0
 20
-230.0
 30
730.0
  0
VERTEX
  5
339
  8
TEAM-DET1
 10
245.0
 20
-335.0
 30
730.0
  0
VERTEX
  5
33A
  8
TEAM-DET1
 10
-245.0
 20
-335.0
 30
730.0
  0
VERTEX
  5
33B
  8
TEAM-DET1
 10
-245.0
 20
-230.0
 30
730.0
  0
SEQEND
  5
33C
  8
TEAM-DET1
  0
POLYLINE
  5
1A8
  8
TEAM-NET
 66
     1
 10
0.0
 20
0.0
 30
0.0
 70
    16
 71
     2
 72
    37
  0
VERTEX
  5
1A9
  8
TEAM-NET
 10
245.0
 20
-230.0
 30
730.0
 70
    64
  0
VERTEX
  5
1AA
  8
TEAM-NET
 10
245.0
 20
-210.555556
 30
730.0
 70
    64
  0
VERTEX
  5
1AB
  8
TEAM-NET
 10
245.0
 20
-191.111111
 30
730.0
 70
    64
  0
VERTEX
  5
1AC
  8
TEAM-NET
 10
245.0
 20
-171.666667
 30
730.0
 70
    64
  0
VERTEX
  5
1AD
  8
TEAM-NET
 10
245.0
 20
-152.222222
 30
730.0
 70
    64
  0
VERTEX
  5
1AE
  8
TEAM-NET
 10
245.0
 20
-132.777778
 30
730.0
 70
    64
  0
VERTEX
  5
1AF
  8
TEAM-NET
 10
233.333333
 20
-125.0
 30
730.0
 70
    64
  0
VERTEX
  5
1B0
  8
TEAM-NET
 10
213.888889
 20
-125.0
 30
730.0
 70
    64
  0
VERTEX
  5
1B1
  8
TEAM-NET
 10
194.444444
 20
-125.0
 30
730.0
 70
    64
  0
VERTEX
  5
1B2
  8
TEAM-NET
 10
175.0
 20
-125.0
 30
730.0
 70
    64
  0
VERTEX
  5
1B3
  8
TEAM-NET
 10
155.555556
 20
-125.0
 30
730.0
 70
    64
  0
VERTEX
  5
1B4
  8
TEAM-NET
 10
136.111111
 20
-125.0
 30
730.0
 70
    64
  0
VERTEX
  5
1B5
  8
TEAM-NET
 10
116.666667
 20
-125.0
 30
730.0
 70
    64
  0
VERTEX
  5
1B6
  8
TEAM-NET
 10
97.222222
 20
-125.0
 30
730.0
 70
    64
  0
VERTEX
  5
1B7
  8
TEAM-NET
 10
77.777778
 20
-125.0
 30
730.0
 70
    64
  0
VERTEX
  5
1B8
  8
TEAM-NET
 10
58.333333
 20
-125.0
 30
730.0
 70
    64
  0
VERTEX
  5
1B9
  8
TEAM-NET
 10
38.888889
 20
-125.0
 30
730.0
 70
    64
  0
VERTEX
  5
1BA
  8
TEAM-NET
 10
19.444444
 20
-125.0
 30
730.0
 70
    64
  0
VERTEX
  5
1BB
  8
TEAM-NET
 10
0.0
 20
-125.0
 30
730.0
 70
    64
  0
VERTEX
  5
1BC
  8
TEAM-NET
 10
-19.444444
 20
-125.0
 30
730.0
 70
    64
  0
VERTEX
  5
1BD
  8
TEAM-NET
 10
-38.888889
 20
-125.0
 30
730.0
 70
    64
  0
VERTEX
  5
1BE
  8
TEAM-NET
 10
-58.333333
 20
-125.0
 30
730.0
 70
    64
  0
VERTEX
  5
1BF
  8
TEAM-NET
 10
-77.777778
 20
-125.0
 30
730.0
 70
    64
  0
VERTEX
  5
1C0
  8
TEAM-NET
 10
-97.222222
 20
-125.0
 30
730.0
 70
    64
  0
VERTEX
  5
1C1
  8
TEAM-NET
 10
-116.666667
 20
-125.0
 30
730.0
 70
    64
  0
VERTEX
  5
1C2
  8
TEAM-NET
 10
-136.111111
 20
-125.0
 30
730.0
 70
    64
  0
VERTEX
  5
1C3
  8
TEAM-NET
 10
-155.555556
 20
-125.0
 30
730.0
 70
    64
  0
VERTEX
  5
1C4
  8
TEAM-NET
 10
-175.0
 20
-125.0
 30
730.0
 70
    64
  0
VERTEX
  5
1C5
  8
TEAM-NET
 10
-194.444444
 20
-125.0
 30
730.0
 70
    64
  0
VERTEX
  5
1C6
  8
TEAM-NET
 10
-213.888889
 20
-125.0
 30
730.0
 70
    64
  0
VERTEX
  5
1C7
  8
TEAM-NET
 10
-233.333333
 20
-125.0
 30
730.0
 70
    64
  0
VERTEX
  5
1C8
  8
TEAM-NET
 10
-245.0
 20
-132.777778
 30
730.0
 70
    64
  0
VERTEX
  5
1C9
  8
TEAM-NET
 10
-245.0
 20
-152.222222
 30
730.0
 70
    64
  0
VERTEX
  5
1CA
  8
TEAM-NET
 10
-245.0
 20
-171.666667
 30
730.0
 70
    64
  0
VERTEX
  5
1CB
  8
TEAM-NET
 10
-245.0
 20
-191.111111
 30
730.0
 70
    64
  0
VERTEX
  5
1CC
  8
TEAM-NET
 10
-245.0
 20
-210.555556
 30
730.0
 70
    64
  0
VERTEX
  5
1CD
  8
TEAM-NET
 10
-245.0
 20
-230.0
 30
730.0
 70
    64
  0
VERTEX
  5
1CE
  8
TEAM-NET
 10
245.0
 20
-230.0
 30
730.0
 70
    64
  0
VERTEX
  5
1CF
  8
TEAM-NET
 10
245.0
 20
-249.444444
 30
730.0
 70
    64
  0
VERTEX
  5
1D0
  8
TEAM-NET
 10
245.0
 20
-268.888889
 30
730.0
 70
    64
  0
VERTEX
  5
1D1
  8
TEAM-NET
 10
245.0
 20
-288.333333
 30
730.0
 70
    64
  0
VERTEX
  5
1D2
  8
TEAM-NET
 10
245.0
 20
-307.777778
 30
730.0
 70
    64
  0
VERTEX
  5
1D3
  8
TEAM-NET
 10
245.0
 20
-327.222222
 30
730.0
 70
    64
  0
VERTEX
  5
1D4
  8
TEAM-NET
 10
233.333333
 20
-335.0
 30
730.0
 70
    64
  0
VERTEX
  5
1D5
  8
TEAM-NET
 10
213.888889
 20
-335.0
 30
730.0
 70
    64
  0
VERTEX
  5
1D6
  8
TEAM-NET
 10
194.444444
 20
-335.0
 30
730.0
 70
    64
  0
VERTEX
  5
1D7
  8
TEAM-NET
 10
175.0
 20
-335.0
 30
730.0
 70
    64
  0
VERTEX
  5
1D8
  8
TEAM-NET
 10
155.555556
 20
-335.0
 30
730.0
 70
    64
  0
VERTEX
  5
1D9
  8
TEAM-NET
 10
136.111111
 20
-335.0
 30
730.0
 70
    64
  0
VERTEX
  5
1DA
  8
TEAM-NET
 10
116.666667
 20
-335.0
 30
730.0
 70
    64
  0
VERTEX
  5
1DB
  8
TEAM-NET
 10
97.222222
 20
-335.0
 30
730.0
 70
    64
  0
VERTEX
  5
1DC
  8
TEAM-NET
 10
77.777778
 20
-335.0
 30
730.0
 70
    64
  0
VERTEX
  5
1DD
  8
TEAM-NET
 10
58.333333
 20
-335.0
 30
730.0
 70
    64
  0
VERTEX
  5
1DE
  8
TEAM-NET
 10
38.888889
 20
-335.0
 30
730.0
 70
    64
  0
VERTEX
  5
1DF
  8
TEAM-NET
 10
19.444444
 20
-335.0
 30
730.0
 70
    64
  0
VERTEX
  5
1E0
  8
TEAM-NET
 10
0.0
 20
-335.0
 30
730.0
 70
    64
  0
VERTEX
  5
1E1
  8
TEAM-NET
 10
-19.444444
 20
-335.0
 30
730.0
 70
    64
  0
VERTEX
  5
1E2
  8
TEAM-NET
 10
-38.888889
 20
-335.0
 30
730.0
 70
    64
  0
VERTEX
  5
1E3
  8
TEAM-NET
 10
-58.333333
 20
-335.0
 30
730.0
 70
    64
  0
VERTEX
  5
1E4
  8
TEAM-NET
 10
-77.777778
 20
-335.0
 30
730.0
 70
    64
  0
VERTEX
  5
1E5
  8
TEAM-NET
 10
-97.222222
 20
-335.0
 30
730.0
 70
    64
  0
VERTEX
  5
1E6
  8
TEAM-NET
 10
-116.666667
 20
-335.0
 30
730.0
 70
    64
  0
VERTEX
  5
1E7
  8
TEAM-NET
 10
-136.111111
 20
-335.0
 30
730.0
 70
    64
  0
VERTEX
  5
1E8
  8
TEAM-NET
 10
-155.555556
 20
-335.0
 30
730.0
 70
    64
  0
VERTEX
  5
1E9
  8
TEAM-NET
 10
-175.0
 20
-335.0
 30
730.0
 70
    64
  0
VERTEX
  5
1EA
  8
TEAM-NET
 10
-194.444444
 20
-335.0
 30
730.0
 70
    64
  0
VERTEX
  5
1EB
  8
TEAM-NET
 10
-213.888889
 20
-335.0
 30
730.0
 70
    64
  0
VERTEX
  5
1EC
  8
TEAM-NET
 10
-233.333333
 20
-335.0
 30
730.0
 70
    64
  0
VERTEX
  5
1ED
  8
TEAM-NET
 10
-245.0
 20
-327.222222
 30
730.0
 70
    64
  0
VERTEX
  5
1EE
  8
TEAM-NET
 10
-245.0
 20
-307.777778
 30
730.0
 70
    64
  0
VERTEX
  5
1EF
  8
TEAM-NET
 10
-245.0
 20
-288.333333
 30
730.0
 70
    64
  0
VERTEX
  5
1F0
  8
TEAM-NET
 10
-245.0
 20
-268.888889
 30
730.0
 70
    64
  0
VERTEX
  5
1F1
  8
TEAM-NET
 10
-245.0
 20
-249.444444
 30
730.0
 70
    64
  0
VERTEX
  5
1F2
  8
TEAM-NET
 10
-245.0
 20
-230.0
 30
730.0
 70
    64
  0
SEQEND
  5
1F3
  8
TEAM-NET
  0
LINE
  5
1F4
  8
TEAM-AXE
 10
0.0
 20
-210.0
 30
730.0
 11
0.0
 21
-140.0
 31
730.0
  0
LINE
  5
1F7
  8
TEAM-AXE
 10
35.0
 20
-175.0
 30
730.0
 11
-35.0
 21
-175.0
 31
730.0
  0
POLYLINE
  5
1F8
  8
TEAM-NET
 66
     1
 10
0.0
 20
0.0
 30
0.0
 70
    16
 71
     2
 72
    37
  0
VERTEX
  5
1F9
  8
TEAM-NET
 10
-292.5
 20
-230.0
 30
850.0
 70
    64
  0
VERTEX
  5
1FA
  8
TEAM-NET
 10
-292.5
 20
-200.972222
 30
850.0
 70
    64
  0
VERTEX
  5
1FB
  8
TEAM-NET
 10
-292.5
 20
-171.944444
 30
850.0
 70
    64
  0
VERTEX
  5
1FC
  8
TEAM-NET
 10
-292.5
 20
-142.916667
 30
850.0
 70
    64
  0
VERTEX
  5
1FD
  8
TEAM-NET
 10
-292.5
 20
-113.888889
 30
850.0
 70
    64
  0
VERTEX
  5
1FE
  8
TEAM-NET
 10
-292.5
 20
-84.861111
 30
850.0
 70
    64
  0
VERTEX
  5
1FF
  8
TEAM-NET
 10
-292.5
 20
-55.833333
 30
850.0
 70
    64
  0
VERTEX
  5
200
  8
TEAM-NET
 10
-292.5
 20
-26.805556
 30
850.0
 70
    64
  0
VERTEX
  5
201
  8
TEAM-NET
 10
-290.277778
 20
0.0
 30
850.0
 70
    64
  0
VERTEX
  5
202
  8
TEAM-NET
 10
-261.25
 20
0.0
 30
850.0
 70
    64
  0
VERTEX
  5
203
  8
TEAM-NET
 10
-232.222222
 20
0.0
 30
850.0
 70
    64
  0
VERTEX
  5
204
  8
TEAM-NET
 10
-203.194444
 20
0.0
 30
850.0
 70
    64
  0
VERTEX
  5
205
  8
TEAM-NET
 10
-174.166667
 20
0.0
 30
850.0
 70
    64
  0
VERTEX
  5
206
  8
TEAM-NET
 10
-145.138889
 20
0.0
 30
850.0
 70
    64
  0
VERTEX
  5
207
  8
TEAM-NET
 10
-116.111111
 20
0.0
 30
850.0
 70
    64
  0
VERTEX
  5
208
  8
TEAM-NET
 10
-87.083333
 20
0.0
 30
850.0
 70
    64
  0
VERTEX
  5
209
  8
TEAM-NET
 10
-58.055556
 20
0.0
 30
850.0
 70
    64
  0
VERTEX
  5
20A
  8
TEAM-NET
 10
-29.027778
 20
0.0
 30
850.0
 70
    64
  0
VERTEX
  5
20B
  8
TEAM-NET
 10
0.0
 20
0.0
 30
850.0
 70
    64
  0
VERTEX
  5
20C
  8
TEAM-NET
 10
29.027778
 20
0.0
 30
850.0
 70
    64
  0
VERTEX
  5
20D
  8
TEAM-NET
 10
58.055556
 20
0.0
 30
850.0
 70
    64
  0
VERTEX
  5
20E
  8
TEAM-NET
 10
87.083333
 20
0.0
 30
850.0
 70
    64
  0
VERTEX
  5
20F
  8
TEAM-NET
 10
116.111111
 20
0.0
 30
850.0
 70
    64
  0
VERTEX
  5
210
  8
TEAM-NET
 10
145.138889
 20
0.0
 30
850.0
 70
    64
  0
VERTEX
  5
211
  8
TEAM-NET
 10
174.166667
 20
0.0
 30
850.0
 70
    64
  0
VERTEX
  5
212
  8
TEAM-NET
 10
203.194444
 20
0.0
 30
850.0
 70
    64
  0
VERTEX
  5
213
  8
TEAM-NET
 10
232.222222
 20
0.0
 30
850.0
 70
    64
  0
VERTEX
  5
214
  8
TEAM-NET
 10
261.25
 20
0.0
 30
850.0
 70
    64
  0
VERTEX
  5
215
  8
TEAM-NET
 10
290.277778
 20
0.0
 30
850.0
 70
    64
  0
VERTEX
  5
216
  8
TEAM-NET
 10
292.5
 20
-26.805556
 30
850.0
 70
    64
  0
VERTEX
  5
217
  8
TEAM-NET
 10
292.5
 20
-55.833333
 30
850.0
 70
    64
  0
VERTEX
  5
218
  8
TEAM-NET
 10
292.5
 20
-84.861111
 30
850.0
 70
    64
  0
VERTEX
  5
219
  8
TEAM-NET
 10
292.5
 20
-113.888889
 30
850.0
 70
    64
  0
VERTEX
  5
21A
  8
TEAM-NET
 10
292.5
 20
-142.916667
 30
850.0
 70
    64
  0
VERTEX
  5
21B
  8
TEAM-NET
 10
292.5
 20
-171.944444
 30
850.0
 70
    64
  0
VERTEX
  5
21C
  8
TEAM-NET
 10
292.5
 20
-200.972222
 30
850.0
 70
    64
  0
VERTEX
  5
21D
  8
TEAM-NET
 10
292.5
 20
-230.0
 30
850.0
 70
    64
  0
VERTEX
  5
21E
  8
TEAM-NET
 10
-250.0
 20
-230.0
 30
850.0
 70
    64
  0
VERTEX
  5
21F
  8
TEAM-NET
 10
-250.0
 20
-209.365782
 30
850.0
 70
    64
  0
VERTEX
  5
220
  8
TEAM-NET
 10
-250.0
 20
-188.731564
 30
850.0
 70
    64
  0
VERTEX
  5
221
  8
TEAM-NET
 10
-250.0
 20
-168.097346
 30
850.0
 70
    64
  0
VERTEX
  5
222
  8
TEAM-NET
 10
-250.0
 20
-147.463127
 30
850.0
 70
    64
  0
VERTEX
  5
223
  8
TEAM-NET
 10
-250.0
 20
-126.828909
 30
850.0
 70
    64
  0
VERTEX
  5
224
  8
TEAM-NET
 10
-245.42154
 20
-107.265162
 30
850.0
 70
    64
  0
VERTEX
  5
225
  8
TEAM-NET
 10
-226.9764
 20
-100.0
 30
850.0
 70
    64
  0
VERTEX
  5
226
  8
TEAM-NET
 10
-206.342181
 20
-100.0
 30
850.0
 70
    64
  0
VERTEX
  5
227
  8
TEAM-NET
 10
-185.707963
 20
-100.0
 30
850.0
 70
    64
  0
VERTEX
  5
228
  8
TEAM-NET
 10
-165.073745
 20
-100.0
 30
850.0
 70
    64
  0
VERTEX
  5
229
  8
TEAM-NET
 10
-144.439527
 20
-100.0
 30
850.0
 70
    64
  0
VERTEX
  5
22A
  8
TEAM-NET
 10
-123.805309
 20
-100.0
 30
850.0
 70
    64
  0
VERTEX
  5
22B
  8
TEAM-NET
 10
-103.171091
 20
-100.0
 30
850.0
 70
    64
  0
VERTEX
  5
22C
  8
TEAM-NET
 10
-82.536873
 20
-100.0
 30
850.0
 70
    64
  0
VERTEX
  5
22D
  8
TEAM-NET
 10
-61.902654
 20
-100.0
 30
850.0
 70
    64
  0
VERTEX
  5
22E
  8
TEAM-NET
 10
-41.268436
 20
-100.0
 30
850.0
 70
    64
  0
VERTEX
  5
22F
  8
TEAM-NET
 10
-20.634218
 20
-100.0
 30
850.0
 70
    64
  0
VERTEX
  5
230
  8
TEAM-NET
 10
0.0
 20
-100.0
 30
850.0
 70
    64
  0
VERTEX
  5
231
  8
TEAM-NET
 10
20.634218
 20
-100.0
 30
850.0
 70
    64
  0
VERTEX
  5
232
  8
TEAM-NET
 10
41.268436
 20
-100.0
 30
850.0
 70
    64
  0
VERTEX
  5
233
  8
TEAM-NET
 10
61.902654
 20
-100.0
 30
850.0
 70
    64
  0
VERTEX
  5
234
  8
TEAM-NET
 10
82.536873
 20
-100.0
 30
850.0
 70
    64
  0
VERTEX
  5
235
  8
TEAM-NET
 10
103.171091
 20
-100.0
 30
850.0
 70
    64
  0
VERTEX
  5
236
  8
TEAM-NET
 10
123.805309
 20
-100.0
 30
850.0
 70
    64
  0
VERTEX
  5
237
  8
TEAM-NET
 10
144.439527
 20
-100.0
 30
850.0
 70
    64
  0
VERTEX
  5
238
  8
TEAM-NET
 10
165.073745
 20
-100.0
 30
850.0
 70
    64
  0
VERTEX
  5
239
  8
TEAM-NET
 10
185.707963
 20
-100.0
 30
850.0
 70
    64
  0
VERTEX
  5
23A
  8
TEAM-NET
 10
206.342181
 20
-100.0
 30
850.0
 70
    64
  0
VERTEX
  5
23B
  8
TEAM-NET
 10
226.9764
 20
-100.0
 30
850.0
 70
    64
  0
VERTEX
  5
23C
  8
TEAM-NET
 10
245.42154
 20
-107.265162
 30
850.0
 70
    64
  0
VERTEX
  5
23D
  8
TEAM-NET
 10
250.0
 20
-126.828909
 30
850.0
 70
    64
  0
VERTEX
  5
23E
  8
TEAM-NET
 10
250.0
 20
-147.463127
 30
850.0
 70
    64
  0
VERTEX
  5
23F
  8
TEAM-NET
 10
250.0
 20
-168.097346
 30
850.0
 70
    64
  0
VERTEX
  5
240
  8
TEAM-NET
 10
250.0
 20
-188.731564
 30
850.0
 70
    64
  0
VERTEX
  5
241
  8
TEAM-NET
 10
250.0
 20
-209.365782
 30
850.0
 70
    64
  0
VERTEX
  5
242
  8
TEAM-NET
 10
250.0
 20
-230.0
 30
850.0
 70
    64
  0
SEQEND
  5
243
  8
TEAM-NET
  0
POLYLINE
  5
244
  8
TEAM-BODY
 66
     1
 10
0.0
 20
0.0
 30
850.0
  0
VERTEX
  5
33D
  8
TEAM-BODY
 10
-292.5
 20
-230.0
 30
850.0
  0
VERTEX
  5
33E
  8
TEAM-BODY
 10
-292.5
 20
0.0
 30
850.0
  0
VERTEX
  5
33F
  8
TEAM-BODY
 10
292.5
 20
0.0
 30
850.0
  0
VERTEX
  5
340
  8
TEAM-BODY
 10
292.5
 20
-230.0
 30
850.0
  0
SEQEND
  5
341
  8
TEAM-BODY
  0
POLYLINE
  5
246
  8
TEAM-BODY
 66
     1
 10
0.0
 20
0.0
 30
850.0
  0
VERTEX
  5
342
  8
TEAM-BODY
 10
292.5
 20
-230.0
 30
850.0
  0
VERTEX
  5
343
  8
TEAM-BODY
 10
292.5
 20
-405.0
 30
850.0
  0
VERTEX
  5
344
  8
TEAM-BODY
 10
-292.5
 20
-405.0
 30
850.0
  0
VERTEX
  5
345
  8
TEAM-BODY
 10
-292.5
 20
-230.0
 30
850.0
  0
SEQEND
  5
346
  8
TEAM-BODY
  0
POLYLINE
  5
247
  8
TEAM-BODY
 66
     1
 10
0.0
 20
0.0
 30
850.0
  0
VERTEX
  5
347
  8
TEAM-BODY
 10
-250.0
 20
-230.0
 30
850.0
  0
VERTEX
  5
348
  8
TEAM-BODY
 10
-250.0
 20
-120.0
 30
850.0
 42
-0.414214
  0
VERTEX
  5
349
  8
TEAM-BODY
 10
-230.0
 20
-100.0
 30
850.0
  0
VERTEX
  5
34A
  8
TEAM-BODY
 10
230.0
 20
-100.0
 30
850.0
 42
-0.414214
  0
VERTEX
  5
34B
  8
TEAM-BODY
 10
250.0
 20
-120.0
 30
850.0
  0
VERTEX
  5
34C
  8
TEAM-BODY
 10
250.0
 20
-230.0
 30
850.0
  0
SEQEND
  5
34D
  8
TEAM-BODY
  0
POLYLINE
  5
248
  8
TEAM-BODY
 66
     1
 10
0.0
 20
0.0
 30
850.0
  0
VERTEX
  5
34E
  8
TEAM-BODY
 10
250.0
 20
-230.0
 30
850.0
  0
VERTEX
  5
34F
  8
TEAM-BODY
 10
250.0
 20
-340.0
 30
850.0
 42
-0.414214
  0
VERTEX
  5
350
  8
TEAM-BODY
 10
230.0
 20
-360.0
 30
850.0
  0
VERTEX
  5
351
  8
TEAM-BODY
 10
-230.0
 20
-360.0
 30
850.0
 42
-0.414214
  0
VERTEX
  5
352
  8
TEAM-BODY
 10
-250.0
 20
-340.0
 30
850.0
  0
VERTEX
  5
353
  8
TEAM-BODY
 10
-250.0
 20
-230.0
 30
850.0
  0
SEQEND
  5
354
  8
TEAM-BODY
  0
TEXT
  5
249
  8
TEAM-TXT
 10
-242.535344
 20
-307.186333
 30
850.0
 40
30.0
  1
team 217058
 41
0.8
 51
15.0
  7
TEAM
  0
CIRCLE
  5
24C
  8
TEAM-DET1
 10
0.0
 20
-50.0
 30
850.0
 40
18.0
  0
LINE
  5
24D
  8
TEAM-AXE
 10
20.0
 20
-50.0
 30
850.0
 11
-20.0
 21
-50.0
 31
850.0
  0
LINE
  5
24E
  8
TEAM-AXE
 10
0.0
 20
-70.0
 30
850.0
 11
0.0
 21
-30.0
 31
850.0
  0
POLYLINE
  5
24F
  8
TEAM-NET
 66
     1
 10
0.0
 20
0.0
 30
0.0
 70
    16
 71
     2
 72
    37
  0
VERTEX
  5
250
  8
TEAM-NET
 10
-250.0
 20
-230.0
 30
850.0
 70
    64
  0
VERTEX
  5
251
  8
TEAM-NET
 10
-250.0
 20
-250.634218
 30
850.0
 70
    64
  0
VERTEX
  5
252
  8
TEAM-NET
 10
-250.0
 20
-271.268436
 30
850.0
 70
    64
  0
VERTEX
  5
253
  8
TEAM-NET
 10
-250.0
 20
-291.902654
 30
850.0
 70
    64
  0
VERTEX
  5
254
  8
TEAM-NET
 10
-250.0
 20
-312.536873
 30
850.0
 70
    64
  0
VERTEX
  5
255
  8
TEAM-NET
 10
-250.0
 20
-333.171091
 30
850.0
 70
    64
  0
VERTEX
  5
256
  8
TEAM-NET
 10
-245.42154
 20
-352.734838
 30
850.0
 70
    64
  0
VERTEX
  5
257
  8
TEAM-NET
 10
-226.9764
 20
-360.0
 30
850.0
 70
    64
  0
VERTEX
  5
258
  8
TEAM-NET
 10
-206.342181
 20
-360.0
 30
850.0
 70
    64
  0
VERTEX
  5
259
  8
TEAM-NET
 10
-185.707963
 20
-360.0
 30
850.0
 70
    64
  0
VERTEX
  5
25A
  8
TEAM-NET
 10
-165.073745
 20
-360.0
 30
850.0
 70
    64
  0
VERTEX
  5
25B
  8
TEAM-NET
 10
-144.439527
 20
-360.0
 30
850.0
 70
    64
  0
VERTEX
  5
25C
  8
TEAM-NET
 10
-123.805309
 20
-360.0
 30
850.0
 70
    64
  0
VERTEX
  5
25D
  8
TEAM-NET
 10
-103.171091
 20
-360.0
 30
850.0
 70
    64
  0
VERTEX
  5
25E
  8
TEAM-NET
 10
-82.536873
 20
-360.0
 30
850.0
 70
    64
  0
VERTEX
  5
25F
  8
TEAM-NET
 10
-61.902654
 20
-360.0
 30
850.0
 70
    64
  0
VERTEX
  5
260
  8
TEAM-NET
 10
-41.268436
 20
-360.0
 30
850.0
 70
    64
  0
VERTEX
  5
261
  8
TEAM-NET
 10
-20.634218
 20
-360.0
 30
850.0
 70
    64
  0
VERTEX
  5
262
  8
TEAM-NET
 10
0.0
 20
-360.0
 30
850.0
 70
    64
  0
VERTEX
  5
263
  8
TEAM-NET
 10
20.634218
 20
-360.0
 30
850.0
 70
    64
  0
VERTEX
  5
264
  8
TEAM-NET
 10
41.268436
 20
-360.0
 30
850.0
 70
    64
  0
VERTEX
  5
265
  8
TEAM-NET
 10
61.902654
 20
-360.0
 30
850.0
 70
    64
  0
VERTEX
  5
266
  8
TEAM-NET
 10
82.536873
 20
-360.0
 30
850.0
 70
    64
  0
VERTEX
  5
267
  8
TEAM-NET
 10
103.171091
 20
-360.0
 30
850.0
 70
    64
  0
VERTEX
  5
268
  8
TEAM-NET
 10
123.805309
 20
-360.0
 30
850.0
 70
    64
  0
VERTEX
  5
269
  8
TEAM-NET
 10
144.439527
 20
-360.0
 30
850.0
 70
    64
  0
VERTEX
  5
26A
  8
TEAM-NET
 10
165.073745
 20
-360.0
 30
850.0
 70
    64
  0
VERTEX
  5
26B
  8
TEAM-NET
 10
185.707963
 20
-360.0
 30
850.0
 70
    64
  0
VERTEX
  5
26C
  8
TEAM-NET
 10
206.342181
 20
-360.0
 30
850.0
 70
    64
  0
VERTEX
  5
26D
  8
TEAM-NET
 10
226.9764
 20
-360.0
 30
850.0
 70
    64
  0
VERTEX
  5
26E
  8
TEAM-NET
 10
245.42154
 20
-352.734838
 30
850.0
 70
    64
  0
VERTEX
  5
26F
  8
TEAM-NET
 10
250.0
 20
-333.171091
 30
850.0
 70
    64
  0
VERTEX
  5
270
  8
TEAM-NET
 10
250.0
 20
-312.536873
 30
850.0
 70
    64
  0
VERTEX
  5
271
  8
TEAM-NET
 10
250.0
 20
-291.902654
 30
850.0
 70
    64
  0
VERTEX
  5
272
  8
TEAM-NET
 10
250.0
 20
-271.268436
 30
850.0
 70
    64
  0
VERTEX
  5
273
  8
TEAM-NET
 10
250.0
 20
-250.634218
 30
850.0
 70
    64
  0
VERTEX
  5
274
  8
TEAM-NET
 10
250.0
 20
-230.0
 30
850.0
 70
    64
  0
VERTEX
  5
275
  8
TEAM-NET
 10
-292.5
 20
-230.0
 30
850.0
 70
    64
  0
VERTEX
  5
276
  8
TEAM-NET
 10
-292.5
 20
-255.972222
 30
850.0
 70
    64
  0
VERTEX
  5
277
  8
TEAM-NET
 10
-292.5
 20
-281.944444
 30
850.0
 70
    64
  0
VERTEX
  5
278
  8
TEAM-NET
 10
-292.5
 20
-307.916667
 30
850.0
 70
    64
  0
VERTEX
  5
279
  8
TEAM-NET
 10
-292.5
 20
-333.888889
 30
850.0
 70
    64
  0
VERTEX
  5
27A
  8
TEAM-NET
 10
-292.5
 20
-359.861111
 30
850.0
 70
    64
  0
VERTEX
  5
27B
  8
TEAM-NET
 10
-292.5
 20
-385.833333
 30
850.0
 70
    64
  0
VERTEX
  5
27C
  8
TEAM-NET
 10
-285.694444
 20
-405.0
 30
850.0
 70
    64
  0
VERTEX
  5
27D
  8
TEAM-NET
 10
-259.722222
 20
-405.0
 30
850.0
 70
    64
  0
VERTEX
  5
27E
  8
TEAM-NET
 10
-233.75
 20
-405.0
 30
850.0
 70
    64
  0
VERTEX
  5
27F
  8
TEAM-NET
 10
-207.777778
 20
-405.0
 30
850.0
 70
    64
  0
VERTEX
  5
280
  8
TEAM-NET
 10
-181.805556
 20
-405.0
 30
850.0
 70
    64
  0
VERTEX
  5
281
  8
TEAM-NET
 10
-155.833333
 20
-405.0
 30
850.0
 70
    64
  0
VERTEX
  5
282
  8
TEAM-NET
 10
-129.861111
 20
-405.0
 30
850.0
 70
    64
  0
VERTEX
  5
283
  8
TEAM-NET
 10
-103.888889
 20
-405.0
 30
850.0
 70
    64
  0
VERTEX
  5
284
  8
TEAM-NET
 10
-77.916667
 20
-405.0
 30
850.0
 70
    64
  0
VERTEX
  5
285
  8
TEAM-NET
 10
-51.944444
 20
-405.0
 30
850.0
 70
    64
  0
VERTEX
  5
286
  8
TEAM-NET
 10
-25.972222
 20
-405.0
 30
850.0
 70
    64
  0
VERTEX
  5
287
  8
TEAM-NET
 10
0.0
 20
-405.0
 30
850.0
 70
    64
  0
VERTEX
  5
288
  8
TEAM-NET
 10
25.972222
 20
-405.0
 30
850.0
 70
    64
  0
VERTEX
  5
289
  8
TEAM-NET
 10
51.944444
 20
-405.0
 30
850.0
 70
    64
  0
VERTEX
  5
28A
  8
TEAM-NET
 10
77.916667
 20
-405.0
 30
850.0
 70
    64
  0
VERTEX
  5
28B
  8
TEAM-NET
 10
103.888889
 20
-405.0
 30
850.0
 70
    64
  0
VERTEX
  5
28C
  8
TEAM-NET
 10
129.861111
 20
-405.0
 30
850.0
 70
    64
  0
VERTEX
  5
28D
  8
TEAM-NET
 10
155.833333
 20
-405.0
 30
850.0
 70
    64
  0
VERTEX
  5
28E
  8
TEAM-NET
 10
181.805556
 20
-405.0
 30
850.0
 70
    64
  0
VERTEX
  5
28F
  8
TEAM-NET
 10
207.777778
 20
-405.0
 30
850.0
 70
    64
  0
VERTEX
  5
290
  8
TEAM-NET
 10
233.75
 20
-405.0
 30
850.0
 70
    64
  0
VERTEX
  5
291
  8
TEAM-NET
 10
259.722222
 20
-405.0
 30
850.0
 70
    64
  0
VERTEX
  5
292
  8
TEAM-NET
 10
285.694444
 20
-405.0
 30
850.0
 70
    64
  0
VERTEX
  5
293
  8
TEAM-NET
 10
292.5
 20
-385.833333
 30
850.0
 70
    64
  0
VERTEX
  5
294
  8
TEAM-NET
 10
292.5
 20
-359.861111
 30
850.0
 70
    64
  0
VERTEX
  5
295
  8
TEAM-NET
 10
292.5
 20
-333.888889
 30
850.0
 70
    64
  0
VERTEX
  5
296
  8
TEAM-NET
 10
292.5
 20
-307.916667
 30
850.0
 70
    64
  0
VERTEX
  5
297
  8
TEAM-NET
 10
292.5
 20
-281.944444
 30
850.0
 70
    64
  0
VERTEX
  5
298
  8
TEAM-NET
 10
292.5
 20
-255.972222
 30
850.0
 70
    64
  0
VERTEX
  5
299
  8
TEAM-NET
 10
292.5
 20
-230.0
 30
850.0
 70
    64
  0
SEQEND
  5
29A
  8
TEAM-NET
  0
ENDSEC
  0
EOF
