  0
SECTION
  2
HEADER
  9
$ACADVER
  1
AC1009
  9
$INSBASE
 10
0.0
 20
0.0
 30
850.0
  9
$EXTMIN
 10
-150.009155
 20
-300.00946
 30
-0.025938
  9
$EXTMAX
 10
150.009156
 20
10.009461
 30
850.025942
  9
$LIMMIN
 10
-150.009155
 20
-300.00946
  9
$LIMMAX
 10
150.009156
 20
10.009461
  9
$ORTHOMODE
 70
     1
  9
$REGENMODE
 70
     1
  9
$FILLMODE
 70
     1
  9
$QTEXTMODE
 70
     0
  9
$MIRRTEXT
 70
     0
  9
$DRAGMODE
 70
     2
  9
$LTSCALE
 40
50.0
  9
$OSMODE
 70
     7
  9
$ATTMODE
 70
     1
  9
$TEXTSIZE
 40
200.0
  9
$TRACEWID
 40
1.0
  9
$TEXTSTYLE
  7
STANDARD
  9
$CLAYER
  8
TEAM-MAS
  9
$CELTYPE
  6
BYLAYER
  9
$CECOLOR
 62
   256
  9
$DIMSCALE
 40
1.0
  9
$DIMASZ
 40
20.0
  9
$DIMEXO
 40
10.0
  9
$DIMDLI
 40
1.0
  9
$DIMRND
 40
0.0
  9
$DIMDLE
 40
0.0
  9
$DIMEXE
 40
1.0
  9
$DIMTP
 40
0.0
  9
$DIMTM
 40
0.0
  9
$DIMTXT
 40
35.0
  9
$DIMCEN
 40
1.0
  9
$DIMTSZ
 40
0.0
  9
$DIMTOL
 70
     0
  9
$DIMLIM
 70
     0
  9
$DIMTIH
 70
     0
  9
$DIMTOH
 70
     0
  9
$DIMSE1
 70
     0
  9
$DIMSE2
 70
     0
  9
$DIMTAD
 70
     0
  9
$DIMZIN
 70
     0
  9
$DIMBLK
  1

  9
$DIMASO
 70
     1
  9
$DIMSHO
 70
     0
  9
$DIMPOST
  1

  9
$DIMAPOST
  1

  9
$DIMALT
 70
     0
  9
$DIMALTD
 70
     2
  9
$DIMALTF
 40
25.4
  9
$DIMLFAC
 40
1.0
  9
$DIMTOFL
 70
     0
  9
$DIMTVP
 40
0.0
  9
$DIMTIX
 70
     0
  9
$DIMSOXD
 70
     0
  9
$DIMSAH
 70
     0
  9
$DIMBLK1
  1

  9
$DIMBLK2
  1

  9
$DIMSTYLE
  2
TEAM
  9
$DIMCLRD
 70
     9
  9
$DIMCLRE
 70
     9
  9
$DIMCLRT
 70
    11
  9
$DIMTFAC
 40
1.0
  9
$DIMGAP
 40
7.0
  9
$LUNITS
 70
     2
  9
$LUPREC
 70
     1
  9
$SKETCHINC
 40
1.0
  9
$FILLETRAD
 40
44.0
  9
$AUNITS
 70
     0
  9
$AUPREC
 70
     0
  9
$MENU
  1
ROPLANS
  9
$ELEVATION
 40
0.0
  9
$PELEVATION
 40
0.0
  9
$THICKNESS
 40
0.0
  9
$LIMCHECK
 70
     0
  9
$BLIPMODE
 70
     1
  9
$CHAMFERA
 40
0.0
  9
$CHAMFERB
 40
0.0
  9
$SKPOLY
 70
     0
  9
$TDCREATE
 40
2450392.957851
  9
$TDUPDATE
 40
2455981.928629
  9
$TDINDWG
 40
3.777306
  9
$TDUSRTIMER
 40
3.777306
  9
$USRTIMER
 70
     1
  9
$ANGBASE
 50
0.0
  9
$ANGDIR
 70
     0
  9
$PDMODE
 70
     0
  9
$PDSIZE
 40
0.0
  9
$PLINEWID
 40
0.0
  9
$COORDS
 70
     2
  9
$SPLFRAME
 70
     0
  9
$SPLINETYPE
 70
     6
  9
$SPLINESEGS
 70
     8
  9
$ATTDIA
 70
     0
  9
$ATTREQ
 70
     0
  9
$HANDLING
 70
     1
  9
$HANDSEED
  5
BB7
  9
$SURFTAB1
 70
    36
  9
$SURFTAB2
 70
    36
  9
$SURFTYPE
 70
     6
  9
$SURFU
 70
     6
  9
$SURFV
 70
     6
  9
$UCSNAME
  2

  9
$UCSORG
 10
0.0
 20
0.0
 30
0.0
  9
$UCSXDIR
 10
1.0
 20
0.0
 30
0.0
  9
$UCSYDIR
 10
0.0
 20
1.0
 30
0.0
  9
$PUCSNAME
  2

  9
$PUCSORG
 10
0.0
 20
0.0
 30
0.0
  9
$PUCSXDIR
 10
1.0
 20
0.0
 30
0.0
  9
$PUCSYDIR
 10
0.0
 20
1.0
 30
0.0
  9
$USERI1
 70
     0
  9
$USERI2
 70
     0
  9
$USERI3
 70
     0
  9
$USERI4
 70
     0
  9
$USERI5
 70
     0
  9
$USERR1
 40
0.0
  9
$USERR2
 40
0.0
  9
$USERR3
 40
0.0
  9
$USERR4
 40
0.0
  9
$USERR5
 40
0.0
  9
$WORLDVIEW
 70
     1
  9
$SHADEDGE
 70
     0
  9
$SHADEDIF
 70
    70
  9
$TILEMODE
 70
     1
  9
$MAXACTVP
 70
    16
  9
$PLIMCHECK
 70
     0
  9
$PEXTMIN
 10
-0.805942
 20
0.005011
 30
0.0
  9
$PEXTMAX
 10
20.250094
 20
11.356329
 30
0.0
  9
$PLIMMIN
 10
0.0
 20
0.0
  9
$PLIMMAX
 10
12.0
 20
9.0
  9
$UNITMODE
 70
     0
  9
$VISRETAIN
 70
     0
  9
$PLINEGEN
 70
     0
  9
$PSLTSCALE
 70
     0
  0
ENDSEC
  0
SECTION
  2
TABLES
  0
TABLE
  2
VPORT
 70
     2
  0
VPORT
  2
*ACTIVE
 70
     0
 10
0.0
 20
0.0
 11
1.0
 21
1.0
 12
0.000001
 22
-144.999999
 13
0.0
 23
0.0
 14
1.0
 24
1.0
 15
50.0
 25
50.0
 16
0.0
 26
0.0
 36
1.0
 17
0.0
 27
0.0
 37
0.0
 40
311.962613
 41
1.903766
 42
50.0
 43
0.0
 44
0.0
 50
0.0
 51
0.0
 71
     0
 72
   100
 73
     1
 74
     1
 75
     0
 76
     0
 77
     0
 78
     0
  0
ENDTAB
  0
TABLE
  2
LTYPE
 70
     2
  0
LTYPE
  2
CONTINUOUS
 70
     0
  3
Solid Line
 72
    65
 73
     0
 40
0.0
  0
LTYPE
  2
31
 70
     0
  3

 72
    65
 73
     4
 40
2.1
 49
1.5
 49
-0.3
 49
0.0
 49
-0.3
  0
ENDTAB
  0
TABLE
  2
LAYER
 70
     9
  0
LAYER
  2
0
 70
     0
 62
     7
  6
CONTINUOUS
  0
LAYER
  2
TEAM-BODY
 70
     0
 62
     2
  6
CONTINUOUS
  0
LAYER
  2
TEAM-AXE
 70
     0
 62
    10
  6
31
  0
LAYER
  2
TEAM-MAS
 70
     0
 62
     9
  6
CONTINUOUS
  0
LAYER
  2
TEAM-TXT
 70
     0
 62
    11
  6
CONTINUOUS
  0
LAYER
  2
TEAM-DET1
 70
     0
 62
     4
  6
CONTINUOUS
  0
LAYER
  2
TEAM-KAN
 70
     0
 62
     6
  6
CONTINUOUS
  0
LAYER
  2
TEAM-NET
 70
     0
 62
    15
  6
CONTINUOUS
  0
LAYER
  2
TEAM-INSP
 70
     0
 62
     5
  6
CONTINUOUS
  0
ENDTAB
  0
TABLE
  2
STYLE
 70
     2
  0
STYLE
  2
STANDARD
 70
     0
 40
0.0
 41
1.0
 50
0.0
 71
     0
 42
200.0
  3
txt
  4

  0
STYLE
  2
TEAM
 70
     0
 40
0.0
 41
0.8
 50
15.0
 71
     0
 42
7.0
  3
ROMANS.shx
  4

  0
ENDTAB
  0
TABLE
  2
VIEW
 70
     0
  0
ENDTAB
  0
TABLE
  2
UCS
 70
     0
  0
ENDTAB
  0
TABLE
  2
APPID
 70
     1
  0
APPID
  2
ACAD
 70
     0
  0
ENDTAB
  0
TABLE
  2
DIMSTYLE
 70
     1
  0
DIMSTYLE
  2
TEAM
 70
     0
  3

  4

  5

  6

  7

 40
1.0
 41
20.0
 42
10.0
 43
1.0
 44
1.0
 45
0.0
 46
0.0
 47
0.0
 48
0.0
140
35.0
141
1.0
142
0.0
143
25.4
144
1.0
145
0.0
146
1.0
147
7.0
 71
     0
 72
     0
 73
     0
 74
     0
 75
     0
 76
     0
 77
     0
 78
     0
170
     0
171
     2
172
     0
173
     0
174
     0
175
     0
176
     9
177
     9
178
    11
  0
ENDTAB
  0
ENDSEC
  0
SECTION
  2
BLOCKS
  0
BLOCK
  8
0
  2
$MODEL_SPACE
 70
     0
 10
0.0
 20
0.0
 30
0.0
  3
$MODEL_SPACE
  1

  0
ENDBLK
  5
BB0
  8
0
  0
BLOCK
 67
     1
  8
0
  2
$PAPER_SPACE
 70
     0
 10
0.0
 20
0.0
 30
0.0
  3
$PAPER_SPACE
  1

  0
ENDBLK
  5
BAE
 67
     1
  8
0
  0
ENDSEC
  0
SECTION
  2
ENTITIES
  0
CIRCLE
  5
20
  8
TEAM-INSP
 10
0.0
 20
0.0
 30
0.0
 40
10.0
  0
POLYLINE
  5
22
  8
TEAM-NET
 66
     1
 10
0.0
 20
0.0
 30
0.0
 70
    16
 71
    37
 72
    37
  0
VERTEX
  5
23
  8
TEAM-NET
 10
0.0
 20
-300.0
 30
850.0
 70
    64
  0
VERTEX
  5
24
  8
TEAM-NET
 10
13.073361
 20
-299.429205
 30
850.0
 70
    64
  0
VERTEX
  5
25
  8
TEAM-NET
 10
26.047227
 20
-297.721163
 30
850.0
 70
    64
  0
VERTEX
  5
26
  8
TEAM-NET
 10
38.822857
 20
-294.888874
 30
850.0
 70
    64
  0
VERTEX
  5
27
  8
TEAM-NET
 10
51.303021
 20
-290.953893
 30
850.0
 70
    64
  0
VERTEX
  5
28
  8
TEAM-NET
 10
63.392739
 20
-285.946168
 30
850.0
 70
    64
  0
VERTEX
  5
29
  8
TEAM-NET
 10
75.0
 20
-279.903811
 30
850.0
 70
    64
  0
VERTEX
  5
2A
  8
TEAM-NET
 10
86.036465
 20
-272.872807
 30
850.0
 70
    64
  0
VERTEX
  5
2B
  8
TEAM-NET
 10
96.418141
 20
-264.906666
 30
850.0
 70
    64
  0
VERTEX
  5
2C
  8
TEAM-NET
 10
106.066017
 20
-256.066017
 30
850.0
 70
    64
  0
VERTEX
  5
2D
  8
TEAM-NET
 10
114.906666
 20
-246.418141
 30
850.0
 70
    64
  0
VERTEX
  5
2E
  8
TEAM-NET
 10
122.872807
 20
-236.036465
 30
850.0
 70
    64
  0
VERTEX
  5
2F
  8
TEAM-NET
 10
129.903811
 20
-225.0
 30
850.0
 70
    64
  0
VERTEX
  5
30
  8
TEAM-NET
 10
135.946168
 20
-213.392739
 30
850.0
 70
    64
  0
VERTEX
  5
31
  8
TEAM-NET
 10
140.953893
 20
-201.303021
 30
850.0
 70
    64
  0
VERTEX
  5
32
  8
TEAM-NET
 10
144.888874
 20
-188.822857
 30
850.0
 70
    64
  0
VERTEX
  5
33
  8
TEAM-NET
 10
147.721163
 20
-176.047227
 30
850.0
 70
    64
  0
VERTEX
  5
34
  8
TEAM-NET
 10
149.429205
 20
-163.073361
 30
850.0
 70
    64
  0
VERTEX
  5
35
  8
TEAM-NET
 10
150.0
 20
-150.0
 30
850.0
 70
    64
  0
VERTEX
  5
36
  8
TEAM-NET
 10
149.429205
 20
-136.926639
 30
850.0
 70
    64
  0
VERTEX
  5
37
  8
TEAM-NET
 10
147.721163
 20
-123.952773
 30
850.0
 70
    64
  0
VERTEX
  5
38
  8
TEAM-NET
 10
144.888874
 20
-111.177143
 30
850.0
 70
    64
  0
VERTEX
  5
39
  8
TEAM-NET
 10
140.953893
 20
-98.696979
 30
850.0
 70
    64
  0
VERTEX
  5
3A
  8
TEAM-NET
 10
135.946168
 20
-86.607261
 30
850.0
 70
    64
  0
VERTEX
  5
3B
  8
TEAM-NET
 10
129.903811
 20
-75.0
 30
850.0
 70
    64
  0
VERTEX
  5
3C
  8
TEAM-NET
 10
122.872807
 20
-63.963535
 30
850.0
 70
    64
  0
VERTEX
  5
3D
  8
TEAM-NET
 10
114.906666
 20
-53.581859
 30
850.0
 70
    64
  0
VERTEX
  5
3E
  8
TEAM-NET
 10
106.066017
 20
-43.933983
 30
850.0
 70
    64
  0
VERTEX
  5
3F
  8
TEAM-NET
 10
96.418141
 20
-35.093334
 30
850.0
 70
    64
  0
VERTEX
  5
40
  8
TEAM-NET
 10
86.036465
 20
-27.127193
 30
850.0
 70
    64
  0
VERTEX
  5
41
  8
TEAM-NET
 10
75.0
 20
-20.096189
 30
850.0
 70
    64
  0
VERTEX
  5
42
  8
TEAM-NET
 10
63.392739
 20
-14.053832
 30
850.0
 70
    64
  0
VERTEX
  5
43
  8
TEAM-NET
 10
51.303021
 20
-9.046107
 30
850.0
 70
    64
  0
VERTEX
  5
44
  8
TEAM-NET
 10
38.822857
 20
-5.111126
 30
850.0
 70
    64
  0
VERTEX
  5
45
  8
TEAM-NET
 10
26.047227
 20
-2.278837
 30
850.0
 70
    64
  0
VERTEX
  5
46
  8
TEAM-NET
 10
13.073361
 20
-0.570795
 30
850.0
 70
    64
  0
VERTEX
  5
47
  8
TEAM-NET
 10
0.0
 20
0.0
 30
850.0
 70
    64
  0
VERTEX
  5
48
  8
TEAM-NET
 10
0.0
 20
-300.0
 30
850.0
 70
    64
  0
VERTEX
  5
49
  8
TEAM-NET
 10
13.023613
 20
-299.429205
 30
848.860581
 70
    64
  0
VERTEX
  5
4A
  8
TEAM-NET
 10
25.948109
 20
-297.721163
 30
847.729835
 70
    64
  0
VERTEX
  5
4B
  8
TEAM-NET
 10
38.675124
 20
-294.888874
 30
846.616365
 70
    64
  0
VERTEX
  5
4C
  8
TEAM-NET
 10
51.107798
 20
-290.953893
 30
845.528647
 70
    64
  0
VERTEX
  5
4D
  8
TEAM-NET
 10
63.151511
 20
-285.946168
 30
844.474959
 70
    64
  0
VERTEX
  5
4E
  8
TEAM-NET
 10
74.714602
 20
-279.903811
 30
843.463319
 70
    64
  0
VERTEX
  5
4F
  8
TEAM-NET
 10
85.709071
 20
-272.872807
 30
842.501428
 70
    64
  0
VERTEX
  5
50
  8
TEAM-NET
 10
96.051241
 20
-264.906666
 30
841.596605
 70
    64
  0
VERTEX
  5
51
  8
TEAM-NET
 10
105.662404
 20
-256.066017
 30
840.755737
 70
    64
  0
VERTEX
  5
52
  8
TEAM-NET
 10
114.469412
 20
-246.418141
 30
839.985224
 70
    64
  0
VERTEX
  5
53
  8
TEAM-NET
 10
122.405239
 20
-236.036465
 30
839.290929
 70
    64
  0
VERTEX
  5
54
  8
TEAM-NET
 10
129.409487
 20
-225.0
 30
838.678137
 70
    64
  0
VERTEX
  5
55
  8
TEAM-NET
 10
135.428852
 20
-213.392739
 30
838.151511
 70
    64
  0
VERTEX
  5
56
  8
TEAM-NET
 10
140.417521
 20
-201.303021
 30
837.715059
 70
    64
  0
VERTEX
  5
57
  8
TEAM-NET
 10
144.337528
 20
-188.822857
 30
837.372103
 70
    64
  0
VERTEX
  5
58
  8
TEAM-NET
 10
147.159039
 20
-176.047227
 30
837.125252
 70
    64
  0
VERTEX
  5
59
  8
TEAM-NET
 10
148.860581
 20
-163.073361
 30
836.976387
 70
    64
  0
VERTEX
  5
5A
  8
TEAM-NET
 10
149.429205
 20
-150.0
 30
836.926639
 70
    64
  0
VERTEX
  5
5B
  8
TEAM-NET
 10
148.860581
 20
-136.926639
 30
836.976387
 70
    64
  0
VERTEX
  5
5C
  8
TEAM-NET
 10
147.159039
 20
-123.952773
 30
837.125252
 70
    64
  0
VERTEX
  5
5D
  8
TEAM-NET
 10
144.337528
 20
-111.177143
 30
837.372103
 70
    64
  0
VERTEX
  5
5E
  8
TEAM-NET
 10
140.417521
 20
-98.696979
 30
837.715059
 70
    64
  0
VERTEX
  5
5F
  8
TEAM-NET
 10
135.428852
 20
-86.607261
 30
838.151511
 70
    64
  0
VERTEX
  5
60
  8
TEAM-NET
 10
129.409487
 20
-75.0
 30
838.678137
 70
    64
  0
VERTEX
  5
61
  8
TEAM-NET
 10
122.405239
 20
-63.963535
 30
839.290929
 70
    64
  0
VERTEX
  5
62
  8
TEAM-NET
 10
114.469412
 20
-53.581859
 30
839.985224
 70
    64
  0
VERTEX
  5
63
  8
TEAM-NET
 10
105.662404
 20
-43.933983
 30
840.755737
 70
    64
  0
VERTEX
  5
64
  8
TEAM-NET
 10
96.051241
 20
-35.093334
 30
841.596605
 70
    64
  0
VERTEX
  5
65
  8
TEAM-NET
 10
85.709071
 20
-27.127193
 30
842.501428
 70
    64
  0
VERTEX
  5
66
  8
TEAM-NET
 10
74.714602
 20
-20.096189
 30
843.463319
 70
    64
  0
VERTEX
  5
67
  8
TEAM-NET
 10
63.151511
 20
-14.053832
 30
844.474959
 70
    64
  0
VERTEX
  5
68
  8
TEAM-NET
 10
51.107798
 20
-9.046107
 30
845.528647
 70
    64
  0
VERTEX
  5
69
  8
TEAM-NET
 10
38.675124
 20
-5.111126
 30
846.616365
 70
    64
  0
VERTEX
  5
6A
  8
TEAM-NET
 10
25.948109
 20
-2.278837
 30
847.729835
 70
    64
  0
VERTEX
  5
6B
  8
TEAM-NET
 10
13.023613
 20
-0.570795
 30
848.860581
 70
    64
  0
VERTEX
  5
6C
  8
TEAM-NET
 10
0.0
 20
0.0
 30
850.0
 70
    64
  0
VERTEX
  5
6D
  8
TEAM-NET
 10
0.0
 20
-300.0
 30
850.0
 70
    64
  0
VERTEX
  5
6E
  8
TEAM-NET
 10
12.874748
 20
-299.429205
 30
847.729835
 70
    64
  0
VERTEX
  5
6F
  8
TEAM-NET
 10
25.651511
 20
-297.721163
 30
845.476947
 70
    64
  0
VERTEX
  5
70
  8
TEAM-NET
 10
38.23305
 20
-294.888874
 30
843.258482
 70
    64
  0
VERTEX
  5
71
  8
TEAM-NET
 10
50.523613
 20
-290.953893
 30
841.091324
 70
    64
  0
VERTEX
  5
72
  8
TEAM-NET
 10
62.429661
 20
-285.946168
 30
838.991966
 70
    64
  0
VERTEX
  5
73
  8
TEAM-NET
 10
73.860581
 20
-279.903811
 30
836.976387
 70
    64
  0
VERTEX
  5
74
  8
TEAM-NET
 10
84.729378
 20
-272.872807
 30
835.059925
 70
    64
  0
VERTEX
  5
75
  8
TEAM-NET
 10
94.953333
 20
-264.906666
 30
833.257165
 70
    64
  0
VERTEX
  5
76
  8
TEAM-NET
 10
104.454636
 20
-256.066017
 30
831.581829
 70
    64
  0
VERTEX
  5
77
  8
TEAM-NET
 10
113.160976
 20
-246.418141
 30
830.046667
 70
    64
  0
VERTEX
  5
78
  8
TEAM-NET
 10
121.006093
 20
-236.036465
 30
828.663361
 70
    64
  0
VERTEX
  5
79
  8
TEAM-NET
 10
127.93028
 20
-225.0
 30
827.44244
 70
    64
  0
VERTEX
  5
7A
  8
TEAM-NET
 10
133.88084
 20
-213.392739
 30
826.393196
 70
    64
  0
VERTEX
  5
7B
  8
TEAM-NET
 10
138.812487
 20
-201.303021
 30
825.523613
 70
    64
  0
VERTEX
  5
7C
  8
TEAM-NET
 10
142.687686
 20
-188.822857
 30
824.840311
 70
    64
  0
VERTEX
  5
7D
  8
TEAM-NET
 10
145.476947
 20
-176.047227
 30
824.348489
 70
    64
  0
VERTEX
  5
7E
  8
TEAM-NET
 10
147.159039
 20
-163.073361
 30
824.051891
 70
    64
  0
VERTEX
  5
7F
  8
TEAM-NET
 10
147.721163
 20
-150.0
 30
823.952773
 70
    64
  0
VERTEX
  5
80
  8
TEAM-NET
 10
147.159039
 20
-136.926639
 30
824.051891
 70
    64
  0
VERTEX
  5
81
  8
TEAM-NET
 10
145.476947
 20
-123.952773
 30
824.348489
 70
    64
  0
VERTEX
  5
82
  8
TEAM-NET
 10
142.687686
 20
-111.177143
 30
824.840311
 70
    64
  0
VERTEX
  5
83
  8
TEAM-NET
 10
138.812487
 20
-98.696979
 30
825.523613
 70
    64
  0
VERTEX
  5
84
  8
TEAM-NET
 10
133.88084
 20
-86.607261
 30
826.393196
 70
    64
  0
VERTEX
  5
85
  8
TEAM-NET
 10
127.93028
 20
-75.0
 30
827.44244
 70
    64
  0
VERTEX
  5
86
  8
TEAM-NET
 10
121.006093
 20
-63.963535
 30
828.663361
 70
    64
  0
VERTEX
  5
87
  8
TEAM-NET
 10
113.160976
 20
-53.581859
 30
830.046667
 70
    64
  0
VERTEX
  5
88
  8
TEAM-NET
 10
104.454636
 20
-43.933983
 30
831.581829
 70
    64
  0
VERTEX
  5
89
  8
TEAM-NET
 10
94.953333
 20
-35.093334
 30
833.257165
 70
    64
  0
VERTEX
  5
8A
  8
TEAM-NET
 10
84.729378
 20
-27.127193
 30
835.059925
 70
    64
  0
VERTEX
  5
8B
  8
TEAM-NET
 10
73.860581
 20
-20.096189
 30
836.976387
 70
    64
  0
VERTEX
  5
8C
  8
TEAM-NET
 10
62.429661
 20
-14.053832
 30
838.991966
 70
    64
  0
VERTEX
  5
8D
  8
TEAM-NET
 10
50.523613
 20
-9.046107
 30
841.091324
 70
    64
  0
VERTEX
  5
8E
  8
TEAM-NET
 10
38.23305
 20
-5.111126
 30
843.258482
 70
    64
  0
VERTEX
  5
8F
  8
TEAM-NET
 10
25.651511
 20
-2.278837
 30
845.476947
 70
    64
  0
VERTEX
  5
90
  8
TEAM-NET
 10
12.874748
 20
-0.570795
 30
847.729835
 70
    64
  0
VERTEX
  5
91
  8
TEAM-NET
 10
0.0
 20
0.0
 30
850.0
 70
    64
  0
VERTEX
  5
92
  8
TEAM-NET
 10
0.0
 20
-300.0
 30
850.0
 70
    64
  0
VERTEX
  5
93
  8
TEAM-NET
 10
12.627897
 20
-299.429205
 30
846.616365
 70
    64
  0
VERTEX
  5
94
  8
TEAM-NET
 10
25.159689
 20
-297.721163
 30
843.258482
 70
    64
  0
VERTEX
  5
95
  8
TEAM-NET
 10
37.5
 20
-294.888874
 30
839.951905
 70
    64
  0
VERTEX
  5
96
  8
TEAM-NET
 10
49.554913
 20
-290.953893
 30
836.721801
 70
    64
  0
VERTEX
  5
97
  8
TEAM-NET
 10
61.232684
 20
-285.946168
 30
833.592752
 70
    64
  0
VERTEX
  5
98
  8
TEAM-NET
 10
72.444437
 20
-279.903811
 30
830.588572
 70
    64
  0
VERTEX
  5
99
  8
TEAM-NET
 10
83.104844
 20
-272.872807
 30
827.732124
 70
    64
  0
VERTEX
  5
9A
  8
TEAM-NET
 10
93.132773
 20
-264.906666
 30
825.045149
 70
    64
  0
VERTEX
  5
9B
  8
TEAM-NET
 10
102.451905
 20
-256.066017
 30
822.548095
 70
    64
  0
VERTEX
  5
9C
  8
TEAM-NET
 10
110.991317
 20
-246.418141
 30
820.259966
 70
    64
  0
VERTEX
  5
9D
  8
TEAM-NET
 10
118.686017
 20
-236.036465
 30
818.198178
 70
    64
  0
VERTEX
  5
9E
  8
TEAM-NET
 10
125.477446
 20
-225.0
 30
816.37842
 70
    64
  0
VERTEX
  5
9F
  8
TEAM-NET
 10
131.313915
 20
-213.392739
 30
814.814543
 70
    64
  0
VERTEX
  5
A0
  8
TEAM-NET
 10
136.151006
 20
-201.303021
 30
813.518448
 70
    64
  0
VERTEX
  5
A1
  8
TEAM-NET
 10
139.951905
 20
-188.822857
 30
812.5
 70
    64
  0
VERTEX
  5
A2
  8
TEAM-NET
 10
142.687686
 20
-176.047227
 30
811.76695
 70
    64
  0
VERTEX
  5
A3
  8
TEAM-NET
 10
144.337528
 20
-163.073361
 30
811.324876
 70
    64
  0
VERTEX
  5
A4
  8
TEAM-NET
 10
144.888874
 20
-150.0
 30
811.177143
 70
    64
  0
VERTEX
  5
A5
  8
TEAM-NET
 10
144.337528
 20
-136.926639
 30
811.324876
 70
    64
  0
VERTEX
  5
A6
  8
TEAM-NET
 10
142.687686
 20
-123.952773
 30
811.76695
 70
    64
  0
VERTEX
  5
A7
  8
TEAM-NET
 10
139.951905
 20
-111.177143
 30
812.5
 70
    64
  0
VERTEX
  5
A8
  8
TEAM-NET
 10
136.151006
 20
-98.696979
 30
813.518448
 70
    64
  0
VERTEX
  5
A9
  8
TEAM-NET
 10
131.313915
 20
-86.607261
 30
814.814543
 70
    64
  0
VERTEX
  5
AA
  8
TEAM-NET
 10
125.477446
 20
-75.0
 30
816.37842
 70
    64
  0
VERTEX
  5
AB
  8
TEAM-NET
 10
118.686017
 20
-63.963535
 30
818.198178
 70
    64
  0
VERTEX
  5
AC
  8
TEAM-NET
 10
110.991317
 20
-53.581859
 30
820.259966
 70
    64
  0
VERTEX
  5
AD
  8
TEAM-NET
 10
102.451905
 20
-43.933983
 30
822.548095
 70
    64
  0
VERTEX
  5
AE
  8
TEAM-NET
 10
93.132773
 20
-35.093334
 30
825.045149
 70
    64
  0
VERTEX
  5
AF
  8
TEAM-NET
 10
83.104844
 20
-27.127193
 30
827.732124
 70
    64
  0
VERTEX
  5
B0
  8
TEAM-NET
 10
72.444437
 20
-20.096189
 30
830.588572
 70
    64
  0
VERTEX
  5
B1
  8
TEAM-NET
 10
61.232684
 20
-14.053832
 30
833.592752
 70
    64
  0
VERTEX
  5
B2
  8
TEAM-NET
 10
49.554913
 20
-9.046107
 30
836.721801
 70
    64
  0
VERTEX
  5
B3
  8
TEAM-NET
 10
37.5
 20
-5.111126
 30
839.951905
 70
    64
  0
VERTEX
  5
B4
  8
TEAM-NET
 10
25.159689
 20
-2.278837
 30
843.258482
 70
    64
  0
VERTEX
  5
B5
  8
TEAM-NET
 10
12.627897
 20
-0.570795
 30
846.616365
 70
    64
  0
VERTEX
  5
B6
  8
TEAM-NET
 10
0.0
 20
0.0
 30
850.0
 70
    64
  0
VERTEX
  5
B7
  8
TEAM-NET
 10
0.0
 20
-300.0
 30
850.0
 70
    64
  0
VERTEX
  5
B8
  8
TEAM-NET
 10
12.284941
 20
-299.429205
 30
845.528647
 70
    64
  0
VERTEX
  5
B9
  8
TEAM-NET
 10
24.476387
 20
-297.721163
 30
841.091324
 70
    64
  0
VERTEX
  5
BA
  8
TEAM-NET
 10
36.481552
 20
-294.888874
 30
836.721801
 70
    64
  0
VERTEX
  5
BB
  8
TEAM-NET
 10
48.209071
 20
-290.953893
 30
832.453333
 70
    64
  0
VERTEX
  5
BC
  8
TEAM-NET
 10
59.569689
 20
-285.946168
 30
828.318406
 70
    64
  0
VERTEX
  5
BD
  8
TEAM-NET
 10
70.476947
 20
-279.903811
 30
824.348489
 70
    64
  0
VERTEX
  5
BE
  8
TEAM-NET
 10
80.847832
 20
-272.872807
 30
820.573796
 70
    64
  0
VERTEX
  5
BF
  8
TEAM-NET
 10
90.603416
 20
-264.906666
 30
817.023053
 70
    64
  0
VERTEX
  5
C0
  8
TEAM-NET
 10
99.669454
 20
-256.066017
 30
813.723286
 70
    64
  0
VERTEX
  5
C1
  8
TEAM-NET
 10
107.976947
 20
-246.418141
 30
810.699605
 70
    64
  0
VERTEX
  5
C2
  8
TEAM-NET
 10
115.46267
 20
-236.036465
 30
807.975025
 70
    64
  0
VERTEX
  5
C3
  8
TEAM-NET
 10
122.069652
 20
-225.0
 30
805.57028
 70
    64
  0
VERTEX
  5
C4
  8
TEAM-NET
 10
127.747611
 20
-213.392739
 30
803.503672
 70
    64
  0
VERTEX
  5
C5
  8
TEAM-NET
 10
132.453333
 20
-201.303021
 30
801.790929
 70
    64
  0
VERTEX
  5
C6
  8
TEAM-NET
 10
136.151006
 20
-188.822857
 30
800.445087
 70
    64
  0
VERTEX
  5
C7
  8
TEAM-NET
 10
138.812487
 20
-176.047227
 30
799.476387
 70
    64
  0
VERTEX
  5
C8
  8
TEAM-NET
 10
140.417521
 20
-163.073361
 30
798.892202
 70
    64
  0
VERTEX
  5
C9
  8
TEAM-NET
 10
140.953893
 20
-150.0
 30
798.696979
 70
    64
  0
VERTEX
  5
CA
  8
TEAM-NET
 10
140.417521
 20
-136.926639
 30
798.892202
 70
    64
  0
VERTEX
  5
CB
  8
TEAM-NET
 10
138.812487
 20
-123.952773
 30
799.476387
 70
    64
  0
VERTEX
  5
CC
  8
TEAM-NET
 10
136.151006
 20
-111.177143
 30
800.445087
 70
    64
  0
VERTEX
  5
CD
  8
TEAM-NET
 10
132.453333
 20
-98.696979
 30
801.790929
 70
    64
  0
VERTEX
  5
CE
  8
TEAM-NET
 10
127.747611
 20
-86.607261
 30
803.503672
 70
    64
  0
VERTEX
  5
CF
  8
TEAM-NET
 10
122.069652
 20
-75.0
 30
805.57028
 70
    64
  0
VERTEX
  5
D0
  8
TEAM-NET
 10
115.46267
 20
-63.963535
 30
807.975025
 70
    64
  0
VERTEX
  5
D1
  8
TEAM-NET
 10
107.976947
 20
-53.581859
 30
810.699605
 70
    64
  0
VERTEX
  5
D2
  8
TEAM-NET
 10
99.669454
 20
-43.933983
 30
813.723286
 70
    64
  0
VERTEX
  5
D3
  8
TEAM-NET
 10
90.603416
 20
-35.093334
 30
817.023053
 70
    64
  0
VERTEX
  5
D4
  8
TEAM-NET
 10
80.847832
 20
-27.127193
 30
820.573796
 70
    64
  0
VERTEX
  5
D5
  8
TEAM-NET
 10
70.476947
 20
-20.096189
 30
824.348489
 70
    64
  0
VERTEX
  5
D6
  8
TEAM-NET
 10
59.569689
 20
-14.053832
 30
828.318406
 70
    64
  0
VERTEX
  5
D7
  8
TEAM-NET
 10
48.209071
 20
-9.046107
 30
832.453333
 70
    64
  0
VERTEX
  5
D8
  8
TEAM-NET
 10
36.481552
 20
-5.111126
 30
836.721801
 70
    64
  0
VERTEX
  5
D9
  8
TEAM-NET
 10
24.476387
 20
-2.278837
 30
841.091324
 70
    64
  0
VERTEX
  5
DA
  8
TEAM-NET
 10
12.284941
 20
-0.570795
 30
845.528647
 70
    64
  0
VERTEX
  5
DB
  8
TEAM-NET
 10
0.0
 20
0.0
 30
850.0
 70
    64
  0
VERTEX
  5
DC
  8
TEAM-NET
 10
0.0
 20
-300.0
 30
850.0
 70
    64
  0
VERTEX
  5
DD
  8
TEAM-NET
 10
11.848489
 20
-299.429205
 30
844.474959
 70
    64
  0
VERTEX
  5
DE
  8
TEAM-NET
 10
23.606804
 20
-297.721163
 30
838.991966
 70
    64
  0
VERTEX
  5
DF
  8
TEAM-NET
 10
35.185457
 20
-294.888874
 30
833.592752
 70
    64
  0
VERTEX
  5
E0
  8
TEAM-NET
 10
46.496328
 20
-290.953893
 30
828.318406
 70
    64
  0
VERTEX
  5
E1
  8
TEAM-NET
 10
57.453333
 20
-285.946168
 30
823.209071
 70
    64
  0
VERTEX
  5
E2
  8
TEAM-NET
 10
67.973084
 20
-279.903811
 30
818.30363
 70
    64
  0
VERTEX
  5
E3
  8
TEAM-NET
 10
77.975519
 20
-272.872807
 30
813.639419
 70
    64
  0
VERTEX
  5
E4
  8
TEAM-NET
 10
87.384512
 20
-264.906666
 30
809.251933
 70
    64
  0
VERTEX
  5
E5
  8
TEAM-NET
 10
96.128457
 20
-256.066017
 30
805.174564
 70
    64
  0
VERTEX
  5
E6
  8
TEAM-NET
 10
104.140807
 20
-246.418141
 30
801.438344
 70
    64
  0
VERTEX
  5
E7
  8
TEAM-NET
 10
111.360581
 20
-236.036465
 30
798.071708
 70
    64
  0
VERTEX
  5
E8
  8
TEAM-NET
 10
117.732835
 20
-225.0
 30
795.100277
 70
    64
  0
VERTEX
  5
E9
  8
TEAM-NET
 10
123.209071
 20
-213.392739
 30
792.546667
 70
    64
  0
VERTEX
  5
EA
  8
TEAM-NET
 10
127.747611
 20
-201.303021
 30
790.430311
 70
    64
  0
VERTEX
  5
EB
  8
TEAM-NET
 10
131.313915
 20
-188.822857
 30
788.767316
 70
    64
  0
VERTEX
  5
EC
  8
TEAM-NET
 10
133.88084
 20
-176.047227
 30
787.570339
 70
    64
  0
VERTEX
  5
ED
  8
TEAM-NET
 10
135.428852
 20
-163.073361
 30
786.848489
 70
    64
  0
VERTEX
  5
EE
  8
TEAM-NET
 10
135.946168
 20
-150.0
 30
786.607261
 70
    64
  0
VERTEX
  5
EF
  8
TEAM-NET
 10
135.428852
 20
-136.926639
 30
786.848489
 70
    64
  0
VERTEX
  5
F0
  8
TEAM-NET
 10
133.88084
 20
-123.952773
 30
787.570339
 70
    64
  0
VERTEX
  5
F1
  8
TEAM-NET
 10
131.313915
 20
-111.177143
 30
788.767316
 70
    64
  0
VERTEX
  5
F2
  8
TEAM-NET
 10
127.747611
 20
-98.696979
 30
790.430311
 70
    64
  0
VERTEX
  5
F3
  8
TEAM-NET
 10
123.209071
 20
-86.607261
 30
792.546667
 70
    64
  0
VERTEX
  5
F4
  8
TEAM-NET
 10
117.732835
 20
-75.0
 30
795.100277
 70
    64
  0
VERTEX
  5
F5
  8
TEAM-NET
 10
111.360581
 20
-63.963535
 30
798.071708
 70
    64
  0
VERTEX
  5
F6
  8
TEAM-NET
 10
104.140807
 20
-53.581859
 30
801.438344
 70
    64
  0
VERTEX
  5
F7
  8
TEAM-NET
 10
96.128457
 20
-43.933983
 30
805.174564
 70
    64
  0
VERTEX
  5
F8
  8
TEAM-NET
 10
87.384512
 20
-35.093334
 30
809.251933
 70
    64
  0
VERTEX
  5
F9
  8
TEAM-NET
 10
77.975519
 20
-27.127193
 30
813.639419
 70
    64
  0
VERTEX
  5
FA
  8
TEAM-NET
 10
67.973084
 20
-20.096189
 30
818.30363
 70
    64
  0
VERTEX
  5
FB
  8
TEAM-NET
 10
57.453333
 20
-14.053832
 30
823.209071
 70
    64
  0
VERTEX
  5
FC
  8
TEAM-NET
 10
46.496328
 20
-9.046107
 30
828.318406
 70
    64
  0
VERTEX
  5
FD
  8
TEAM-NET
 10
35.185457
 20
-5.111126
 30
833.592752
 70
    64
  0
VERTEX
  5
FE
  8
TEAM-NET
 10
23.606804
 20
-2.278837
 30
838.991966
 70
    64
  0
VERTEX
  5
FF
  8
TEAM-NET
 10
11.848489
 20
-0.570795
 30
844.474959
 70
    64
  0
VERTEX
  5
100
  8
TEAM-NET
 10
0.0
 20
0.0
 30
850.0
 70
    64
  0
VERTEX
  5
101
  8
TEAM-NET
 10
0.0
 20
-300.0
 30
850.0
 70
    64
  0
VERTEX
  5
102
  8
TEAM-NET
 10
11.321863
 20
-299.429205
 30
843.463319
 70
    64
  0
VERTEX
  5
103
  8
TEAM-NET
 10
22.55756
 20
-297.721163
 30
836.976387
 70
    64
  0
VERTEX
  5
104
  8
TEAM-NET
 10
33.62158
 20
-294.888874
 30
830.588572
 70
    64
  0
VERTEX
  5
105
  8
TEAM-NET
 10
44.42972
 20
-290.953893
 30
824.348489
 70
    64
  0
VERTEX
  5
106
  8
TEAM-NET
 10
54.899723
 20
-285.946168
 30
818.30363
 70
    64
  0
VERTEX
  5
107
  8
TEAM-NET
 10
64.951905
 20
-279.903811
 30
812.5
 70
    64
  0
VERTEX
  5
108
  8
TEAM-NET
 10
74.509765
 20
-272.872807
 30
806.981767
 70
    64
  0
VERTEX
  5
109
  8
TEAM-NET
 10
83.50056
 20
-264.906666
 30
801.790929
 70
    64
  0
VERTEX
  5
10A
  8
TEAM-NET
 10
91.855865
 20
-256.066017
 30
796.966991
 70
    64
  0
VERTEX
  5
10B
  8
TEAM-NET
 10
99.512092
 20
-246.418141
 30
792.546667
 70
    64
  0
VERTEX
  5
10C
  8
TEAM-NET
 10
106.410972
 20
-236.036465
 30
788.563597
 70
    64
  0
VERTEX
  5
10D
  8
TEAM-NET
 10
112.5
 20
-225.0
 30
785.048095
 70
    64
  0
VERTEX
  5
10E
  8
TEAM-NET
 10
117.732835
 20
-213.392739
 30
782.026916
 70
    64
  0
VERTEX
  5
10F
  8
TEAM-NET
 10
122.069652
 20
-201.303021
 30
779.523053
 70
    64
  0
VERTEX
  5
110
  8
TEAM-NET
 10
125.477446
 20
-188.822857
 30
777.555563
 70
    64
  0
VERTEX
  5
111
  8
TEAM-NET
 10
127.93028
 20
-176.047227
 30
776.139419
 70
    64
  0
VERTEX
  5
112
  8
TEAM-NET
 10
129.409487
 20
-163.073361
 30
775.285398
 70
    64
  0
VERTEX
  5
113
  8
TEAM-NET
 10
129.903811
 20
-150.0
 30
775.0
 70
    64
  0
VERTEX
  5
114
  8
TEAM-NET
 10
129.409487
 20
-136.926639
 30
775.285398
 70
    64
  0
VERTEX
  5
115
  8
TEAM-NET
 10
127.93028
 20
-123.952773
 30
776.139419
 70
    64
  0
VERTEX
  5
116
  8
TEAM-NET
 10
125.477446
 20
-111.177143
 30
777.555563
 70
    64
  0
VERTEX
  5
117
  8
TEAM-NET
 10
122.069652
 20
-98.696979
 30
779.523053
 70
    64
  0
VERTEX
  5
118
  8
TEAM-NET
 10
117.732835
 20
-86.607261
 30
782.026916
 70
    64
  0
VERTEX
  5
119
  8
TEAM-NET
 10
112.5
 20
-75.0
 30
785.048095
 70
    64
  0
VERTEX
  5
11A
  8
TEAM-NET
 10
106.410972
 20
-63.963535
 30
788.563597
 70
    64
  0
VERTEX
  5
11B
  8
TEAM-NET
 10
99.512092
 20
-53.581859
 30
792.546667
 70
    64
  0
VERTEX
  5
11C
  8
TEAM-NET
 10
91.855865
 20
-43.933983
 30
796.966991
 70
    64
  0
VERTEX
  5
11D
  8
TEAM-NET
 10
83.50056
 20
-35.093334
 30
801.790929
 70
    64
  0
VERTEX
  5
11E
  8
TEAM-NET
 10
74.509765
 20
-27.127193
 30
806.981767
 70
    64
  0
VERTEX
  5
11F
  8
TEAM-NET
 10
64.951905
 20
-20.096189
 30
812.5
 70
    64
  0
VERTEX
  5
120
  8
TEAM-NET
 10
54.899723
 20
-14.053832
 30
818.30363
 70
    64
  0
VERTEX
  5
121
  8
TEAM-NET
 10
44.42972
 20
-9.046107
 30
824.348489
 70
    64
  0
VERTEX
  5
122
  8
TEAM-NET
 10
33.62158
 20
-5.111126
 30
830.588572
 70
    64
  0
VERTEX
  5
123
  8
TEAM-NET
 10
22.55756
 20
-2.278837
 30
836.976387
 70
    64
  0
VERTEX
  5
124
  8
TEAM-NET
 10
11.321863
 20
-0.570795
 30
843.463319
 70
    64
  0
VERTEX
  5
125
  8
TEAM-NET
 10
0.0
 20
0.0
 30
850.0
 70
    64
  0
VERTEX
  5
126
  8
TEAM-NET
 10
0.0
 20
-300.0
 30
850.0
 70
    64
  0
VERTEX
  5
127
  8
TEAM-NET
 10
10.709071
 20
-299.429205
 30
842.501428
 70
    64
  0
VERTEX
  5
128
  8
TEAM-NET
 10
21.336639
 20
-297.721163
 30
835.059925
 70
    64
  0
VERTEX
  5
129
  8
TEAM-NET
 10
31.801822
 20
-294.888874
 30
827.732124
 70
    64
  0
VERTEX
  5
12A
  8
TEAM-NET
 10
42.024975
 20
-290.953893
 30
820.573796
 70
    64
  0
VERTEX
  5
12B
  8
TEAM-NET
 10
51.928292
 20
-285.946168
 30
813.639419
 70
    64
  0
VERTEX
  5
12C
  8
TEAM-NET
 10
61.436403
 20
-279.903811
 30
806.981767
 70
    64
  0
VERTEX
  5
12D
  8
TEAM-NET
 10
70.476947
 20
-272.872807
 30
800.651511
 70
    64
  0
VERTEX
  5
12E
  8
TEAM-NET
 10
78.981118
 20
-264.906666
 30
794.696826
 70
    64
  0
VERTEX
  5
12F
  8
TEAM-NET
 10
86.884195
 20
-256.066017
 30
789.163032
 70
    64
  0
VERTEX
  5
130
  8
TEAM-NET
 10
94.126031
 20
-246.418141
 30
784.092244
 70
    64
  0
VERTEX
  5
131
  8
TEAM-NET
 10
100.651511
 20
-236.036465
 30
779.523053
 70
    64
  0
VERTEX
  5
132
  8
TEAM-NET
 10
106.410972
 20
-225.0
 30
775.490235
 70
    64
  0
VERTEX
  5
133
  8
TEAM-NET
 10
111.360581
 20
-213.392739
 30
772.024481
 70
    64
  0
VERTEX
  5
134
  8
TEAM-NET
 10
115.46267
 20
-201.303021
 30
769.152168
 70
    64
  0
VERTEX
  5
135
  8
TEAM-NET
 10
118.686017
 20
-188.822857
 30
766.895156
 70
    64
  0
VERTEX
  5
136
  8
TEAM-NET
 10
121.006093
 20
-176.047227
 30
765.270622
 70
    64
  0
VERTEX
  5
137
  8
TEAM-NET
 10
122.405239
 20
-163.073361
 30
764.290929
 70
    64
  0
VERTEX
  5
138
  8
TEAM-NET
 10
122.872807
 20
-150.0
 30
763.963535
 70
    64
  0
VERTEX
  5
139
  8
TEAM-NET
 10
122.405239
 20
-136.926639
 30
764.290929
 70
    64
  0
VERTEX
  5
13A
  8
TEAM-NET
 10
121.006093
 20
-123.952773
 30
765.270622
 70
    64
  0
VERTEX
  5
13B
  8
TEAM-NET
 10
118.686017
 20
-111.177143
 30
766.895156
 70
    64
  0
VERTEX
  5
13C
  8
TEAM-NET
 10
115.46267
 20
-98.696979
 30
769.152168
 70
    64
  0
VERTEX
  5
13D
  8
TEAM-NET
 10
111.360581
 20
-86.607261
 30
772.024481
 70
    64
  0
VERTEX
  5
13E
  8
TEAM-NET
 10
106.410972
 20
-75.0
 30
775.490235
 70
    64
  0
VERTEX
  5
13F
  8
TEAM-NET
 10
100.651511
 20
-63.963535
 30
779.523053
 70
    64
  0
VERTEX
  5
140
  8
TEAM-NET
 10
94.126031
 20
-53.581859
 30
784.092244
 70
    64
  0
VERTEX
  5
141
  8
TEAM-NET
 10
86.884195
 20
-43.933983
 30
789.163032
 70
    64
  0
VERTEX
  5
142
  8
TEAM-NET
 10
78.981118
 20
-35.093334
 30
794.696826
 70
    64
  0
VERTEX
  5
143
  8
TEAM-NET
 10
70.476947
 20
-27.127193
 30
800.651511
 70
    64
  0
VERTEX
  5
144
  8
TEAM-NET
 10
61.436403
 20
-20.096189
 30
806.981767
 70
    64
  0
VERTEX
  5
145
  8
TEAM-NET
 10
51.928292
 20
-14.053832
 30
813.639419
 70
    64
  0
VERTEX
  5
146
  8
TEAM-NET
 10
42.024975
 20
-9.046107
 30
820.573796
 70
    64
  0
VERTEX
  5
147
  8
TEAM-NET
 10
31.801822
 20
-5.111126
 30
827.732124
 70
    64
  0
VERTEX
  5
148
  8
TEAM-NET
 10
21.336639
 20
-2.278837
 30
835.059925
 70
    64
  0
VERTEX
  5
149
  8
TEAM-NET
 10
10.709071
 20
-0.570795
 30
842.501428
 70
    64
  0
VERTEX
  5
14A
  8
TEAM-NET
 10
0.0
 20
0.0
 30
850.0
 70
    64
  0
VERTEX
  5
14B
  8
TEAM-NET
 10
0.0
 20
-300.0
 30
850.0
 70
    64
  0
VERTEX
  5
14C
  8
TEAM-NET
 10
10.014776
 20
-299.429205
 30
841.596605
 70
    64
  0
VERTEX
  5
14D
  8
TEAM-NET
 10
19.953333
 20
-297.721163
 30
833.257165
 70
    64
  0
VERTEX
  5
14E
  8
TEAM-NET
 10
29.740034
 20
-294.888874
 30
825.045149
 70
    64
  0
VERTEX
  5
14F
  8
TEAM-NET
 10
39.300395
 20
-290.953893
 30
817.023053
 70
    64
  0
VERTEX
  5
150
  8
TEAM-NET
 10
48.561656
 20
-285.946168
 30
809.251933
 70
    64
  0
VERTEX
  5
151
  8
TEAM-NET
 10
57.453333
 20
-279.903811
 30
801.790929
 70
    64
  0
VERTEX
  5
152
  8
TEAM-NET
 10
65.907756
 20
-272.872807
 30
794.696826
 70
    64
  0
VERTEX
  5
153
  8
TEAM-NET
 10
73.860581
 20
-264.906666
 30
788.023613
 70
    64
  0
VERTEX
  5
154
  8
TEAM-NET
 10
81.251283
 20
-256.066017
 30
781.822078
 70
    64
  0
VERTEX
  5
155
  8
TEAM-NET
 10
88.023613
 20
-246.418141
 30
776.139419
 70
    64
  0
VERTEX
  5
156
  8
TEAM-NET
 10
94.126031
 20
-236.036465
 30
771.018882
 70
    64
  0
VERTEX
  5
157
  8
TEAM-NET
 10
99.512092
 20
-225.0
 30
766.49944
 70
    64
  0
VERTEX
  5
158
  8
TEAM-NET
 10
104.140807
 20
-213.392739
 30
762.615488
 70
    64
  0
VERTEX
  5
159
  8
TEAM-NET
 10
107.976947
 20
-201.303021
 30
759.396584
 70
    64
  0
VERTEX
  5
15A
  8
TEAM-NET
 10
110.991317
 20
-188.822857
 30
756.867227
 70
    64
  0
VERTEX
  5
15B
  8
TEAM-NET
 10
113.160976
 20
-176.047227
 30
755.046667
 70
    64
  0
VERTEX
  5
15C
  8
TEAM-NET
 10
114.469412
 20
-163.073361
 30
753.948759
 70
    64
  0
VERTEX
  5
15D
  8
TEAM-NET
 10
114.906666
 20
-150.0
 30
753.581859
 70
    64
  0
VERTEX
  5
15E
  8
TEAM-NET
 10
114.469412
 20
-136.926639
 30
753.948759
 70
    64
  0
VERTEX
  5
15F
  8
TEAM-NET
 10
113.160976
 20
-123.952773
 30
755.046667
 70
    64
  0
VERTEX
  5
160
  8
TEAM-NET
 10
110.991317
 20
-111.177143
 30
756.867227
 70
    64
  0
VERTEX
  5
161
  8
TEAM-NET
 10
107.976947
 20
-98.696979
 30
759.396584
 70
    64
  0
VERTEX
  5
162
  8
TEAM-NET
 10
104.140807
 20
-86.607261
 30
762.615488
 70
    64
  0
VERTEX
  5
163
  8
TEAM-NET
 10
99.512092
 20
-75.0
 30
766.49944
 70
    64
  0
VERTEX
  5
164
  8
TEAM-NET
 10
94.126031
 20
-63.963535
 30
771.018882
 70
    64
  0
VERTEX
  5
165
  8
TEAM-NET
 10
88.023613
 20
-53.581859
 30
776.139419
 70
    64
  0
VERTEX
  5
166
  8
TEAM-NET
 10
81.251283
 20
-43.933983
 30
781.822078
 70
    64
  0
VERTEX
  5
167
  8
TEAM-NET
 10
73.860581
 20
-35.093334
 30
788.023613
 70
    64
  0
VERTEX
  5
168
  8
TEAM-NET
 10
65.907756
 20
-27.127193
 30
794.696826
 70
    64
  0
VERTEX
  5
169
  8
TEAM-NET
 10
57.453333
 20
-20.096189
 30
801.790929
 70
    64
  0
VERTEX
  5
16A
  8
TEAM-NET
 10
48.561656
 20
-14.053832
 30
809.251933
 70
    64
  0
VERTEX
  5
16B
  8
TEAM-NET
 10
39.300395
 20
-9.046107
 30
817.023053
 70
    64
  0
VERTEX
  5
16C
  8
TEAM-NET
 10
29.740034
 20
-5.111126
 30
825.045149
 70
    64
  0
VERTEX
  5
16D
  8
TEAM-NET
 10
19.953333
 20
-2.278837
 30
833.257165
 70
    64
  0
VERTEX
  5
16E
  8
TEAM-NET
 10
10.014776
 20
-0.570795
 30
841.596605
 70
    64
  0
VERTEX
  5
16F
  8
TEAM-NET
 10
0.0
 20
0.0
 30
850.0
 70
    64
  0
VERTEX
  5
170
  8
TEAM-NET
 10
0.0
 20
-300.0
 30
850.0
 70
    64
  0
VERTEX
  5
171
  8
TEAM-NET
 10
9.244263
 20
-299.429205
 30
840.755737
 70
    64
  0
VERTEX
  5
172
  8
TEAM-NET
 10
18.418171
 20
-297.721163
 30
831.581829
 70
    64
  0
VERTEX
  5
173
  8
TEAM-NET
 10
27.451905
 20
-294.888874
 30
822.548095
 70
    64
  0
VERTEX
  5
174
  8
TEAM-NET
 10
36.276714
 20
-290.953893
 30
813.723286
 70
    64
  0
VERTEX
  5
175
  8
TEAM-NET
 10
44.825436
 20
-285.946168
 30
805.174564
 70
    64
  0
VERTEX
  5
176
  8
TEAM-NET
 10
53.033009
 20
-279.903811
 30
796.966991
 70
    64
  0
VERTEX
  5
177
  8
TEAM-NET
 10
60.836968
 20
-272.872807
 30
789.163032
 70
    64
  0
VERTEX
  5
178
  8
TEAM-NET
 10
68.177922
 20
-264.906666
 30
781.822078
 70
    64
  0
VERTEX
  5
179
  8
TEAM-NET
 10
75.0
 20
-256.066017
 30
775.0
 70
    64
  0
VERTEX
  5
17A
  8
TEAM-NET
 10
81.251283
 20
-246.418141
 30
768.748717
 70
    64
  0
VERTEX
  5
17B
  8
TEAM-NET
 10
86.884195
 20
-236.036465
 30
763.115805
 70
    64
  0
VERTEX
  5
17C
  8
TEAM-NET
 10
91.855865
 20
-225.0
 30
758.144135
 70
    64
  0
VERTEX
  5
17D
  8
TEAM-NET
 10
96.128457
 20
-213.392739
 30
753.871543
 70
    64
  0
VERTEX
  5
17E
  8
TEAM-NET
 10
99.669454
 20
-201.303021
 30
750.330546
 70
    64
  0
VERTEX
  5
17F
  8
TEAM-NET
 10
102.451905
 20
-188.822857
 30
747.548095
 70
    64
  0
VERTEX
  5
180
  8
TEAM-NET
 10
104.454636
 20
-176.047227
 30
745.545364
 70
    64
  0
VERTEX
  5
181
  8
TEAM-NET
 10
105.662404
 20
-163.073361
 30
744.337596
 70
    64
  0
VERTEX
  5
182
  8
TEAM-NET
 10
106.066017
 20
-150.0
 30
743.933983
 70
    64
  0
VERTEX
  5
183
  8
TEAM-NET
 10
105.662404
 20
-136.926639
 30
744.337596
 70
    64
  0
VERTEX
  5
184
  8
TEAM-NET
 10
104.454636
 20
-123.952773
 30
745.545364
 70
    64
  0
VERTEX
  5
185
  8
TEAM-NET
 10
102.451905
 20
-111.177143
 30
747.548095
 70
    64
  0
VERTEX
  5
186
  8
TEAM-NET
 10
99.669454
 20
-98.696979
 30
750.330546
 70
    64
  0
VERTEX
  5
187
  8
TEAM-NET
 10
96.128457
 20
-86.607261
 30
753.871543
 70
    64
  0
VERTEX
  5
188
  8
TEAM-NET
 10
91.855865
 20
-75.0
 30
758.144135
 70
    64
  0
VERTEX
  5
189
  8
TEAM-NET
 10
86.884195
 20
-63.963535
 30
763.115805
 70
    64
  0
VERTEX
  5
18A
  8
TEAM-NET
 10
81.251283
 20
-53.581859
 30
768.748717
 70
    64
  0
VERTEX
  5
18B
  8
TEAM-NET
 10
75.0
 20
-43.933983
 30
775.0
 70
    64
  0
VERTEX
  5
18C
  8
TEAM-NET
 10
68.177922
 20
-35.093334
 30
781.822078
 70
    64
  0
VERTEX
  5
18D
  8
TEAM-NET
 10
60.836968
 20
-27.127193
 30
789.163032
 70
    64
  0
VERTEX
  5
18E
  8
TEAM-NET
 10
53.033009
 20
-20.096189
 30
796.966991
 70
    64
  0
VERTEX
  5
18F
  8
TEAM-NET
 10
44.825436
 20
-14.053832
 30
805.174564
 70
    64
  0
VERTEX
  5
190
  8
TEAM-NET
 10
36.276714
 20
-9.046107
 30
813.723286
 70
    64
  0
VERTEX
  5
191
  8
TEAM-NET
 10
27.451905
 20
-5.111126
 30
822.548095
 70
    64
  0
VERTEX
  5
192
  8
TEAM-NET
 10
18.418171
 20
-2.278837
 30
831.581829
 70
    64
  0
VERTEX
  5
193
  8
TEAM-NET
 10
9.244263
 20
-0.570795
 30
840.755737
 70
    64
  0
VERTEX
  5
194
  8
TEAM-NET
 10
0.0
 20
0.0
 30
850.0
 70
    64
  0
VERTEX
  5
195
  8
TEAM-NET
 10
0.0
 20
-300.0
 30
850.0
 70
    64
  0
VERTEX
  5
196
  8
TEAM-NET
 10
8.403395
 20
-299.429205
 30
839.985224
 70
    64
  0
VERTEX
  5
197
  8
TEAM-NET
 10
16.742835
 20
-297.721163
 30
830.046667
 70
    64
  0
VERTEX
  5
198
  8
TEAM-NET
 10
24.954851
 20
-294.888874
 30
820.259966
 70
    64
  0
VERTEX
  5
199
  8
TEAM-NET
 10
32.976947
 20
-290.953893
 30
810.699605
 70
    64
  0
VERTEX
  5
19A
  8
TEAM-NET
 10
40.748067
 20
-285.946168
 30
801.438344
 70
    64
  0
VERTEX
  5
19B
  8
TEAM-NET
 10
48.209071
 20
-279.903811
 30
792.546667
 70
    64
  0
VERTEX
  5
19C
  8
TEAM-NET
 10
55.303174
 20
-272.872807
 30
784.092244
 70
    64
  0
VERTEX
  5
19D
  8
TEAM-NET
 10
61.976387
 20
-264.906666
 30
776.139419
 70
    64
  0
VERTEX
  5
19E
  8
TEAM-NET
 10
68.177922
 20
-256.066017
 30
768.748717
 70
    64
  0
VERTEX
  5
19F
  8
TEAM-NET
 10
73.860581
 20
-246.418141
 30
761.976387
 70
    64
  0
VERTEX
  5
1A0
  8
TEAM-NET
 10
78.981118
 20
-236.036465
 30
755.873969
 70
    64
  0
VERTEX
  5
1A1
  8
TEAM-NET
 10
83.50056
 20
-225.0
 30
750.487908
 70
    64
  0
VERTEX
  5
1A2
  8
TEAM-NET
 10
87.384512
 20
-213.392739
 30
745.859193
 70
    64
  0
VERTEX
  5
1A3
  8
TEAM-NET
 10
90.603416
 20
-201.303021
 30
742.023053
 70
    64
  0
VERTEX
  5
1A4
  8
TEAM-NET
 10
93.132773
 20
-188.822857
 30
739.008683
 70
    64
  0
VERTEX
  5
1A5
  8
TEAM-NET
 10
94.953333
 20
-176.047227
 30
736.839024
 70
    64
  0
VERTEX
  5
1A6
  8
TEAM-NET
 10
96.051241
 20
-163.073361
 30
735.530588
 70
    64
  0
VERTEX
  5
1A7
  8
TEAM-NET
 10
96.418141
 20
-150.0
 30
735.093334
 70
    64
  0
VERTEX
  5
1A8
  8
TEAM-NET
 10
96.051241
 20
-136.926639
 30
735.530588
 70
    64
  0
VERTEX
  5
1A9
  8
TEAM-NET
 10
94.953333
 20
-123.952773
 30
736.839024
 70
    64
  0
VERTEX
  5
1AA
  8
TEAM-NET
 10
93.132773
 20
-111.177143
 30
739.008683
 70
    64
  0
VERTEX
  5
1AB
  8
TEAM-NET
 10
90.603416
 20
-98.696979
 30
742.023053
 70
    64
  0
VERTEX
  5
1AC
  8
TEAM-NET
 10
87.384512
 20
-86.607261
 30
745.859193
 70
    64
  0
VERTEX
  5
1AD
  8
TEAM-NET
 10
83.50056
 20
-75.0
 30
750.487908
 70
    64
  0
VERTEX
  5
1AE
  8
TEAM-NET
 10
78.981118
 20
-63.963535
 30
755.873969
 70
    64
  0
VERTEX
  5
1AF
  8
TEAM-NET
 10
73.860581
 20
-53.581859
 30
761.976387
 70
    64
  0
VERTEX
  5
1B0
  8
TEAM-NET
 10
68.177922
 20
-43.933983
 30
768.748717
 70
    64
  0
VERTEX
  5
1B1
  8
TEAM-NET
 10
61.976387
 20
-35.093334
 30
776.139419
 70
    64
  0
VERTEX
  5
1B2
  8
TEAM-NET
 10
55.303174
 20
-27.127193
 30
784.092244
 70
    64
  0
VERTEX
  5
1B3
  8
TEAM-NET
 10
48.209071
 20
-20.096189
 30
792.546667
 70
    64
  0
VERTEX
  5
1B4
  8
TEAM-NET
 10
40.748067
 20
-14.053832
 30
801.438344
 70
    64
  0
VERTEX
  5
1B5
  8
TEAM-NET
 10
32.976947
 20
-9.046107
 30
810.699605
 70
    64
  0
VERTEX
  5
1B6
  8
TEAM-NET
 10
24.954851
 20
-5.111126
 30
820.259966
 70
    64
  0
VERTEX
  5
1B7
  8
TEAM-NET
 10
16.742835
 20
-2.278837
 30
830.046667
 70
    64
  0
VERTEX
  5
1B8
  8
TEAM-NET
 10
8.403395
 20
-0.570795
 30
839.985224
 70
    64
  0
VERTEX
  5
1B9
  8
TEAM-NET
 10
0.0
 20
0.0
 30
850.0
 70
    64
  0
VERTEX
  5
1BA
  8
TEAM-NET
 10
0.0
 20
-300.0
 30
850.0
 70
    64
  0
VERTEX
  5
1BB
  8
TEAM-NET
 10
7.498572
 20
-299.429205
 30
839.290929
 70
    64
  0
VERTEX
  5
1BC
  8
TEAM-NET
 10
14.940075
 20
-297.721163
 30
828.663361
 70
    64
  0
VERTEX
  5
1BD
  8
TEAM-NET
 10
22.267876
 20
-294.888874
 30
818.198178
 70
    64
  0
VERTEX
  5
1BE
  8
TEAM-NET
 10
29.426204
 20
-290.953893
 30
807.975025
 70
    64
  0
VERTEX
  5
1BF
  8
TEAM-NET
 10
36.360581
 20
-285.946168
 30
798.071708
 70
    64
  0
VERTEX
  5
1C0
  8
TEAM-NET
 10
43.018233
 20
-279.903811
 30
788.563597
 70
    64
  0
VERTEX
  5
1C1
  8
TEAM-NET
 10
49.348489
 20
-272.872807
 30
779.523053
 70
    64
  0
VERTEX
  5
1C2
  8
TEAM-NET
 10
55.303174
 20
-264.906666
 30
771.018882
 70
    64
  0
VERTEX
  5
1C3
  8
TEAM-NET
 10
60.836968
 20
-256.066017
 30
763.115805
 70
    64
  0
VERTEX
  5
1C4
  8
TEAM-NET
 10
65.907756
 20
-246.418141
 30
755.873969
 70
    64
  0
VERTEX
  5
1C5
  8
TEAM-NET
 10
70.476947
 20
-236.036465
 30
749.348489
 70
    64
  0
VERTEX
  5
1C6
  8
TEAM-NET
 10
74.509765
 20
-225.0
 30
743.589028
 70
    64
  0
VERTEX
  5
1C7
  8
TEAM-NET
 10
77.975519
 20
-213.392739
 30
738.639419
 70
    64
  0
VERTEX
  5
1C8
  8
TEAM-NET
 10
80.847832
 20
-201.303021
 30
734.53733
 70
    64
  0
VERTEX
  5
1C9
  8
TEAM-NET
 10
83.104844
 20
-188.822857
 30
731.313983
 70
    64
  0
VERTEX
  5
1CA
  8
TEAM-NET
 10
84.729378
 20
-176.047227
 30
728.993907
 70
    64
  0
VERTEX
  5
1CB
  8
TEAM-NET
 10
85.709071
 20
-163.073361
 30
727.594761
 70
    64
  0
VERTEX
  5
1CC
  8
TEAM-NET
 10
86.036465
 20
-150.0
 30
727.127193
 70
    64
  0
VERTEX
  5
1CD
  8
TEAM-NET
 10
85.709071
 20
-136.926639
 30
727.594761
 70
    64
  0
VERTEX
  5
1CE
  8
TEAM-NET
 10
84.729378
 20
-123.952773
 30
728.993907
 70
    64
  0
VERTEX
  5
1CF
  8
TEAM-NET
 10
83.104844
 20
-111.177143
 30
731.313983
 70
    64
  0
VERTEX
  5
1D0
  8
TEAM-NET
 10
80.847832
 20
-98.696979
 30
734.53733
 70
    64
  0
VERTEX
  5
1D1
  8
TEAM-NET
 10
77.975519
 20
-86.607261
 30
738.639419
 70
    64
  0
VERTEX
  5
1D2
  8
TEAM-NET
 10
74.509765
 20
-75.0
 30
743.589028
 70
    64
  0
VERTEX
  5
1D3
  8
TEAM-NET
 10
70.476947
 20
-63.963535
 30
749.348489
 70
    64
  0
VERTEX
  5
1D4
  8
TEAM-NET
 10
65.907756
 20
-53.581859
 30
755.873969
 70
    64
  0
VERTEX
  5
1D5
  8
TEAM-NET
 10
60.836968
 20
-43.933983
 30
763.115805
 70
    64
  0
VERTEX
  5
1D6
  8
TEAM-NET
 10
55.303174
 20
-35.093334
 30
771.018882
 70
    64
  0
VERTEX
  5
1D7
  8
TEAM-NET
 10
49.348489
 20
-27.127193
 30
779.523053
 70
    64
  0
VERTEX
  5
1D8
  8
TEAM-NET
 10
43.018233
 20
-20.096189
 30
788.563597
 70
    64
  0
VERTEX
  5
1D9
  8
TEAM-NET
 10
36.360581
 20
-14.053832
 30
798.071708
 70
    64
  0
VERTEX
  5
1DA
  8
TEAM-NET
 10
29.426204
 20
-9.046107
 30
807.975025
 70
    64
  0
VERTEX
  5
1DB
  8
TEAM-NET
 10
22.267876
 20
-5.111126
 30
818.198178
 70
    64
  0
VERTEX
  5
1DC
  8
TEAM-NET
 10
14.940075
 20
-2.278837
 30
828.663361
 70
    64
  0
VERTEX
  5
1DD
  8
TEAM-NET
 10
7.498572
 20
-0.570795
 30
839.290929
 70
    64
  0
VERTEX
  5
1DE
  8
TEAM-NET
 10
0.0
 20
0.0
 30
850.0
 70
    64
  0
VERTEX
  5
1DF
  8
TEAM-NET
 10
0.0
 20
-300.0
 30
850.0
 70
    64
  0
VERTEX
  5
1E0
  8
TEAM-NET
 10
6.536681
 20
-299.429205
 30
838.678137
 70
    64
  0
VERTEX
  5
1E1
  8
TEAM-NET
 10
13.023613
 20
-297.721163
 30
827.44244
 70
    64
  0
VERTEX
  5
1E2
  8
TEAM-NET
 10
19.411428
 20
-294.888874
 30
816.37842
 70
    64
  0
VERTEX
  5
1E3
  8
TEAM-NET
 10
25.651511
 20
-290.953893
 30
805.57028
 70
    64
  0
VERTEX
  5
1E4
  8
TEAM-NET
 10
31.69637
 20
-285.946168
 30
795.100277
 70
    64
  0
VERTEX
  5
1E5
  8
TEAM-NET
 10
37.5
 20
-279.903811
 30
785.048095
 70
    64
  0
VERTEX
  5
1E6
  8
TEAM-NET
 10
43.018233
 20
-272.872807
 30
775.490235
 70
    64
  0
VERTEX
  5
1E7
  8
TEAM-NET
 10
48.209071
 20
-264.906666
 30
766.49944
 70
    64
  0
VERTEX
  5
1E8
  8
TEAM-NET
 10
53.033009
 20
-256.066017
 30
758.144135
 70
    64
  0
VERTEX
  5
1E9
  8
TEAM-NET
 10
57.453333
 20
-246.418141
 30
750.487908
 70
    64
  0
VERTEX
  5
1EA
  8
TEAM-NET
 10
61.436403
 20
-236.036465
 30
743.589028
 70
    64
  0
VERTEX
  5
1EB
  8
TEAM-NET
 10
64.951905
 20
-225.0
 30
737.5
 70
    64
  0
VERTEX
  5
1EC
  8
TEAM-NET
 10
67.973084
 20
-213.392739
 30
732.267165
 70
    64
  0
VERTEX
  5
1ED
  8
TEAM-NET
 10
70.476947
 20
-201.303021
 30
727.930348
 70
    64
  0
VERTEX
  5
1EE
  8
TEAM-NET
 10
72.444437
 20
-188.822857
 30
724.522554
 70
    64
  0
VERTEX
  5
1EF
  8
TEAM-NET
 10
73.860581
 20
-176.047227
 30
722.06972
 70
    64
  0
VERTEX
  5
1F0
  8
TEAM-NET
 10
74.714602
 20
-163.073361
 30
720.590513
 70
    64
  0
VERTEX
  5
1F1
  8
TEAM-NET
 10
75.0
 20
-150.0
 30
720.096189
 70
    64
  0
VERTEX
  5
1F2
  8
TEAM-NET
 10
74.714602
 20
-136.926639
 30
720.590513
 70
    64
  0
VERTEX
  5
1F3
  8
TEAM-NET
 10
73.860581
 20
-123.952773
 30
722.06972
 70
    64
  0
VERTEX
  5
1F4
  8
TEAM-NET
 10
72.444437
 20
-111.177143
 30
724.522554
 70
    64
  0
VERTEX
  5
1F5
  8
TEAM-NET
 10
70.476947
 20
-98.696979
 30
727.930348
 70
    64
  0
VERTEX
  5
1F6
  8
TEAM-NET
 10
67.973084
 20
-86.607261
 30
732.267165
 70
    64
  0
VERTEX
  5
1F7
  8
TEAM-NET
 10
64.951905
 20
-75.0
 30
737.5
 70
    64
  0
VERTEX
  5
1F8
  8
TEAM-NET
 10
61.436403
 20
-63.963535
 30
743.589028
 70
    64
  0
VERTEX
  5
1F9
  8
TEAM-NET
 10
57.453333
 20
-53.581859
 30
750.487908
 70
    64
  0
VERTEX
  5
1FA
  8
TEAM-NET
 10
53.033009
 20
-43.933983
 30
758.144135
 70
    64
  0
VERTEX
  5
1FB
  8
TEAM-NET
 10
48.209071
 20
-35.093334
 30
766.49944
 70
    64
  0
VERTEX
  5
1FC
  8
TEAM-NET
 10
43.018233
 20
-27.127193
 30
775.490235
 70
    64
  0
VERTEX
  5
1FD
  8
TEAM-NET
 10
37.5
 20
-20.096189
 30
785.048095
 70
    64
  0
VERTEX
  5
1FE
  8
TEAM-NET
 10
31.69637
 20
-14.053832
 30
795.100277
 70
    64
  0
VERTEX
  5
1FF
  8
TEAM-NET
 10
25.651511
 20
-9.046107
 30
805.57028
 70
    64
  0
VERTEX
  5
200
  8
TEAM-NET
 10
19.411428
 20
-5.111126
 30
816.37842
 70
    64
  0
VERTEX
  5
201
  8
TEAM-NET
 10
13.023613
 20
-2.278837
 30
827.44244
 70
    64
  0
VERTEX
  5
202
  8
TEAM-NET
 10
6.536681
 20
-0.570795
 30
838.678137
 70
    64
  0
VERTEX
  5
203
  8
TEAM-NET
 10
0.0
 20
0.0
 30
850.0
 70
    64
  0
VERTEX
  5
204
  8
TEAM-NET
 10
0.0
 20
-300.0
 30
850.0
 70
    64
  0
VERTEX
  5
205
  8
TEAM-NET
 10
5.525041
 20
-299.429205
 30
838.151511
 70
    64
  0
VERTEX
  5
206
  8
TEAM-NET
 10
11.008034
 20
-297.721163
 30
826.393196
 70
    64
  0
VERTEX
  5
207
  8
TEAM-NET
 10
16.407248
 20
-294.888874
 30
814.814543
 70
    64
  0
VERTEX
  5
208
  8
TEAM-NET
 10
21.681594
 20
-290.953893
 30
803.503672
 70
    64
  0
VERTEX
  5
209
  8
TEAM-NET
 10
26.790929
 20
-285.946168
 30
792.546667
 70
    64
  0
VERTEX
  5
20A
  8
TEAM-NET
 10
31.69637
 20
-279.903811
 30
782.026916
 70
    64
  0
VERTEX
  5
20B
  8
TEAM-NET
 10
36.360581
 20
-272.872807
 30
772.024481
 70
    64
  0
VERTEX
  5
20C
  8
TEAM-NET
 10
40.748067
 20
-264.906666
 30
762.615488
 70
    64
  0
VERTEX
  5
20D
  8
TEAM-NET
 10
44.825436
 20
-256.066017
 30
753.871543
 70
    64
  0
VERTEX
  5
20E
  8
TEAM-NET
 10
48.561656
 20
-246.418141
 30
745.859193
 70
    64
  0
VERTEX
  5
20F
  8
TEAM-NET
 10
51.928292
 20
-236.036465
 30
738.639419
 70
    64
  0
VERTEX
  5
210
  8
TEAM-NET
 10
54.899723
 20
-225.0
 30
732.267165
 70
    64
  0
VERTEX
  5
211
  8
TEAM-NET
 10
57.453333
 20
-213.392739
 30
726.790929
 70
    64
  0
VERTEX
  5
212
  8
TEAM-NET
 10
59.569689
 20
-201.303021
 30
722.252389
 70
    64
  0
VERTEX
  5
213
  8
TEAM-NET
 10
61.232684
 20
-188.822857
 30
718.686085
 70
    64
  0
VERTEX
  5
214
  8
TEAM-NET
 10
62.429661
 20
-176.047227
 30
716.11916
 70
    64
  0
VERTEX
  5
215
  8
TEAM-NET
 10
63.151511
 20
-163.073361
 30
714.571148
 70
    64
  0
VERTEX
  5
216
  8
TEAM-NET
 10
63.392739
 20
-150.0
 30
714.053832
 70
    64
  0
VERTEX
  5
217
  8
TEAM-NET
 10
63.151511
 20
-136.926639
 30
714.571148
 70
    64
  0
VERTEX
  5
218
  8
TEAM-NET
 10
62.429661
 20
-123.952773
 30
716.11916
 70
    64
  0
VERTEX
  5
219
  8
TEAM-NET
 10
61.232684
 20
-111.177143
 30
718.686085
 70
    64
  0
VERTEX
  5
21A
  8
TEAM-NET
 10
59.569689
 20
-98.696979
 30
722.252389
 70
    64
  0
VERTEX
  5
21B
  8
TEAM-NET
 10
57.453333
 20
-86.607261
 30
726.790929
 70
    64
  0
VERTEX
  5
21C
  8
TEAM-NET
 10
54.899723
 20
-75.0
 30
732.267165
 70
    64
  0
VERTEX
  5
21D
  8
TEAM-NET
 10
51.928292
 20
-63.963535
 30
738.639419
 70
    64
  0
VERTEX
  5
21E
  8
TEAM-NET
 10
48.561656
 20
-53.581859
 30
745.859193
 70
    64
  0
VERTEX
  5
21F
  8
TEAM-NET
 10
44.825436
 20
-43.933983
 30
753.871543
 70
    64
  0
VERTEX
  5
220
  8
TEAM-NET
 10
40.748067
 20
-35.093334
 30
762.615488
 70
    64
  0
VERTEX
  5
221
  8
TEAM-NET
 10
36.360581
 20
-27.127193
 30
772.024481
 70
    64
  0
VERTEX
  5
222
  8
TEAM-NET
 10
31.69637
 20
-20.096189
 30
782.026916
 70
    64
  0
VERTEX
  5
223
  8
TEAM-NET
 10
26.790929
 20
-14.053832
 30
792.546667
 70
    64
  0
VERTEX
  5
224
  8
TEAM-NET
 10
21.681594
 20
-9.046107
 30
803.503672
 70
    64
  0
VERTEX
  5
225
  8
TEAM-NET
 10
16.407248
 20
-5.111126
 30
814.814543
 70
    64
  0
VERTEX
  5
226
  8
TEAM-NET
 10
11.008034
 20
-2.278837
 30
826.393196
 70
    64
  0
VERTEX
  5
227
  8
TEAM-NET
 10
5.525041
 20
-0.570795
 30
838.151511
 70
    64
  0
VERTEX
  5
228
  8
TEAM-NET
 10
0.0
 20
0.0
 30
850.0
 70
    64
  0
VERTEX
  5
229
  8
TEAM-NET
 10
0.0
 20
-300.0
 30
850.0
 70
    64
  0
VERTEX
  5
22A
  8
TEAM-NET
 10
4.471353
 20
-299.429205
 30
837.715059
 70
    64
  0
VERTEX
  5
22B
  8
TEAM-NET
 10
8.908676
 20
-297.721163
 30
825.523613
 70
    64
  0
VERTEX
  5
22C
  8
TEAM-NET
 10
13.278199
 20
-294.888874
 30
813.518448
 70
    64
  0
VERTEX
  5
22D
  8
TEAM-NET
 10
17.546667
 20
-290.953893
 30
801.790929
 70
    64
  0
VERTEX
  5
22E
  8
TEAM-NET
 10
21.681594
 20
-285.946168
 30
790.430311
 70
    64
  0
VERTEX
  5
22F
  8
TEAM-NET
 10
25.651511
 20
-279.903811
 30
779.523053
 70
    64
  0
VERTEX
  5
230
  8
TEAM-NET
 10
29.426204
 20
-272.872807
 30
769.152168
 70
    64
  0
VERTEX
  5
231
  8
TEAM-NET
 10
32.976947
 20
-264.906666
 30
759.396584
 70
    64
  0
VERTEX
  5
232
  8
TEAM-NET
 10
36.276714
 20
-256.066017
 30
750.330546
 70
    64
  0
VERTEX
  5
233
  8
TEAM-NET
 10
39.300395
 20
-246.418141
 30
742.023053
 70
    64
  0
VERTEX
  5
234
  8
TEAM-NET
 10
42.024975
 20
-236.036465
 30
734.53733
 70
    64
  0
VERTEX
  5
235
  8
TEAM-NET
 10
44.42972
 20
-225.0
 30
727.930348
 70
    64
  0
VERTEX
  5
236
  8
TEAM-NET
 10
46.496328
 20
-213.392739
 30
722.252389
 70
    64
  0
VERTEX
  5
237
  8
TEAM-NET
 10
48.209071
 20
-201.303021
 30
717.546667
 70
    64
  0
VERTEX
  5
238
  8
TEAM-NET
 10
49.554913
 20
-188.822857
 30
713.848994
 70
    64
  0
VERTEX
  5
239
  8
TEAM-NET
 10
50.523613
 20
-176.047227
 30
711.187513
 70
    64
  0
VERTEX
  5
23A
  8
TEAM-NET
 10
51.107798
 20
-163.073361
 30
709.582479
 70
    64
  0
VERTEX
  5
23B
  8
TEAM-NET
 10
51.303021
 20
-150.0
 30
709.046107
 70
    64
  0
VERTEX
  5
23C
  8
TEAM-NET
 10
51.107798
 20
-136.926639
 30
709.582479
 70
    64
  0
VERTEX
  5
23D
  8
TEAM-NET
 10
50.523613
 20
-123.952773
 30
711.187513
 70
    64
  0
VERTEX
  5
23E
  8
TEAM-NET
 10
49.554913
 20
-111.177143
 30
713.848994
 70
    64
  0
VERTEX
  5
23F
  8
TEAM-NET
 10
48.209071
 20
-98.696979
 30
717.546667
 70
    64
  0
VERTEX
  5
240
  8
TEAM-NET
 10
46.496328
 20
-86.607261
 30
722.252389
 70
    64
  0
VERTEX
  5
241
  8
TEAM-NET
 10
44.42972
 20
-75.0
 30
727.930348
 70
    64
  0
VERTEX
  5
242
  8
TEAM-NET
 10
42.024975
 20
-63.963535
 30
734.53733
 70
    64
  0
VERTEX
  5
243
  8
TEAM-NET
 10
39.300395
 20
-53.581859
 30
742.023053
 70
    64
  0
VERTEX
  5
244
  8
TEAM-NET
 10
36.276714
 20
-43.933983
 30
750.330546
 70
    64
  0
VERTEX
  5
245
  8
TEAM-NET
 10
32.976947
 20
-35.093334
 30
759.396584
 70
    64
  0
VERTEX
  5
246
  8
TEAM-NET
 10
29.426204
 20
-27.127193
 30
769.152168
 70
    64
  0
VERTEX
  5
247
  8
TEAM-NET
 10
25.651511
 20
-20.096189
 30
779.523053
 70
    64
  0
VERTEX
  5
248
  8
TEAM-NET
 10
21.681594
 20
-14.053832
 30
790.430311
 70
    64
  0
VERTEX
  5
249
  8
TEAM-NET
 10
17.546667
 20
-9.046107
 30
801.790929
 70
    64
  0
VERTEX
  5
24A
  8
TEAM-NET
 10
13.278199
 20
-5.111126
 30
813.518448
 70
    64
  0
VERTEX
  5
24B
  8
TEAM-NET
 10
8.908676
 20
-2.278837
 30
825.523613
 70
    64
  0
VERTEX
  5
24C
  8
TEAM-NET
 10
4.471353
 20
-0.570795
 30
837.715059
 70
    64
  0
VERTEX
  5
24D
  8
TEAM-NET
 10
0.0
 20
0.0
 30
850.0
 70
    64
  0
VERTEX
  5
24E
  8
TEAM-NET
 10
0.0
 20
-300.0
 30
850.0
 70
    64
  0
VERTEX
  5
24F
  8
TEAM-NET
 10
3.383635
 20
-299.429205
 30
837.372103
 70
    64
  0
VERTEX
  5
250
  8
TEAM-NET
 10
6.741518
 20
-297.721163
 30
824.840311
 70
    64
  0
VERTEX
  5
251
  8
TEAM-NET
 10
10.048095
 20
-294.888874
 30
812.5
 70
    64
  0
VERTEX
  5
252
  8
TEAM-NET
 10
13.278199
 20
-290.953893
 30
800.445087
 70
    64
  0
VERTEX
  5
253
  8
TEAM-NET
 10
16.407248
 20
-285.946168
 30
788.767316
 70
    64
  0
VERTEX
  5
254
  8
TEAM-NET
 10
19.411428
 20
-279.903811
 30
777.555563
 70
    64
  0
VERTEX
  5
255
  8
TEAM-NET
 10
22.267876
 20
-272.872807
 30
766.895156
 70
    64
  0
VERTEX
  5
256
  8
TEAM-NET
 10
24.954851
 20
-264.906666
 30
756.867227
 70
    64
  0
VERTEX
  5
257
  8
TEAM-NET
 10
27.451905
 20
-256.066017
 30
747.548095
 70
    64
  0
VERTEX
  5
258
  8
TEAM-NET
 10
29.740034
 20
-246.418141
 30
739.008683
 70
    64
  0
VERTEX
  5
259
  8
TEAM-NET
 10
31.801822
 20
-236.036465
 30
731.313983
 70
    64
  0
VERTEX
  5
25A
  8
TEAM-NET
 10
33.62158
 20
-225.0
 30
724.522554
 70
    64
  0
VERTEX
  5
25B
  8
TEAM-NET
 10
35.185457
 20
-213.392739
 30
718.686085
 70
    64
  0
VERTEX
  5
25C
  8
TEAM-NET
 10
36.481552
 20
-201.303021
 30
713.848994
 70
    64
  0
VERTEX
  5
25D
  8
TEAM-NET
 10
37.5
 20
-188.822857
 30
710.048095
 70
    64
  0
VERTEX
  5
25E
  8
TEAM-NET
 10
38.23305
 20
-176.047227
 30
707.312314
 70
    64
  0
VERTEX
  5
25F
  8
TEAM-NET
 10
38.675124
 20
-163.073361
 30
705.662472
 70
    64
  0
VERTEX
  5
260
  8
TEAM-NET
 10
38.822857
 20
-150.0
 30
705.111126
 70
    64
  0
VERTEX
  5
261
  8
TEAM-NET
 10
38.675124
 20
-136.926639
 30
705.662472
 70
    64
  0
VERTEX
  5
262
  8
TEAM-NET
 10
38.23305
 20
-123.952773
 30
707.312314
 70
    64
  0
VERTEX
  5
263
  8
TEAM-NET
 10
37.5
 20
-111.177143
 30
710.048095
 70
    64
  0
VERTEX
  5
264
  8
TEAM-NET
 10
36.481552
 20
-98.696979
 30
713.848994
 70
    64
  0
VERTEX
  5
265
  8
TEAM-NET
 10
35.185457
 20
-86.607261
 30
718.686085
 70
    64
  0
VERTEX
  5
266
  8
TEAM-NET
 10
33.62158
 20
-75.0
 30
724.522554
 70
    64
  0
VERTEX
  5
267
  8
TEAM-NET
 10
31.801822
 20
-63.963535
 30
731.313983
 70
    64
  0
VERTEX
  5
268
  8
TEAM-NET
 10
29.740034
 20
-53.581859
 30
739.008683
 70
    64
  0
VERTEX
  5
269
  8
TEAM-NET
 10
27.451905
 20
-43.933983
 30
747.548095
 70
    64
  0
VERTEX
  5
26A
  8
TEAM-NET
 10
24.954851
 20
-35.093334
 30
756.867227
 70
    64
  0
VERTEX
  5
26B
  8
TEAM-NET
 10
22.267876
 20
-27.127193
 30
766.895156
 70
    64
  0
VERTEX
  5
26C
  8
TEAM-NET
 10
19.411428
 20
-20.096189
 30
777.555563
 70
    64
  0
VERTEX
  5
26D
  8
TEAM-NET
 10
16.407248
 20
-14.053832
 30
788.767316
 70
    64
  0
VERTEX
  5
26E
  8
TEAM-NET
 10
13.278199
 20
-9.046107
 30
800.445087
 70
    64
  0
VERTEX
  5
26F
  8
TEAM-NET
 10
10.048095
 20
-5.111126
 30
812.5
 70
    64
  0
VERTEX
  5
270
  8
TEAM-NET
 10
6.741518
 20
-2.278837
 30
824.840311
 70
    64
  0
VERTEX
  5
271
  8
TEAM-NET
 10
3.383635
 20
-0.570795
 30
837.372103
 70
    64
  0
VERTEX
  5
272
  8
TEAM-NET
 10
0.0
 20
0.0
 30
850.0
 70
    64
  0
VERTEX
  5
273
  8
TEAM-NET
 10
0.0
 20
-300.0
 30
850.0
 70
    64
  0
VERTEX
  5
274
  8
TEAM-NET
 10
2.270165
 20
-299.429205
 30
837.125252
 70
    64
  0
VERTEX
  5
275
  8
TEAM-NET
 10
4.523053
 20
-297.721163
 30
824.348489
 70
    64
  0
VERTEX
  5
276
  8
TEAM-NET
 10
6.741518
 20
-294.888874
 30
811.76695
 70
    64
  0
VERTEX
  5
277
  8
TEAM-NET
 10
8.908676
 20
-290.953893
 30
799.476387
 70
    64
  0
VERTEX
  5
278
  8
TEAM-NET
 10
11.008034
 20
-285.946168
 30
787.570339
 70
    64
  0
VERTEX
  5
279
  8
TEAM-NET
 10
13.023613
 20
-279.903811
 30
776.139419
 70
    64
  0
VERTEX
  5
27A
  8
TEAM-NET
 10
14.940075
 20
-272.872807
 30
765.270622
 70
    64
  0
VERTEX
  5
27B
  8
TEAM-NET
 10
16.742835
 20
-264.906666
 30
755.046667
 70
    64
  0
VERTEX
  5
27C
  8
TEAM-NET
 10
18.418171
 20
-256.066017
 30
745.545364
 70
    64
  0
VERTEX
  5
27D
  8
TEAM-NET
 10
19.953333
 20
-246.418141
 30
736.839024
 70
    64
  0
VERTEX
  5
27E
  8
TEAM-NET
 10
21.336639
 20
-236.036465
 30
728.993907
 70
    64
  0
VERTEX
  5
27F
  8
TEAM-NET
 10
22.55756
 20
-225.0
 30
722.06972
 70
    64
  0
VERTEX
  5
280
  8
TEAM-NET
 10
23.606804
 20
-213.392739
 30
716.11916
 70
    64
  0
VERTEX
  5
281
  8
TEAM-NET
 10
24.476387
 20
-201.303021
 30
711.187513
 70
    64
  0
VERTEX
  5
282
  8
TEAM-NET
 10
25.159689
 20
-188.822857
 30
707.312314
 70
    64
  0
VERTEX
  5
283
  8
TEAM-NET
 10
25.651511
 20
-176.047227
 30
704.523053
 70
    64
  0
VERTEX
  5
284
  8
TEAM-NET
 10
25.948109
 20
-163.073361
 30
702.840961
 70
    64
  0
VERTEX
  5
285
  8
TEAM-NET
 10
26.047227
 20
-150.0
 30
702.278837
 70
    64
  0
VERTEX
  5
286
  8
TEAM-NET
 10
25.948109
 20
-136.926639
 30
702.840961
 70
    64
  0
VERTEX
  5
287
  8
TEAM-NET
 10
25.651511
 20
-123.952773
 30
704.523053
 70
    64
  0
VERTEX
  5
288
  8
TEAM-NET
 10
25.159689
 20
-111.177143
 30
707.312314
 70
    64
  0
VERTEX
  5
289
  8
TEAM-NET
 10
24.476387
 20
-98.696979
 30
711.187513
 70
    64
  0
VERTEX
  5
28A
  8
TEAM-NET
 10
23.606804
 20
-86.607261
 30
716.11916
 70
    64
  0
VERTEX
  5
28B
  8
TEAM-NET
 10
22.55756
 20
-75.0
 30
722.06972
 70
    64
  0
VERTEX
  5
28C
  8
TEAM-NET
 10
21.336639
 20
-63.963535
 30
728.993907
 70
    64
  0
VERTEX
  5
28D
  8
TEAM-NET
 10
19.953333
 20
-53.581859
 30
736.839024
 70
    64
  0
VERTEX
  5
28E
  8
TEAM-NET
 10
18.418171
 20
-43.933983
 30
745.545364
 70
    64
  0
VERTEX
  5
28F
  8
TEAM-NET
 10
16.742835
 20
-35.093334
 30
755.046667
 70
    64
  0
VERTEX
  5
290
  8
TEAM-NET
 10
14.940075
 20
-27.127193
 30
765.270622
 70
    64
  0
VERTEX
  5
291
  8
TEAM-NET
 10
13.023613
 20
-20.096189
 30
776.139419
 70
    64
  0
VERTEX
  5
292
  8
TEAM-NET
 10
11.008034
 20
-14.053832
 30
787.570339
 70
    64
  0
VERTEX
  5
293
  8
TEAM-NET
 10
8.908676
 20
-9.046107
 30
799.476387
 70
    64
  0
VERTEX
  5
294
  8
TEAM-NET
 10
6.741518
 20
-5.111126
 30
811.76695
 70
    64
  0
VERTEX
  5
295
  8
TEAM-NET
 10
4.523053
 20
-2.278837
 30
824.348489
 70
    64
  0
VERTEX
  5
296
  8
TEAM-NET
 10
2.270165
 20
-0.570795
 30
837.125252
 70
    64
  0
VERTEX
  5
297
  8
TEAM-NET
 10
0.0
 20
0.0
 30
850.0
 70
    64
  0
VERTEX
  5
298
  8
TEAM-NET
 10
0.0
 20
-300.0
 30
850.0
 70
    64
  0
VERTEX
  5
299
  8
TEAM-NET
 10
1.139419
 20
-299.429205
 30
836.976387
 70
    64
  0
VERTEX
  5
29A
  8
TEAM-NET
 10
2.270165
 20
-297.721163
 30
824.051891
 70
    64
  0
VERTEX
  5
29B
  8
TEAM-NET
 10
3.383635
 20
-294.888874
 30
811.324876
 70
    64
  0
VERTEX
  5
29C
  8
TEAM-NET
 10
4.471353
 20
-290.953893
 30
798.892202
 70
    64
  0
VERTEX
  5
29D
  8
TEAM-NET
 10
5.525041
 20
-285.946168
 30
786.848489
 70
    64
  0
VERTEX
  5
29E
  8
TEAM-NET
 10
6.536681
 20
-279.903811
 30
775.285398
 70
    64
  0
VERTEX
  5
29F
  8
TEAM-NET
 10
7.498572
 20
-272.872807
 30
764.290929
 70
    64
  0
VERTEX
  5
2A0
  8
TEAM-NET
 10
8.403395
 20
-264.906666
 30
753.948759
 70
    64
  0
VERTEX
  5
2A1
  8
TEAM-NET
 10
9.244263
 20
-256.066017
 30
744.337596
 70
    64
  0
VERTEX
  5
2A2
  8
TEAM-NET
 10
10.014776
 20
-246.418141
 30
735.530588
 70
    64
  0
VERTEX
  5
2A3
  8
TEAM-NET
 10
10.709071
 20
-236.036465
 30
727.594761
 70
    64
  0
VERTEX
  5
2A4
  8
TEAM-NET
 10
11.321863
 20
-225.0
 30
720.590513
 70
    64
  0
VERTEX
  5
2A5
  8
TEAM-NET
 10
11.848489
 20
-213.392739
 30
714.571148
 70
    64
  0
VERTEX
  5
2A6
  8
TEAM-NET
 10
12.284941
 20
-201.303021
 30
709.582479
 70
    64
  0
VERTEX
  5
2A7
  8
TEAM-NET
 10
12.627897
 20
-188.822857
 30
705.662472
 70
    64
  0
VERTEX
  5
2A8
  8
TEAM-NET
 10
12.874748
 20
-176.047227
 30
702.840961
 70
    64
  0
VERTEX
  5
2A9
  8
TEAM-NET
 10
13.023613
 20
-163.073361
 30
701.139419
 70
    64
  0
VERTEX
  5
2AA
  8
TEAM-NET
 10
13.073361
 20
-150.0
 30
700.570795
 70
    64
  0
VERTEX
  5
2AB
  8
TEAM-NET
 10
13.023613
 20
-136.926639
 30
701.139419
 70
    64
  0
VERTEX
  5
2AC
  8
TEAM-NET
 10
12.874748
 20
-123.952773
 30
702.840961
 70
    64
  0
VERTEX
  5
2AD
  8
TEAM-NET
 10
12.627897
 20
-111.177143
 30
705.662472
 70
    64
  0
VERTEX
  5
2AE
  8
TEAM-NET
 10
12.284941
 20
-98.696979
 30
709.582479
 70
    64
  0
VERTEX
  5
2AF
  8
TEAM-NET
 10
11.848489
 20
-86.607261
 30
714.571148
 70
    64
  0
VERTEX
  5
2B0
  8
TEAM-NET
 10
11.321863
 20
-75.0
 30
720.590513
 70
    64
  0
VERTEX
  5
2B1
  8
TEAM-NET
 10
10.709071
 20
-63.963535
 30
727.594761
 70
    64
  0
VERTEX
  5
2B2
  8
TEAM-NET
 10
10.014776
 20
-53.581859
 30
735.530588
 70
    64
  0
VERTEX
  5
2B3
  8
TEAM-NET
 10
9.244263
 20
-43.933983
 30
744.337596
 70
    64
  0
VERTEX
  5
2B4
  8
TEAM-NET
 10
8.403395
 20
-35.093334
 30
753.948759
 70
    64
  0
VERTEX
  5
2B5
  8
TEAM-NET
 10
7.498572
 20
-27.127193
 30
764.290929
 70
    64
  0
VERTEX
  5
2B6
  8
TEAM-NET
 10
6.536681
 20
-20.096189
 30
775.285398
 70
    64
  0
VERTEX
  5
2B7
  8
TEAM-NET
 10
5.525041
 20
-14.053832
 30
786.848489
 70
    64
  0
VERTEX
  5
2B8
  8
TEAM-NET
 10
4.471353
 20
-9.046107
 30
798.892202
 70
    64
  0
VERTEX
  5
2B9
  8
TEAM-NET
 10
3.383635
 20
-5.111126
 30
811.324876
 70
    64
  0
VERTEX
  5
2BA
  8
TEAM-NET
 10
2.270165
 20
-2.278837
 30
824.051891
 70
    64
  0
VERTEX
  5
2BB
  8
TEAM-NET
 10
1.139419
 20
-0.570795
 30
836.976387
 70
    64
  0
VERTEX
  5
2BC
  8
TEAM-NET
 10
0.0
 20
0.0
 30
850.0
 70
    64
  0
VERTEX
  5
2BD
  8
TEAM-NET
 10
0.0
 20
-300.0
 30
850.0
 70
    64
  0
VERTEX
  5
2BE
  8
TEAM-NET
 10
0.0
 20
-299.429205
 30
836.926639
 70
    64
  0
VERTEX
  5
2BF
  8
TEAM-NET
 10
0.0
 20
-297.721163
 30
823.952773
 70
    64
  0
VERTEX
  5
2C0
  8
TEAM-NET
 10
0.0
 20
-294.888874
 30
811.177143
 70
    64
  0
VERTEX
  5
2C1
  8
TEAM-NET
 10
0.0
 20
-290.953893
 30
798.696979
 70
    64
  0
VERTEX
  5
2C2
  8
TEAM-NET
 10
0.0
 20
-285.946168
 30
786.607261
 70
    64
  0
VERTEX
  5
2C3
  8
TEAM-NET
 10
0.0
 20
-279.903811
 30
775.0
 70
    64
  0
VERTEX
  5
2C4
  8
TEAM-NET
 10
0.0
 20
-272.872807
 30
763.963535
 70
    64
  0
VERTEX
  5
2C5
  8
TEAM-NET
 10
0.0
 20
-264.906666
 30
753.581859
 70
    64
  0
VERTEX
  5
2C6
  8
TEAM-NET
 10
0.0
 20
-256.066017
 30
743.933983
 70
    64
  0
VERTEX
  5
2C7
  8
TEAM-NET
 10
0.0
 20
-246.418141
 30
735.093334
 70
    64
  0
VERTEX
  5
2C8
  8
TEAM-NET
 10
0.0
 20
-236.036465
 30
727.127193
 70
    64
  0
VERTEX
  5
2C9
  8
TEAM-NET
 10
0.0
 20
-225.0
 30
720.096189
 70
    64
  0
VERTEX
  5
2CA
  8
TEAM-NET
 10
0.0
 20
-213.392739
 30
714.053832
 70
    64
  0
VERTEX
  5
2CB
  8
TEAM-NET
 10
0.0
 20
-201.303021
 30
709.046107
 70
    64
  0
VERTEX
  5
2CC
  8
TEAM-NET
 10
0.0
 20
-188.822857
 30
705.111126
 70
    64
  0
VERTEX
  5
2CD
  8
TEAM-NET
 10
0.0
 20
-176.047227
 30
702.278837
 70
    64
  0
VERTEX
  5
2CE
  8
TEAM-NET
 10
0.0
 20
-163.073361
 30
700.570795
 70
    64
  0
VERTEX
  5
2CF
  8
TEAM-NET
 10
0.0
 20
-150.0
 30
700.0
 70
    64
  0
VERTEX
  5
2D0
  8
TEAM-NET
 10
0.0
 20
-136.926639
 30
700.570795
 70
    64
  0
VERTEX
  5
2D1
  8
TEAM-NET
 10
0.0
 20
-123.952773
 30
702.278837
 70
    64
  0
VERTEX
  5
2D2
  8
TEAM-NET
 10
0.0
 20
-111.177143
 30
705.111126
 70
    64
  0
VERTEX
  5
2D3
  8
TEAM-NET
 10
0.0
 20
-98.696979
 30
709.046107
 70
    64
  0
VERTEX
  5
2D4
  8
TEAM-NET
 10
0.0
 20
-86.607261
 30
714.053832
 70
    64
  0
VERTEX
  5
2D5
  8
TEAM-NET
 10
0.0
 20
-75.0
 30
720.096189
 70
    64
  0
VERTEX
  5
2D6
  8
TEAM-NET
 10
0.0
 20
-63.963535
 30
727.127193
 70
    64
  0
VERTEX
  5
2D7
  8
TEAM-NET
 10
0.0
 20
-53.581859
 30
735.093334
 70
    64
  0
VERTEX
  5
2D8
  8
TEAM-NET
 10
0.0
 20
-43.933983
 30
743.933983
 70
    64
  0
VERTEX
  5
2D9
  8
TEAM-NET
 10
0.0
 20
-35.093334
 30
753.581859
 70
    64
  0
VERTEX
  5
2DA
  8
TEAM-NET
 10
0.0
 20
-27.127193
 30
763.963535
 70
    64
  0
VERTEX
  5
2DB
  8
TEAM-NET
 10
0.0
 20
-20.096189
 30
775.0
 70
    64
  0
VERTEX
  5
2DC
  8
TEAM-NET
 10
0.0
 20
-14.053832
 30
786.607261
 70
    64
  0
VERTEX
  5
2DD
  8
TEAM-NET
 10
0.0
 20
-9.046107
 30
798.696979
 70
    64
  0
VERTEX
  5
2DE
  8
TEAM-NET
 10
0.0
 20
-5.111126
 30
811.177143
 70
    64
  0
VERTEX
  5
2DF
  8
TEAM-NET
 10
0.0
 20
-2.278837
 30
823.952773
 70
    64
  0
VERTEX
  5
2E0
  8
TEAM-NET
 10
0.0
 20
-0.570795
 30
836.926639
 70
    64
  0
VERTEX
  5
2E1
  8
TEAM-NET
 10
0.0
 20
0.0
 30
850.0
 70
    64
  0
VERTEX
  5
2E2
  8
TEAM-NET
 10
0.0
 20
-300.0
 30
850.0
 70
    64
  0
VERTEX
  5
2E3
  8
TEAM-NET
 10
-1.139419
 20
-299.429205
 30
836.976387
 70
    64
  0
VERTEX
  5
2E4
  8
TEAM-NET
 10
-2.270165
 20
-297.721163
 30
824.051891
 70
    64
  0
VERTEX
  5
2E5
  8
TEAM-NET
 10
-3.383635
 20
-294.888874
 30
811.324876
 70
    64
  0
VERTEX
  5
2E6
  8
TEAM-NET
 10
-4.471353
 20
-290.953893
 30
798.892202
 70
    64
  0
VERTEX
  5
2E7
  8
TEAM-NET
 10
-5.525041
 20
-285.946168
 30
786.848489
 70
    64
  0
VERTEX
  5
2E8
  8
TEAM-NET
 10
-6.536681
 20
-279.903811
 30
775.285398
 70
    64
  0
VERTEX
  5
2E9
  8
TEAM-NET
 10
-7.498572
 20
-272.872807
 30
764.290929
 70
    64
  0
VERTEX
  5
2EA
  8
TEAM-NET
 10
-8.403395
 20
-264.906666
 30
753.948759
 70
    64
  0
VERTEX
  5
2EB
  8
TEAM-NET
 10
-9.244263
 20
-256.066017
 30
744.337596
 70
    64
  0
VERTEX
  5
2EC
  8
TEAM-NET
 10
-10.014776
 20
-246.418141
 30
735.530588
 70
    64
  0
VERTEX
  5
2ED
  8
TEAM-NET
 10
-10.709071
 20
-236.036465
 30
727.594761
 70
    64
  0
VERTEX
  5
2EE
  8
TEAM-NET
 10
-11.321863
 20
-225.0
 30
720.590513
 70
    64
  0
VERTEX
  5
2EF
  8
TEAM-NET
 10
-11.848489
 20
-213.392739
 30
714.571148
 70
    64
  0
VERTEX
  5
2F0
  8
TEAM-NET
 10
-12.284941
 20
-201.303021
 30
709.582479
 70
    64
  0
VERTEX
  5
2F1
  8
TEAM-NET
 10
-12.627897
 20
-188.822857
 30
705.662472
 70
    64
  0
VERTEX
  5
2F2
  8
TEAM-NET
 10
-12.874748
 20
-176.047227
 30
702.840961
 70
    64
  0
VERTEX
  5
2F3
  8
TEAM-NET
 10
-13.023613
 20
-163.073361
 30
701.139419
 70
    64
  0
VERTEX
  5
2F4
  8
TEAM-NET
 10
-13.073361
 20
-150.0
 30
700.570795
 70
    64
  0
VERTEX
  5
2F5
  8
TEAM-NET
 10
-13.023613
 20
-136.926639
 30
701.139419
 70
    64
  0
VERTEX
  5
2F6
  8
TEAM-NET
 10
-12.874748
 20
-123.952773
 30
702.840961
 70
    64
  0
VERTEX
  5
2F7
  8
TEAM-NET
 10
-12.627897
 20
-111.177143
 30
705.662472
 70
    64
  0
VERTEX
  5
2F8
  8
TEAM-NET
 10
-12.284941
 20
-98.696979
 30
709.582479
 70
    64
  0
VERTEX
  5
2F9
  8
TEAM-NET
 10
-11.848489
 20
-86.607261
 30
714.571148
 70
    64
  0
VERTEX
  5
2FA
  8
TEAM-NET
 10
-11.321863
 20
-75.0
 30
720.590513
 70
    64
  0
VERTEX
  5
2FB
  8
TEAM-NET
 10
-10.709071
 20
-63.963535
 30
727.594761
 70
    64
  0
VERTEX
  5
2FC
  8
TEAM-NET
 10
-10.014776
 20
-53.581859
 30
735.530588
 70
    64
  0
VERTEX
  5
2FD
  8
TEAM-NET
 10
-9.244263
 20
-43.933983
 30
744.337596
 70
    64
  0
VERTEX
  5
2FE
  8
TEAM-NET
 10
-8.403395
 20
-35.093334
 30
753.948759
 70
    64
  0
VERTEX
  5
2FF
  8
TEAM-NET
 10
-7.498572
 20
-27.127193
 30
764.290929
 70
    64
  0
VERTEX
  5
300
  8
TEAM-NET
 10
-6.536681
 20
-20.096189
 30
775.285398
 70
    64
  0
VERTEX
  5
301
  8
TEAM-NET
 10
-5.525041
 20
-14.053832
 30
786.848489
 70
    64
  0
VERTEX
  5
302
  8
TEAM-NET
 10
-4.471353
 20
-9.046107
 30
798.892202
 70
    64
  0
VERTEX
  5
303
  8
TEAM-NET
 10
-3.383635
 20
-5.111126
 30
811.324876
 70
    64
  0
VERTEX
  5
304
  8
TEAM-NET
 10
-2.270165
 20
-2.278837
 30
824.051891
 70
    64
  0
VERTEX
  5
305
  8
TEAM-NET
 10
-1.139419
 20
-0.570795
 30
836.976387
 70
    64
  0
VERTEX
  5
306
  8
TEAM-NET
 10
0.0
 20
0.0
 30
850.0
 70
    64
  0
VERTEX
  5
307
  8
TEAM-NET
 10
0.0
 20
-300.0
 30
850.0
 70
    64
  0
VERTEX
  5
308
  8
TEAM-NET
 10
-2.270165
 20
-299.429205
 30
837.125252
 70
    64
  0
VERTEX
  5
309
  8
TEAM-NET
 10
-4.523053
 20
-297.721163
 30
824.348489
 70
    64
  0
VERTEX
  5
30A
  8
TEAM-NET
 10
-6.741518
 20
-294.888874
 30
811.76695
 70
    64
  0
VERTEX
  5
30B
  8
TEAM-NET
 10
-8.908676
 20
-290.953893
 30
799.476387
 70
    64
  0
VERTEX
  5
30C
  8
TEAM-NET
 10
-11.008034
 20
-285.946168
 30
787.570339
 70
    64
  0
VERTEX
  5
30D
  8
TEAM-NET
 10
-13.023613
 20
-279.903811
 30
776.139419
 70
    64
  0
VERTEX
  5
30E
  8
TEAM-NET
 10
-14.940075
 20
-272.872807
 30
765.270622
 70
    64
  0
VERTEX
  5
30F
  8
TEAM-NET
 10
-16.742835
 20
-264.906666
 30
755.046667
 70
    64
  0
VERTEX
  5
310
  8
TEAM-NET
 10
-18.418171
 20
-256.066017
 30
745.545364
 70
    64
  0
VERTEX
  5
311
  8
TEAM-NET
 10
-19.953333
 20
-246.418141
 30
736.839024
 70
    64
  0
VERTEX
  5
312
  8
TEAM-NET
 10
-21.336639
 20
-236.036465
 30
728.993907
 70
    64
  0
VERTEX
  5
313
  8
TEAM-NET
 10
-22.55756
 20
-225.0
 30
722.06972
 70
    64
  0
VERTEX
  5
314
  8
TEAM-NET
 10
-23.606804
 20
-213.392739
 30
716.11916
 70
    64
  0
VERTEX
  5
315
  8
TEAM-NET
 10
-24.476387
 20
-201.303021
 30
711.187513
 70
    64
  0
VERTEX
  5
316
  8
TEAM-NET
 10
-25.159689
 20
-188.822857
 30
707.312314
 70
    64
  0
VERTEX
  5
317
  8
TEAM-NET
 10
-25.651511
 20
-176.047227
 30
704.523053
 70
    64
  0
VERTEX
  5
318
  8
TEAM-NET
 10
-25.948109
 20
-163.073361
 30
702.840961
 70
    64
  0
VERTEX
  5
319
  8
TEAM-NET
 10
-26.047227
 20
-150.0
 30
702.278837
 70
    64
  0
VERTEX
  5
31A
  8
TEAM-NET
 10
-25.948109
 20
-136.926639
 30
702.840961
 70
    64
  0
VERTEX
  5
31B
  8
TEAM-NET
 10
-25.651511
 20
-123.952773
 30
704.523053
 70
    64
  0
VERTEX
  5
31C
  8
TEAM-NET
 10
-25.159689
 20
-111.177143
 30
707.312314
 70
    64
  0
VERTEX
  5
31D
  8
TEAM-NET
 10
-24.476387
 20
-98.696979
 30
711.187513
 70
    64
  0
VERTEX
  5
31E
  8
TEAM-NET
 10
-23.606804
 20
-86.607261
 30
716.11916
 70
    64
  0
VERTEX
  5
31F
  8
TEAM-NET
 10
-22.55756
 20
-75.0
 30
722.06972
 70
    64
  0
VERTEX
  5
320
  8
TEAM-NET
 10
-21.336639
 20
-63.963535
 30
728.993907
 70
    64
  0
VERTEX
  5
321
  8
TEAM-NET
 10
-19.953333
 20
-53.581859
 30
736.839024
 70
    64
  0
VERTEX
  5
322
  8
TEAM-NET
 10
-18.418171
 20
-43.933983
 30
745.545364
 70
    64
  0
VERTEX
  5
323
  8
TEAM-NET
 10
-16.742835
 20
-35.093334
 30
755.046667
 70
    64
  0
VERTEX
  5
324
  8
TEAM-NET
 10
-14.940075
 20
-27.127193
 30
765.270622
 70
    64
  0
VERTEX
  5
325
  8
TEAM-NET
 10
-13.023613
 20
-20.096189
 30
776.139419
 70
    64
  0
VERTEX
  5
326
  8
TEAM-NET
 10
-11.008034
 20
-14.053832
 30
787.570339
 70
    64
  0
VERTEX
  5
327
  8
TEAM-NET
 10
-8.908676
 20
-9.046107
 30
799.476387
 70
    64
  0
VERTEX
  5
328
  8
TEAM-NET
 10
-6.741518
 20
-5.111126
 30
811.76695
 70
    64
  0
VERTEX
  5
329
  8
TEAM-NET
 10
-4.523053
 20
-2.278837
 30
824.348489
 70
    64
  0
VERTEX
  5
32A
  8
TEAM-NET
 10
-2.270165
 20
-0.570795
 30
837.125252
 70
    64
  0
VERTEX
  5
32B
  8
TEAM-NET
 10
0.0
 20
0.0
 30
850.0
 70
    64
  0
VERTEX
  5
32C
  8
TEAM-NET
 10
0.0
 20
-300.0
 30
850.0
 70
    64
  0
VERTEX
  5
32D
  8
TEAM-NET
 10
-3.383635
 20
-299.429205
 30
837.372103
 70
    64
  0
VERTEX
  5
32E
  8
TEAM-NET
 10
-6.741518
 20
-297.721163
 30
824.840311
 70
    64
  0
VERTEX
  5
32F
  8
TEAM-NET
 10
-10.048095
 20
-294.888874
 30
812.5
 70
    64
  0
VERTEX
  5
330
  8
TEAM-NET
 10
-13.278199
 20
-290.953893
 30
800.445087
 70
    64
  0
VERTEX
  5
331
  8
TEAM-NET
 10
-16.407248
 20
-285.946168
 30
788.767316
 70
    64
  0
VERTEX
  5
332
  8
TEAM-NET
 10
-19.411428
 20
-279.903811
 30
777.555563
 70
    64
  0
VERTEX
  5
333
  8
TEAM-NET
 10
-22.267876
 20
-272.872807
 30
766.895156
 70
    64
  0
VERTEX
  5
334
  8
TEAM-NET
 10
-24.954851
 20
-264.906666
 30
756.867227
 70
    64
  0
VERTEX
  5
335
  8
TEAM-NET
 10
-27.451905
 20
-256.066017
 30
747.548095
 70
    64
  0
VERTEX
  5
336
  8
TEAM-NET
 10
-29.740034
 20
-246.418141
 30
739.008683
 70
    64
  0
VERTEX
  5
337
  8
TEAM-NET
 10
-31.801822
 20
-236.036465
 30
731.313983
 70
    64
  0
VERTEX
  5
338
  8
TEAM-NET
 10
-33.62158
 20
-225.0
 30
724.522554
 70
    64
  0
VERTEX
  5
339
  8
TEAM-NET
 10
-35.185457
 20
-213.392739
 30
718.686085
 70
    64
  0
VERTEX
  5
33A
  8
TEAM-NET
 10
-36.481552
 20
-201.303021
 30
713.848994
 70
    64
  0
VERTEX
  5
33B
  8
TEAM-NET
 10
-37.5
 20
-188.822857
 30
710.048095
 70
    64
  0
VERTEX
  5
33C
  8
TEAM-NET
 10
-38.23305
 20
-176.047227
 30
707.312314
 70
    64
  0
VERTEX
  5
33D
  8
TEAM-NET
 10
-38.675124
 20
-163.073361
 30
705.662472
 70
    64
  0
VERTEX
  5
33E
  8
TEAM-NET
 10
-38.822857
 20
-150.0
 30
705.111126
 70
    64
  0
VERTEX
  5
33F
  8
TEAM-NET
 10
-38.675124
 20
-136.926639
 30
705.662472
 70
    64
  0
VERTEX
  5
340
  8
TEAM-NET
 10
-38.23305
 20
-123.952773
 30
707.312314
 70
    64
  0
VERTEX
  5
341
  8
TEAM-NET
 10
-37.5
 20
-111.177143
 30
710.048095
 70
    64
  0
VERTEX
  5
342
  8
TEAM-NET
 10
-36.481552
 20
-98.696979
 30
713.848994
 70
    64
  0
VERTEX
  5
343
  8
TEAM-NET
 10
-35.185457
 20
-86.607261
 30
718.686085
 70
    64
  0
VERTEX
  5
344
  8
TEAM-NET
 10
-33.62158
 20
-75.0
 30
724.522554
 70
    64
  0
VERTEX
  5
345
  8
TEAM-NET
 10
-31.801822
 20
-63.963535
 30
731.313983
 70
    64
  0
VERTEX
  5
346
  8
TEAM-NET
 10
-29.740034
 20
-53.581859
 30
739.008683
 70
    64
  0
VERTEX
  5
347
  8
TEAM-NET
 10
-27.451905
 20
-43.933983
 30
747.548095
 70
    64
  0
VERTEX
  5
348
  8
TEAM-NET
 10
-24.954851
 20
-35.093334
 30
756.867227
 70
    64
  0
VERTEX
  5
349
  8
TEAM-NET
 10
-22.267876
 20
-27.127193
 30
766.895156
 70
    64
  0
VERTEX
  5
34A
  8
TEAM-NET
 10
-19.411428
 20
-20.096189
 30
777.555563
 70
    64
  0
VERTEX
  5
34B
  8
TEAM-NET
 10
-16.407248
 20
-14.053832
 30
788.767316
 70
    64
  0
VERTEX
  5
34C
  8
TEAM-NET
 10
-13.278199
 20
-9.046107
 30
800.445087
 70
    64
  0
VERTEX
  5
34D
  8
TEAM-NET
 10
-10.048095
 20
-5.111126
 30
812.5
 70
    64
  0
VERTEX
  5
34E
  8
TEAM-NET
 10
-6.741518
 20
-2.278837
 30
824.840311
 70
    64
  0
VERTEX
  5
34F
  8
TEAM-NET
 10
-3.383635
 20
-0.570795
 30
837.372103
 70
    64
  0
VERTEX
  5
350
  8
TEAM-NET
 10
0.0
 20
0.0
 30
850.0
 70
    64
  0
VERTEX
  5
351
  8
TEAM-NET
 10
0.0
 20
-300.0
 30
850.0
 70
    64
  0
VERTEX
  5
352
  8
TEAM-NET
 10
-4.471353
 20
-299.429205
 30
837.715059
 70
    64
  0
VERTEX
  5
353
  8
TEAM-NET
 10
-8.908676
 20
-297.721163
 30
825.523613
 70
    64
  0
VERTEX
  5
354
  8
TEAM-NET
 10
-13.278199
 20
-294.888874
 30
813.518448
 70
    64
  0
VERTEX
  5
355
  8
TEAM-NET
 10
-17.546667
 20
-290.953893
 30
801.790929
 70
    64
  0
VERTEX
  5
356
  8
TEAM-NET
 10
-21.681594
 20
-285.946168
 30
790.430311
 70
    64
  0
VERTEX
  5
357
  8
TEAM-NET
 10
-25.651511
 20
-279.903811
 30
779.523053
 70
    64
  0
VERTEX
  5
358
  8
TEAM-NET
 10
-29.426204
 20
-272.872807
 30
769.152168
 70
    64
  0
VERTEX
  5
359
  8
TEAM-NET
 10
-32.976947
 20
-264.906666
 30
759.396584
 70
    64
  0
VERTEX
  5
35A
  8
TEAM-NET
 10
-36.276714
 20
-256.066017
 30
750.330546
 70
    64
  0
VERTEX
  5
35B
  8
TEAM-NET
 10
-39.300395
 20
-246.418141
 30
742.023053
 70
    64
  0
VERTEX
  5
35C
  8
TEAM-NET
 10
-42.024975
 20
-236.036465
 30
734.53733
 70
    64
  0
VERTEX
  5
35D
  8
TEAM-NET
 10
-44.42972
 20
-225.0
 30
727.930348
 70
    64
  0
VERTEX
  5
35E
  8
TEAM-NET
 10
-46.496328
 20
-213.392739
 30
722.252389
 70
    64
  0
VERTEX
  5
35F
  8
TEAM-NET
 10
-48.209071
 20
-201.303021
 30
717.546667
 70
    64
  0
VERTEX
  5
360
  8
TEAM-NET
 10
-49.554913
 20
-188.822857
 30
713.848994
 70
    64
  0
VERTEX
  5
361
  8
TEAM-NET
 10
-50.523613
 20
-176.047227
 30
711.187513
 70
    64
  0
VERTEX
  5
362
  8
TEAM-NET
 10
-51.107798
 20
-163.073361
 30
709.582479
 70
    64
  0
VERTEX
  5
363
  8
TEAM-NET
 10
-51.303021
 20
-150.0
 30
709.046107
 70
    64
  0
VERTEX
  5
364
  8
TEAM-NET
 10
-51.107798
 20
-136.926639
 30
709.582479
 70
    64
  0
VERTEX
  5
365
  8
TEAM-NET
 10
-50.523613
 20
-123.952773
 30
711.187513
 70
    64
  0
VERTEX
  5
366
  8
TEAM-NET
 10
-49.554913
 20
-111.177143
 30
713.848994
 70
    64
  0
VERTEX
  5
367
  8
TEAM-NET
 10
-48.209071
 20
-98.696979
 30
717.546667
 70
    64
  0
VERTEX
  5
368
  8
TEAM-NET
 10
-46.496328
 20
-86.607261
 30
722.252389
 70
    64
  0
VERTEX
  5
369
  8
TEAM-NET
 10
-44.42972
 20
-75.0
 30
727.930348
 70
    64
  0
VERTEX
  5
36A
  8
TEAM-NET
 10
-42.024975
 20
-63.963535
 30
734.53733
 70
    64
  0
VERTEX
  5
36B
  8
TEAM-NET
 10
-39.300395
 20
-53.581859
 30
742.023053
 70
    64
  0
VERTEX
  5
36C
  8
TEAM-NET
 10
-36.276714
 20
-43.933983
 30
750.330546
 70
    64
  0
VERTEX
  5
36D
  8
TEAM-NET
 10
-32.976947
 20
-35.093334
 30
759.396584
 70
    64
  0
VERTEX
  5
36E
  8
TEAM-NET
 10
-29.426204
 20
-27.127193
 30
769.152168
 70
    64
  0
VERTEX
  5
36F
  8
TEAM-NET
 10
-25.651511
 20
-20.096189
 30
779.523053
 70
    64
  0
VERTEX
  5
370
  8
TEAM-NET
 10
-21.681594
 20
-14.053832
 30
790.430311
 70
    64
  0
VERTEX
  5
371
  8
TEAM-NET
 10
-17.546667
 20
-9.046107
 30
801.790929
 70
    64
  0
VERTEX
  5
372
  8
TEAM-NET
 10
-13.278199
 20
-5.111126
 30
813.518448
 70
    64
  0
VERTEX
  5
373
  8
TEAM-NET
 10
-8.908676
 20
-2.278837
 30
825.523613
 70
    64
  0
VERTEX
  5
374
  8
TEAM-NET
 10
-4.471353
 20
-0.570795
 30
837.715059
 70
    64
  0
VERTEX
  5
375
  8
TEAM-NET
 10
0.0
 20
0.0
 30
850.0
 70
    64
  0
VERTEX
  5
376
  8
TEAM-NET
 10
0.0
 20
-300.0
 30
850.0
 70
    64
  0
VERTEX
  5
377
  8
TEAM-NET
 10
-5.525041
 20
-299.429205
 30
838.151511
 70
    64
  0
VERTEX
  5
378
  8
TEAM-NET
 10
-11.008034
 20
-297.721163
 30
826.393196
 70
    64
  0
VERTEX
  5
379
  8
TEAM-NET
 10
-16.407248
 20
-294.888874
 30
814.814543
 70
    64
  0
VERTEX
  5
37A
  8
TEAM-NET
 10
-21.681594
 20
-290.953893
 30
803.503672
 70
    64
  0
VERTEX
  5
37B
  8
TEAM-NET
 10
-26.790929
 20
-285.946168
 30
792.546667
 70
    64
  0
VERTEX
  5
37C
  8
TEAM-NET
 10
-31.69637
 20
-279.903811
 30
782.026916
 70
    64
  0
VERTEX
  5
37D
  8
TEAM-NET
 10
-36.360581
 20
-272.872807
 30
772.024481
 70
    64
  0
VERTEX
  5
37E
  8
TEAM-NET
 10
-40.748067
 20
-264.906666
 30
762.615488
 70
    64
  0
VERTEX
  5
37F
  8
TEAM-NET
 10
-44.825436
 20
-256.066017
 30
753.871543
 70
    64
  0
VERTEX
  5
380
  8
TEAM-NET
 10
-48.561656
 20
-246.418141
 30
745.859193
 70
    64
  0
VERTEX
  5
381
  8
TEAM-NET
 10
-51.928292
 20
-236.036465
 30
738.639419
 70
    64
  0
VERTEX
  5
382
  8
TEAM-NET
 10
-54.899723
 20
-225.0
 30
732.267165
 70
    64
  0
VERTEX
  5
383
  8
TEAM-NET
 10
-57.453333
 20
-213.392739
 30
726.790929
 70
    64
  0
VERTEX
  5
384
  8
TEAM-NET
 10
-59.569689
 20
-201.303021
 30
722.252389
 70
    64
  0
VERTEX
  5
385
  8
TEAM-NET
 10
-61.232684
 20
-188.822857
 30
718.686085
 70
    64
  0
VERTEX
  5
386
  8
TEAM-NET
 10
-62.429661
 20
-176.047227
 30
716.11916
 70
    64
  0
VERTEX
  5
387
  8
TEAM-NET
 10
-63.151511
 20
-163.073361
 30
714.571148
 70
    64
  0
VERTEX
  5
388
  8
TEAM-NET
 10
-63.392739
 20
-150.0
 30
714.053832
 70
    64
  0
VERTEX
  5
389
  8
TEAM-NET
 10
-63.151511
 20
-136.926639
 30
714.571148
 70
    64
  0
VERTEX
  5
38A
  8
TEAM-NET
 10
-62.429661
 20
-123.952773
 30
716.11916
 70
    64
  0
VERTEX
  5
38B
  8
TEAM-NET
 10
-61.232684
 20
-111.177143
 30
718.686085
 70
    64
  0
VERTEX
  5
38C
  8
TEAM-NET
 10
-59.569689
 20
-98.696979
 30
722.252389
 70
    64
  0
VERTEX
  5
38D
  8
TEAM-NET
 10
-57.453333
 20
-86.607261
 30
726.790929
 70
    64
  0
VERTEX
  5
38E
  8
TEAM-NET
 10
-54.899723
 20
-75.0
 30
732.267165
 70
    64
  0
VERTEX
  5
38F
  8
TEAM-NET
 10
-51.928292
 20
-63.963535
 30
738.639419
 70
    64
  0
VERTEX
  5
390
  8
TEAM-NET
 10
-48.561656
 20
-53.581859
 30
745.859193
 70
    64
  0
VERTEX
  5
391
  8
TEAM-NET
 10
-44.825436
 20
-43.933983
 30
753.871543
 70
    64
  0
VERTEX
  5
392
  8
TEAM-NET
 10
-40.748067
 20
-35.093334
 30
762.615488
 70
    64
  0
VERTEX
  5
393
  8
TEAM-NET
 10
-36.360581
 20
-27.127193
 30
772.024481
 70
    64
  0
VERTEX
  5
394
  8
TEAM-NET
 10
-31.69637
 20
-20.096189
 30
782.026916
 70
    64
  0
VERTEX
  5
395
  8
TEAM-NET
 10
-26.790929
 20
-14.053832
 30
792.546667
 70
    64
  0
VERTEX
  5
396
  8
TEAM-NET
 10
-21.681594
 20
-9.046107
 30
803.503672
 70
    64
  0
VERTEX
  5
397
  8
TEAM-NET
 10
-16.407248
 20
-5.111126
 30
814.814543
 70
    64
  0
VERTEX
  5
398
  8
TEAM-NET
 10
-11.008034
 20
-2.278837
 30
826.393196
 70
    64
  0
VERTEX
  5
399
  8
TEAM-NET
 10
-5.525041
 20
-0.570795
 30
838.151511
 70
    64
  0
VERTEX
  5
39A
  8
TEAM-NET
 10
0.0
 20
0.0
 30
850.0
 70
    64
  0
VERTEX
  5
39B
  8
TEAM-NET
 10
0.0
 20
-300.0
 30
850.0
 70
    64
  0
VERTEX
  5
39C
  8
TEAM-NET
 10
-6.536681
 20
-299.429205
 30
838.678137
 70
    64
  0
VERTEX
  5
39D
  8
TEAM-NET
 10
-13.023613
 20
-297.721163
 30
827.44244
 70
    64
  0
VERTEX
  5
39E
  8
TEAM-NET
 10
-19.411428
 20
-294.888874
 30
816.37842
 70
    64
  0
VERTEX
  5
39F
  8
TEAM-NET
 10
-25.651511
 20
-290.953893
 30
805.57028
 70
    64
  0
VERTEX
  5
3A0
  8
TEAM-NET
 10
-31.69637
 20
-285.946168
 30
795.100277
 70
    64
  0
VERTEX
  5
3A1
  8
TEAM-NET
 10
-37.5
 20
-279.903811
 30
785.048095
 70
    64
  0
VERTEX
  5
3A2
  8
TEAM-NET
 10
-43.018233
 20
-272.872807
 30
775.490235
 70
    64
  0
VERTEX
  5
3A3
  8
TEAM-NET
 10
-48.209071
 20
-264.906666
 30
766.49944
 70
    64
  0
VERTEX
  5
3A4
  8
TEAM-NET
 10
-53.033009
 20
-256.066017
 30
758.144135
 70
    64
  0
VERTEX
  5
3A5
  8
TEAM-NET
 10
-57.453333
 20
-246.418141
 30
750.487908
 70
    64
  0
VERTEX
  5
3A6
  8
TEAM-NET
 10
-61.436403
 20
-236.036465
 30
743.589028
 70
    64
  0
VERTEX
  5
3A7
  8
TEAM-NET
 10
-64.951905
 20
-225.0
 30
737.5
 70
    64
  0
VERTEX
  5
3A8
  8
TEAM-NET
 10
-67.973084
 20
-213.392739
 30
732.267165
 70
    64
  0
VERTEX
  5
3A9
  8
TEAM-NET
 10
-70.476947
 20
-201.303021
 30
727.930348
 70
    64
  0
VERTEX
  5
3AA
  8
TEAM-NET
 10
-72.444437
 20
-188.822857
 30
724.522554
 70
    64
  0
VERTEX
  5
3AB
  8
TEAM-NET
 10
-73.860581
 20
-176.047227
 30
722.06972
 70
    64
  0
VERTEX
  5
3AC
  8
TEAM-NET
 10
-74.714602
 20
-163.073361
 30
720.590513
 70
    64
  0
VERTEX
  5
3AD
  8
TEAM-NET
 10
-75.0
 20
-150.0
 30
720.096189
 70
    64
  0
VERTEX
  5
3AE
  8
TEAM-NET
 10
-74.714602
 20
-136.926639
 30
720.590513
 70
    64
  0
VERTEX
  5
3AF
  8
TEAM-NET
 10
-73.860581
 20
-123.952773
 30
722.06972
 70
    64
  0
VERTEX
  5
3B0
  8
TEAM-NET
 10
-72.444437
 20
-111.177143
 30
724.522554
 70
    64
  0
VERTEX
  5
3B1
  8
TEAM-NET
 10
-70.476947
 20
-98.696979
 30
727.930348
 70
    64
  0
VERTEX
  5
3B2
  8
TEAM-NET
 10
-67.973084
 20
-86.607261
 30
732.267165
 70
    64
  0
VERTEX
  5
3B3
  8
TEAM-NET
 10
-64.951905
 20
-75.0
 30
737.5
 70
    64
  0
VERTEX
  5
3B4
  8
TEAM-NET
 10
-61.436403
 20
-63.963535
 30
743.589028
 70
    64
  0
VERTEX
  5
3B5
  8
TEAM-NET
 10
-57.453333
 20
-53.581859
 30
750.487908
 70
    64
  0
VERTEX
  5
3B6
  8
TEAM-NET
 10
-53.033009
 20
-43.933983
 30
758.144135
 70
    64
  0
VERTEX
  5
3B7
  8
TEAM-NET
 10
-48.209071
 20
-35.093334
 30
766.49944
 70
    64
  0
VERTEX
  5
3B8
  8
TEAM-NET
 10
-43.018233
 20
-27.127193
 30
775.490235
 70
    64
  0
VERTEX
  5
3B9
  8
TEAM-NET
 10
-37.5
 20
-20.096189
 30
785.048095
 70
    64
  0
VERTEX
  5
3BA
  8
TEAM-NET
 10
-31.69637
 20
-14.053832
 30
795.100277
 70
    64
  0
VERTEX
  5
3BB
  8
TEAM-NET
 10
-25.651511
 20
-9.046107
 30
805.57028
 70
    64
  0
VERTEX
  5
3BC
  8
TEAM-NET
 10
-19.411428
 20
-5.111126
 30
816.37842
 70
    64
  0
VERTEX
  5
3BD
  8
TEAM-NET
 10
-13.023613
 20
-2.278837
 30
827.44244
 70
    64
  0
VERTEX
  5
3BE
  8
TEAM-NET
 10
-6.536681
 20
-0.570795
 30
838.678137
 70
    64
  0
VERTEX
  5
3BF
  8
TEAM-NET
 10
0.0
 20
0.0
 30
850.0
 70
    64
  0
VERTEX
  5
3C0
  8
TEAM-NET
 10
0.0
 20
-300.0
 30
850.0
 70
    64
  0
VERTEX
  5
3C1
  8
TEAM-NET
 10
-7.498572
 20
-299.429205
 30
839.290929
 70
    64
  0
VERTEX
  5
3C2
  8
TEAM-NET
 10
-14.940075
 20
-297.721163
 30
828.663361
 70
    64
  0
VERTEX
  5
3C3
  8
TEAM-NET
 10
-22.267876
 20
-294.888874
 30
818.198178
 70
    64
  0
VERTEX
  5
3C4
  8
TEAM-NET
 10
-29.426204
 20
-290.953893
 30
807.975025
 70
    64
  0
VERTEX
  5
3C5
  8
TEAM-NET
 10
-36.360581
 20
-285.946168
 30
798.071708
 70
    64
  0
VERTEX
  5
3C6
  8
TEAM-NET
 10
-43.018233
 20
-279.903811
 30
788.563597
 70
    64
  0
VERTEX
  5
3C7
  8
TEAM-NET
 10
-49.348489
 20
-272.872807
 30
779.523053
 70
    64
  0
VERTEX
  5
3C8
  8
TEAM-NET
 10
-55.303174
 20
-264.906666
 30
771.018882
 70
    64
  0
VERTEX
  5
3C9
  8
TEAM-NET
 10
-60.836968
 20
-256.066017
 30
763.115805
 70
    64
  0
VERTEX
  5
3CA
  8
TEAM-NET
 10
-65.907756
 20
-246.418141
 30
755.873969
 70
    64
  0
VERTEX
  5
3CB
  8
TEAM-NET
 10
-70.476947
 20
-236.036465
 30
749.348489
 70
    64
  0
VERTEX
  5
3CC
  8
TEAM-NET
 10
-74.509765
 20
-225.0
 30
743.589028
 70
    64
  0
VERTEX
  5
3CD
  8
TEAM-NET
 10
-77.975519
 20
-213.392739
 30
738.639419
 70
    64
  0
VERTEX
  5
3CE
  8
TEAM-NET
 10
-80.847832
 20
-201.303021
 30
734.53733
 70
    64
  0
VERTEX
  5
3CF
  8
TEAM-NET
 10
-83.104844
 20
-188.822857
 30
731.313983
 70
    64
  0
VERTEX
  5
3D0
  8
TEAM-NET
 10
-84.729378
 20
-176.047227
 30
728.993907
 70
    64
  0
VERTEX
  5
3D1
  8
TEAM-NET
 10
-85.709071
 20
-163.073361
 30
727.594761
 70
    64
  0
VERTEX
  5
3D2
  8
TEAM-NET
 10
-86.036465
 20
-150.0
 30
727.127193
 70
    64
  0
VERTEX
  5
3D3
  8
TEAM-NET
 10
-85.709071
 20
-136.926639
 30
727.594761
 70
    64
  0
VERTEX
  5
3D4
  8
TEAM-NET
 10
-84.729378
 20
-123.952773
 30
728.993907
 70
    64
  0
VERTEX
  5
3D5
  8
TEAM-NET
 10
-83.104844
 20
-111.177143
 30
731.313983
 70
    64
  0
VERTEX
  5
3D6
  8
TEAM-NET
 10
-80.847832
 20
-98.696979
 30
734.53733
 70
    64
  0
VERTEX
  5
3D7
  8
TEAM-NET
 10
-77.975519
 20
-86.607261
 30
738.639419
 70
    64
  0
VERTEX
  5
3D8
  8
TEAM-NET
 10
-74.509765
 20
-75.0
 30
743.589028
 70
    64
  0
VERTEX
  5
3D9
  8
TEAM-NET
 10
-70.476947
 20
-63.963535
 30
749.348489
 70
    64
  0
VERTEX
  5
3DA
  8
TEAM-NET
 10
-65.907756
 20
-53.581859
 30
755.873969
 70
    64
  0
VERTEX
  5
3DB
  8
TEAM-NET
 10
-60.836968
 20
-43.933983
 30
763.115805
 70
    64
  0
VERTEX
  5
3DC
  8
TEAM-NET
 10
-55.303174
 20
-35.093334
 30
771.018882
 70
    64
  0
VERTEX
  5
3DD
  8
TEAM-NET
 10
-49.348489
 20
-27.127193
 30
779.523053
 70
    64
  0
VERTEX
  5
3DE
  8
TEAM-NET
 10
-43.018233
 20
-20.096189
 30
788.563597
 70
    64
  0
VERTEX
  5
3DF
  8
TEAM-NET
 10
-36.360581
 20
-14.053832
 30
798.071708
 70
    64
  0
VERTEX
  5
3E0
  8
TEAM-NET
 10
-29.426204
 20
-9.046107
 30
807.975025
 70
    64
  0
VERTEX
  5
3E1
  8
TEAM-NET
 10
-22.267876
 20
-5.111126
 30
818.198178
 70
    64
  0
VERTEX
  5
3E2
  8
TEAM-NET
 10
-14.940075
 20
-2.278837
 30
828.663361
 70
    64
  0
VERTEX
  5
3E3
  8
TEAM-NET
 10
-7.498572
 20
-0.570795
 30
839.290929
 70
    64
  0
VERTEX
  5
3E4
  8
TEAM-NET
 10
0.0
 20
0.0
 30
850.0
 70
    64
  0
VERTEX
  5
3E5
  8
TEAM-NET
 10
0.0
 20
-300.0
 30
850.0
 70
    64
  0
VERTEX
  5
3E6
  8
TEAM-NET
 10
-8.403395
 20
-299.429205
 30
839.985224
 70
    64
  0
VERTEX
  5
3E7
  8
TEAM-NET
 10
-16.742835
 20
-297.721163
 30
830.046667
 70
    64
  0
VERTEX
  5
3E8
  8
TEAM-NET
 10
-24.954851
 20
-294.888874
 30
820.259966
 70
    64
  0
VERTEX
  5
3E9
  8
TEAM-NET
 10
-32.976947
 20
-290.953893
 30
810.699605
 70
    64
  0
VERTEX
  5
3EA
  8
TEAM-NET
 10
-40.748067
 20
-285.946168
 30
801.438344
 70
    64
  0
VERTEX
  5
3EB
  8
TEAM-NET
 10
-48.209071
 20
-279.903811
 30
792.546667
 70
    64
  0
VERTEX
  5
3EC
  8
TEAM-NET
 10
-55.303174
 20
-272.872807
 30
784.092244
 70
    64
  0
VERTEX
  5
3ED
  8
TEAM-NET
 10
-61.976387
 20
-264.906666
 30
776.139419
 70
    64
  0
VERTEX
  5
3EE
  8
TEAM-NET
 10
-68.177922
 20
-256.066017
 30
768.748717
 70
    64
  0
VERTEX
  5
3EF
  8
TEAM-NET
 10
-73.860581
 20
-246.418141
 30
761.976387
 70
    64
  0
VERTEX
  5
3F0
  8
TEAM-NET
 10
-78.981118
 20
-236.036465
 30
755.873969
 70
    64
  0
VERTEX
  5
3F1
  8
TEAM-NET
 10
-83.50056
 20
-225.0
 30
750.487908
 70
    64
  0
VERTEX
  5
3F2
  8
TEAM-NET
 10
-87.384512
 20
-213.392739
 30
745.859193
 70
    64
  0
VERTEX
  5
3F3
  8
TEAM-NET
 10
-90.603416
 20
-201.303021
 30
742.023053
 70
    64
  0
VERTEX
  5
3F4
  8
TEAM-NET
 10
-93.132773
 20
-188.822857
 30
739.008683
 70
    64
  0
VERTEX
  5
3F5
  8
TEAM-NET
 10
-94.953333
 20
-176.047227
 30
736.839024
 70
    64
  0
VERTEX
  5
3F6
  8
TEAM-NET
 10
-96.051241
 20
-163.073361
 30
735.530588
 70
    64
  0
VERTEX
  5
3F7
  8
TEAM-NET
 10
-96.418141
 20
-150.0
 30
735.093334
 70
    64
  0
VERTEX
  5
3F8
  8
TEAM-NET
 10
-96.051241
 20
-136.926639
 30
735.530588
 70
    64
  0
VERTEX
  5
3F9
  8
TEAM-NET
 10
-94.953333
 20
-123.952773
 30
736.839024
 70
    64
  0
VERTEX
  5
3FA
  8
TEAM-NET
 10
-93.132773
 20
-111.177143
 30
739.008683
 70
    64
  0
VERTEX
  5
3FB
  8
TEAM-NET
 10
-90.603416
 20
-98.696979
 30
742.023053
 70
    64
  0
VERTEX
  5
3FC
  8
TEAM-NET
 10
-87.384512
 20
-86.607261
 30
745.859193
 70
    64
  0
VERTEX
  5
3FD
  8
TEAM-NET
 10
-83.50056
 20
-75.0
 30
750.487908
 70
    64
  0
VERTEX
  5
3FE
  8
TEAM-NET
 10
-78.981118
 20
-63.963535
 30
755.873969
 70
    64
  0
VERTEX
  5
3FF
  8
TEAM-NET
 10
-73.860581
 20
-53.581859
 30
761.976387
 70
    64
  0
VERTEX
  5
400
  8
TEAM-NET
 10
-68.177922
 20
-43.933983
 30
768.748717
 70
    64
  0
VERTEX
  5
401
  8
TEAM-NET
 10
-61.976387
 20
-35.093334
 30
776.139419
 70
    64
  0
VERTEX
  5
402
  8
TEAM-NET
 10
-55.303174
 20
-27.127193
 30
784.092244
 70
    64
  0
VERTEX
  5
403
  8
TEAM-NET
 10
-48.209071
 20
-20.096189
 30
792.546667
 70
    64
  0
VERTEX
  5
404
  8
TEAM-NET
 10
-40.748067
 20
-14.053832
 30
801.438344
 70
    64
  0
VERTEX
  5
405
  8
TEAM-NET
 10
-32.976947
 20
-9.046107
 30
810.699605
 70
    64
  0
VERTEX
  5
406
  8
TEAM-NET
 10
-24.954851
 20
-5.111126
 30
820.259966
 70
    64
  0
VERTEX
  5
407
  8
TEAM-NET
 10
-16.742835
 20
-2.278837
 30
830.046667
 70
    64
  0
VERTEX
  5
408
  8
TEAM-NET
 10
-8.403395
 20
-0.570795
 30
839.985224
 70
    64
  0
VERTEX
  5
409
  8
TEAM-NET
 10
0.0
 20
0.0
 30
850.0
 70
    64
  0
VERTEX
  5
40A
  8
TEAM-NET
 10
0.0
 20
-300.0
 30
850.0
 70
    64
  0
VERTEX
  5
40B
  8
TEAM-NET
 10
-9.244263
 20
-299.429205
 30
840.755737
 70
    64
  0
VERTEX
  5
40C
  8
TEAM-NET
 10
-18.418171
 20
-297.721163
 30
831.581829
 70
    64
  0
VERTEX
  5
40D
  8
TEAM-NET
 10
-27.451905
 20
-294.888874
 30
822.548095
 70
    64
  0
VERTEX
  5
40E
  8
TEAM-NET
 10
-36.276714
 20
-290.953893
 30
813.723286
 70
    64
  0
VERTEX
  5
40F
  8
TEAM-NET
 10
-44.825436
 20
-285.946168
 30
805.174564
 70
    64
  0
VERTEX
  5
410
  8
TEAM-NET
 10
-53.033009
 20
-279.903811
 30
796.966991
 70
    64
  0
VERTEX
  5
411
  8
TEAM-NET
 10
-60.836968
 20
-272.872807
 30
789.163032
 70
    64
  0
VERTEX
  5
412
  8
TEAM-NET
 10
-68.177922
 20
-264.906666
 30
781.822078
 70
    64
  0
VERTEX
  5
413
  8
TEAM-NET
 10
-75.0
 20
-256.066017
 30
775.0
 70
    64
  0
VERTEX
  5
414
  8
TEAM-NET
 10
-81.251283
 20
-246.418141
 30
768.748717
 70
    64
  0
VERTEX
  5
415
  8
TEAM-NET
 10
-86.884195
 20
-236.036465
 30
763.115805
 70
    64
  0
VERTEX
  5
416
  8
TEAM-NET
 10
-91.855865
 20
-225.0
 30
758.144135
 70
    64
  0
VERTEX
  5
417
  8
TEAM-NET
 10
-96.128457
 20
-213.392739
 30
753.871543
 70
    64
  0
VERTEX
  5
418
  8
TEAM-NET
 10
-99.669454
 20
-201.303021
 30
750.330546
 70
    64
  0
VERTEX
  5
419
  8
TEAM-NET
 10
-102.451905
 20
-188.822857
 30
747.548095
 70
    64
  0
VERTEX
  5
41A
  8
TEAM-NET
 10
-104.454636
 20
-176.047227
 30
745.545364
 70
    64
  0
VERTEX
  5
41B
  8
TEAM-NET
 10
-105.662404
 20
-163.073361
 30
744.337596
 70
    64
  0
VERTEX
  5
41C
  8
TEAM-NET
 10
-106.066017
 20
-150.0
 30
743.933983
 70
    64
  0
VERTEX
  5
41D
  8
TEAM-NET
 10
-105.662404
 20
-136.926639
 30
744.337596
 70
    64
  0
VERTEX
  5
41E
  8
TEAM-NET
 10
-104.454636
 20
-123.952773
 30
745.545364
 70
    64
  0
VERTEX
  5
41F
  8
TEAM-NET
 10
-102.451905
 20
-111.177143
 30
747.548095
 70
    64
  0
VERTEX
  5
420
  8
TEAM-NET
 10
-99.669454
 20
-98.696979
 30
750.330546
 70
    64
  0
VERTEX
  5
421
  8
TEAM-NET
 10
-96.128457
 20
-86.607261
 30
753.871543
 70
    64
  0
VERTEX
  5
422
  8
TEAM-NET
 10
-91.855865
 20
-75.0
 30
758.144135
 70
    64
  0
VERTEX
  5
423
  8
TEAM-NET
 10
-86.884195
 20
-63.963535
 30
763.115805
 70
    64
  0
VERTEX
  5
424
  8
TEAM-NET
 10
-81.251283
 20
-53.581859
 30
768.748717
 70
    64
  0
VERTEX
  5
425
  8
TEAM-NET
 10
-75.0
 20
-43.933983
 30
775.0
 70
    64
  0
VERTEX
  5
426
  8
TEAM-NET
 10
-68.177922
 20
-35.093334
 30
781.822078
 70
    64
  0
VERTEX
  5
427
  8
TEAM-NET
 10
-60.836968
 20
-27.127193
 30
789.163032
 70
    64
  0
VERTEX
  5
428
  8
TEAM-NET
 10
-53.033009
 20
-20.096189
 30
796.966991
 70
    64
  0
VERTEX
  5
429
  8
TEAM-NET
 10
-44.825436
 20
-14.053832
 30
805.174564
 70
    64
  0
VERTEX
  5
42A
  8
TEAM-NET
 10
-36.276714
 20
-9.046107
 30
813.723286
 70
    64
  0
VERTEX
  5
42B
  8
TEAM-NET
 10
-27.451905
 20
-5.111126
 30
822.548095
 70
    64
  0
VERTEX
  5
42C
  8
TEAM-NET
 10
-18.418171
 20
-2.278837
 30
831.581829
 70
    64
  0
VERTEX
  5
42D
  8
TEAM-NET
 10
-9.244263
 20
-0.570795
 30
840.755737
 70
    64
  0
VERTEX
  5
42E
  8
TEAM-NET
 10
0.0
 20
0.0
 30
850.0
 70
    64
  0
VERTEX
  5
42F
  8
TEAM-NET
 10
0.0
 20
-300.0
 30
850.0
 70
    64
  0
VERTEX
  5
430
  8
TEAM-NET
 10
-10.014776
 20
-299.429205
 30
841.596605
 70
    64
  0
VERTEX
  5
431
  8
TEAM-NET
 10
-19.953333
 20
-297.721163
 30
833.257165
 70
    64
  0
VERTEX
  5
432
  8
TEAM-NET
 10
-29.740034
 20
-294.888874
 30
825.045149
 70
    64
  0
VERTEX
  5
433
  8
TEAM-NET
 10
-39.300395
 20
-290.953893
 30
817.023053
 70
    64
  0
VERTEX
  5
434
  8
TEAM-NET
 10
-48.561656
 20
-285.946168
 30
809.251933
 70
    64
  0
VERTEX
  5
435
  8
TEAM-NET
 10
-57.453333
 20
-279.903811
 30
801.790929
 70
    64
  0
VERTEX
  5
436
  8
TEAM-NET
 10
-65.907756
 20
-272.872807
 30
794.696826
 70
    64
  0
VERTEX
  5
437
  8
TEAM-NET
 10
-73.860581
 20
-264.906666
 30
788.023613
 70
    64
  0
VERTEX
  5
438
  8
TEAM-NET
 10
-81.251283
 20
-256.066017
 30
781.822078
 70
    64
  0
VERTEX
  5
439
  8
TEAM-NET
 10
-88.023613
 20
-246.418141
 30
776.139419
 70
    64
  0
VERTEX
  5
43A
  8
TEAM-NET
 10
-94.126031
 20
-236.036465
 30
771.018882
 70
    64
  0
VERTEX
  5
43B
  8
TEAM-NET
 10
-99.512092
 20
-225.0
 30
766.49944
 70
    64
  0
VERTEX
  5
43C
  8
TEAM-NET
 10
-104.140807
 20
-213.392739
 30
762.615488
 70
    64
  0
VERTEX
  5
43D
  8
TEAM-NET
 10
-107.976947
 20
-201.303021
 30
759.396584
 70
    64
  0
VERTEX
  5
43E
  8
TEAM-NET
 10
-110.991317
 20
-188.822857
 30
756.867227
 70
    64
  0
VERTEX
  5
43F
  8
TEAM-NET
 10
-113.160976
 20
-176.047227
 30
755.046667
 70
    64
  0
VERTEX
  5
440
  8
TEAM-NET
 10
-114.469412
 20
-163.073361
 30
753.948759
 70
    64
  0
VERTEX
  5
441
  8
TEAM-NET
 10
-114.906666
 20
-150.0
 30
753.581859
 70
    64
  0
VERTEX
  5
442
  8
TEAM-NET
 10
-114.469412
 20
-136.926639
 30
753.948759
 70
    64
  0
VERTEX
  5
443
  8
TEAM-NET
 10
-113.160976
 20
-123.952773
 30
755.046667
 70
    64
  0
VERTEX
  5
444
  8
TEAM-NET
 10
-110.991317
 20
-111.177143
 30
756.867227
 70
    64
  0
VERTEX
  5
445
  8
TEAM-NET
 10
-107.976947
 20
-98.696979
 30
759.396584
 70
    64
  0
VERTEX
  5
446
  8
TEAM-NET
 10
-104.140807
 20
-86.607261
 30
762.615488
 70
    64
  0
VERTEX
  5
447
  8
TEAM-NET
 10
-99.512092
 20
-75.0
 30
766.49944
 70
    64
  0
VERTEX
  5
448
  8
TEAM-NET
 10
-94.126031
 20
-63.963535
 30
771.018882
 70
    64
  0
VERTEX
  5
449
  8
TEAM-NET
 10
-88.023613
 20
-53.581859
 30
776.139419
 70
    64
  0
VERTEX
  5
44A
  8
TEAM-NET
 10
-81.251283
 20
-43.933983
 30
781.822078
 70
    64
  0
VERTEX
  5
44B
  8
TEAM-NET
 10
-73.860581
 20
-35.093334
 30
788.023613
 70
    64
  0
VERTEX
  5
44C
  8
TEAM-NET
 10
-65.907756
 20
-27.127193
 30
794.696826
 70
    64
  0
VERTEX
  5
44D
  8
TEAM-NET
 10
-57.453333
 20
-20.096189
 30
801.790929
 70
    64
  0
VERTEX
  5
44E
  8
TEAM-NET
 10
-48.561656
 20
-14.053832
 30
809.251933
 70
    64
  0
VERTEX
  5
44F
  8
TEAM-NET
 10
-39.300395
 20
-9.046107
 30
817.023053
 70
    64
  0
VERTEX
  5
450
  8
TEAM-NET
 10
-29.740034
 20
-5.111126
 30
825.045149
 70
    64
  0
VERTEX
  5
451
  8
TEAM-NET
 10
-19.953333
 20
-2.278837
 30
833.257165
 70
    64
  0
VERTEX
  5
452
  8
TEAM-NET
 10
-10.014776
 20
-0.570795
 30
841.596605
 70
    64
  0
VERTEX
  5
453
  8
TEAM-NET
 10
0.0
 20
0.0
 30
850.0
 70
    64
  0
VERTEX
  5
454
  8
TEAM-NET
 10
0.0
 20
-300.0
 30
850.0
 70
    64
  0
VERTEX
  5
455
  8
TEAM-NET
 10
-10.709071
 20
-299.429205
 30
842.501428
 70
    64
  0
VERTEX
  5
456
  8
TEAM-NET
 10
-21.336639
 20
-297.721163
 30
835.059925
 70
    64
  0
VERTEX
  5
457
  8
TEAM-NET
 10
-31.801822
 20
-294.888874
 30
827.732124
 70
    64
  0
VERTEX
  5
458
  8
TEAM-NET
 10
-42.024975
 20
-290.953893
 30
820.573796
 70
    64
  0
VERTEX
  5
459
  8
TEAM-NET
 10
-51.928292
 20
-285.946168
 30
813.639419
 70
    64
  0
VERTEX
  5
45A
  8
TEAM-NET
 10
-61.436403
 20
-279.903811
 30
806.981767
 70
    64
  0
VERTEX
  5
45B
  8
TEAM-NET
 10
-70.476947
 20
-272.872807
 30
800.651511
 70
    64
  0
VERTEX
  5
45C
  8
TEAM-NET
 10
-78.981118
 20
-264.906666
 30
794.696826
 70
    64
  0
VERTEX
  5
45D
  8
TEAM-NET
 10
-86.884195
 20
-256.066017
 30
789.163032
 70
    64
  0
VERTEX
  5
45E
  8
TEAM-NET
 10
-94.126031
 20
-246.418141
 30
784.092244
 70
    64
  0
VERTEX
  5
45F
  8
TEAM-NET
 10
-100.651511
 20
-236.036465
 30
779.523053
 70
    64
  0
VERTEX
  5
460
  8
TEAM-NET
 10
-106.410972
 20
-225.0
 30
775.490235
 70
    64
  0
VERTEX
  5
461
  8
TEAM-NET
 10
-111.360581
 20
-213.392739
 30
772.024481
 70
    64
  0
VERTEX
  5
462
  8
TEAM-NET
 10
-115.46267
 20
-201.303021
 30
769.152168
 70
    64
  0
VERTEX
  5
463
  8
TEAM-NET
 10
-118.686017
 20
-188.822857
 30
766.895156
 70
    64
  0
VERTEX
  5
464
  8
TEAM-NET
 10
-121.006093
 20
-176.047227
 30
765.270622
 70
    64
  0
VERTEX
  5
465
  8
TEAM-NET
 10
-122.405239
 20
-163.073361
 30
764.290929
 70
    64
  0
VERTEX
  5
466
  8
TEAM-NET
 10
-122.872807
 20
-150.0
 30
763.963535
 70
    64
  0
VERTEX
  5
467
  8
TEAM-NET
 10
-122.405239
 20
-136.926639
 30
764.290929
 70
    64
  0
VERTEX
  5
468
  8
TEAM-NET
 10
-121.006093
 20
-123.952773
 30
765.270622
 70
    64
  0
VERTEX
  5
469
  8
TEAM-NET
 10
-118.686017
 20
-111.177143
 30
766.895156
 70
    64
  0
VERTEX
  5
46A
  8
TEAM-NET
 10
-115.46267
 20
-98.696979
 30
769.152168
 70
    64
  0
VERTEX
  5
46B
  8
TEAM-NET
 10
-111.360581
 20
-86.607261
 30
772.024481
 70
    64
  0
VERTEX
  5
46C
  8
TEAM-NET
 10
-106.410972
 20
-75.0
 30
775.490235
 70
    64
  0
VERTEX
  5
46D
  8
TEAM-NET
 10
-100.651511
 20
-63.963535
 30
779.523053
 70
    64
  0
VERTEX
  5
46E
  8
TEAM-NET
 10
-94.126031
 20
-53.581859
 30
784.092244
 70
    64
  0
VERTEX
  5
46F
  8
TEAM-NET
 10
-86.884195
 20
-43.933983
 30
789.163032
 70
    64
  0
VERTEX
  5
470
  8
TEAM-NET
 10
-78.981118
 20
-35.093334
 30
794.696826
 70
    64
  0
VERTEX
  5
471
  8
TEAM-NET
 10
-70.476947
 20
-27.127193
 30
800.651511
 70
    64
  0
VERTEX
  5
472
  8
TEAM-NET
 10
-61.436403
 20
-20.096189
 30
806.981767
 70
    64
  0
VERTEX
  5
473
  8
TEAM-NET
 10
-51.928292
 20
-14.053832
 30
813.639419
 70
    64
  0
VERTEX
  5
474
  8
TEAM-NET
 10
-42.024975
 20
-9.046107
 30
820.573796
 70
    64
  0
VERTEX
  5
475
  8
TEAM-NET
 10
-31.801822
 20
-5.111126
 30
827.732124
 70
    64
  0
VERTEX
  5
476
  8
TEAM-NET
 10
-21.336639
 20
-2.278837
 30
835.059925
 70
    64
  0
VERTEX
  5
477
  8
TEAM-NET
 10
-10.709071
 20
-0.570795
 30
842.501428
 70
    64
  0
VERTEX
  5
478
  8
TEAM-NET
 10
0.0
 20
0.0
 30
850.0
 70
    64
  0
VERTEX
  5
479
  8
TEAM-NET
 10
0.0
 20
-300.0
 30
850.0
 70
    64
  0
VERTEX
  5
47A
  8
TEAM-NET
 10
-11.321863
 20
-299.429205
 30
843.463319
 70
    64
  0
VERTEX
  5
47B
  8
TEAM-NET
 10
-22.55756
 20
-297.721163
 30
836.976387
 70
    64
  0
VERTEX
  5
47C
  8
TEAM-NET
 10
-33.62158
 20
-294.888874
 30
830.588572
 70
    64
  0
VERTEX
  5
47D
  8
TEAM-NET
 10
-44.42972
 20
-290.953893
 30
824.348489
 70
    64
  0
VERTEX
  5
47E
  8
TEAM-NET
 10
-54.899723
 20
-285.946168
 30
818.30363
 70
    64
  0
VERTEX
  5
47F
  8
TEAM-NET
 10
-64.951905
 20
-279.903811
 30
812.5
 70
    64
  0
VERTEX
  5
480
  8
TEAM-NET
 10
-74.509765
 20
-272.872807
 30
806.981767
 70
    64
  0
VERTEX
  5
481
  8
TEAM-NET
 10
-83.50056
 20
-264.906666
 30
801.790929
 70
    64
  0
VERTEX
  5
482
  8
TEAM-NET
 10
-91.855865
 20
-256.066017
 30
796.966991
 70
    64
  0
VERTEX
  5
483
  8
TEAM-NET
 10
-99.512092
 20
-246.418141
 30
792.546667
 70
    64
  0
VERTEX
  5
484
  8
TEAM-NET
 10
-106.410972
 20
-236.036465
 30
788.563597
 70
    64
  0
VERTEX
  5
485
  8
TEAM-NET
 10
-112.5
 20
-225.0
 30
785.048095
 70
    64
  0
VERTEX
  5
486
  8
TEAM-NET
 10
-117.732835
 20
-213.392739
 30
782.026916
 70
    64
  0
VERTEX
  5
487
  8
TEAM-NET
 10
-122.069652
 20
-201.303021
 30
779.523053
 70
    64
  0
VERTEX
  5
488
  8
TEAM-NET
 10
-125.477446
 20
-188.822857
 30
777.555563
 70
    64
  0
VERTEX
  5
489
  8
TEAM-NET
 10
-127.93028
 20
-176.047227
 30
776.139419
 70
    64
  0
VERTEX
  5
48A
  8
TEAM-NET
 10
-129.409487
 20
-163.073361
 30
775.285398
 70
    64
  0
VERTEX
  5
48B
  8
TEAM-NET
 10
-129.903811
 20
-150.0
 30
775.0
 70
    64
  0
VERTEX
  5
48C
  8
TEAM-NET
 10
-129.409487
 20
-136.926639
 30
775.285398
 70
    64
  0
VERTEX
  5
48D
  8
TEAM-NET
 10
-127.93028
 20
-123.952773
 30
776.139419
 70
    64
  0
VERTEX
  5
48E
  8
TEAM-NET
 10
-125.477446
 20
-111.177143
 30
777.555563
 70
    64
  0
VERTEX
  5
48F
  8
TEAM-NET
 10
-122.069652
 20
-98.696979
 30
779.523053
 70
    64
  0
VERTEX
  5
490
  8
TEAM-NET
 10
-117.732835
 20
-86.607261
 30
782.026916
 70
    64
  0
VERTEX
  5
491
  8
TEAM-NET
 10
-112.5
 20
-75.0
 30
785.048095
 70
    64
  0
VERTEX
  5
492
  8
TEAM-NET
 10
-106.410972
 20
-63.963535
 30
788.563597
 70
    64
  0
VERTEX
  5
493
  8
TEAM-NET
 10
-99.512092
 20
-53.581859
 30
792.546667
 70
    64
  0
VERTEX
  5
494
  8
TEAM-NET
 10
-91.855865
 20
-43.933983
 30
796.966991
 70
    64
  0
VERTEX
  5
495
  8
TEAM-NET
 10
-83.50056
 20
-35.093334
 30
801.790929
 70
    64
  0
VERTEX
  5
496
  8
TEAM-NET
 10
-74.509765
 20
-27.127193
 30
806.981767
 70
    64
  0
VERTEX
  5
497
  8
TEAM-NET
 10
-64.951905
 20
-20.096189
 30
812.5
 70
    64
  0
VERTEX
  5
498
  8
TEAM-NET
 10
-54.899723
 20
-14.053832
 30
818.30363
 70
    64
  0
VERTEX
  5
499
  8
TEAM-NET
 10
-44.42972
 20
-9.046107
 30
824.348489
 70
    64
  0
VERTEX
  5
49A
  8
TEAM-NET
 10
-33.62158
 20
-5.111126
 30
830.588572
 70
    64
  0
VERTEX
  5
49B
  8
TEAM-NET
 10
-22.55756
 20
-2.278837
 30
836.976387
 70
    64
  0
VERTEX
  5
49C
  8
TEAM-NET
 10
-11.321863
 20
-0.570795
 30
843.463319
 70
    64
  0
VERTEX
  5
49D
  8
TEAM-NET
 10
0.0
 20
0.0
 30
850.0
 70
    64
  0
VERTEX
  5
49E
  8
TEAM-NET
 10
0.0
 20
-300.0
 30
850.0
 70
    64
  0
VERTEX
  5
49F
  8
TEAM-NET
 10
-11.848489
 20
-299.429205
 30
844.474959
 70
    64
  0
VERTEX
  5
4A0
  8
TEAM-NET
 10
-23.606804
 20
-297.721163
 30
838.991966
 70
    64
  0
VERTEX
  5
4A1
  8
TEAM-NET
 10
-35.185457
 20
-294.888874
 30
833.592752
 70
    64
  0
VERTEX
  5
4A2
  8
TEAM-NET
 10
-46.496328
 20
-290.953893
 30
828.318406
 70
    64
  0
VERTEX
  5
4A3
  8
TEAM-NET
 10
-57.453333
 20
-285.946168
 30
823.209071
 70
    64
  0
VERTEX
  5
4A4
  8
TEAM-NET
 10
-67.973084
 20
-279.903811
 30
818.30363
 70
    64
  0
VERTEX
  5
4A5
  8
TEAM-NET
 10
-77.975519
 20
-272.872807
 30
813.639419
 70
    64
  0
VERTEX
  5
4A6
  8
TEAM-NET
 10
-87.384512
 20
-264.906666
 30
809.251933
 70
    64
  0
VERTEX
  5
4A7
  8
TEAM-NET
 10
-96.128457
 20
-256.066017
 30
805.174564
 70
    64
  0
VERTEX
  5
4A8
  8
TEAM-NET
 10
-104.140807
 20
-246.418141
 30
801.438344
 70
    64
  0
VERTEX
  5
4A9
  8
TEAM-NET
 10
-111.360581
 20
-236.036465
 30
798.071708
 70
    64
  0
VERTEX
  5
4AA
  8
TEAM-NET
 10
-117.732835
 20
-225.0
 30
795.100277
 70
    64
  0
VERTEX
  5
4AB
  8
TEAM-NET
 10
-123.209071
 20
-213.392739
 30
792.546667
 70
    64
  0
VERTEX
  5
4AC
  8
TEAM-NET
 10
-127.747611
 20
-201.303021
 30
790.430311
 70
    64
  0
VERTEX
  5
4AD
  8
TEAM-NET
 10
-131.313915
 20
-188.822857
 30
788.767316
 70
    64
  0
VERTEX
  5
4AE
  8
TEAM-NET
 10
-133.88084
 20
-176.047227
 30
787.570339
 70
    64
  0
VERTEX
  5
4AF
  8
TEAM-NET
 10
-135.428852
 20
-163.073361
 30
786.848489
 70
    64
  0
VERTEX
  5
4B0
  8
TEAM-NET
 10
-135.946168
 20
-150.0
 30
786.607261
 70
    64
  0
VERTEX
  5
4B1
  8
TEAM-NET
 10
-135.428852
 20
-136.926639
 30
786.848489
 70
    64
  0
VERTEX
  5
4B2
  8
TEAM-NET
 10
-133.88084
 20
-123.952773
 30
787.570339
 70
    64
  0
VERTEX
  5
4B3
  8
TEAM-NET
 10
-131.313915
 20
-111.177143
 30
788.767316
 70
    64
  0
VERTEX
  5
4B4
  8
TEAM-NET
 10
-127.747611
 20
-98.696979
 30
790.430311
 70
    64
  0
VERTEX
  5
4B5
  8
TEAM-NET
 10
-123.209071
 20
-86.607261
 30
792.546667
 70
    64
  0
VERTEX
  5
4B6
  8
TEAM-NET
 10
-117.732835
 20
-75.0
 30
795.100277
 70
    64
  0
VERTEX
  5
4B7
  8
TEAM-NET
 10
-111.360581
 20
-63.963535
 30
798.071708
 70
    64
  0
VERTEX
  5
4B8
  8
TEAM-NET
 10
-104.140807
 20
-53.581859
 30
801.438344
 70
    64
  0
VERTEX
  5
4B9
  8
TEAM-NET
 10
-96.128457
 20
-43.933983
 30
805.174564
 70
    64
  0
VERTEX
  5
4BA
  8
TEAM-NET
 10
-87.384512
 20
-35.093334
 30
809.251933
 70
    64
  0
VERTEX
  5
4BB
  8
TEAM-NET
 10
-77.975519
 20
-27.127193
 30
813.639419
 70
    64
  0
VERTEX
  5
4BC
  8
TEAM-NET
 10
-67.973084
 20
-20.096189
 30
818.30363
 70
    64
  0
VERTEX
  5
4BD
  8
TEAM-NET
 10
-57.453333
 20
-14.053832
 30
823.209071
 70
    64
  0
VERTEX
  5
4BE
  8
TEAM-NET
 10
-46.496328
 20
-9.046107
 30
828.318406
 70
    64
  0
VERTEX
  5
4BF
  8
TEAM-NET
 10
-35.185457
 20
-5.111126
 30
833.592752
 70
    64
  0
VERTEX
  5
4C0
  8
TEAM-NET
 10
-23.606804
 20
-2.278837
 30
838.991966
 70
    64
  0
VERTEX
  5
4C1
  8
TEAM-NET
 10
-11.848489
 20
-0.570795
 30
844.474959
 70
    64
  0
VERTEX
  5
4C2
  8
TEAM-NET
 10
0.0
 20
0.0
 30
850.0
 70
    64
  0
VERTEX
  5
4C3
  8
TEAM-NET
 10
0.0
 20
-300.0
 30
850.0
 70
    64
  0
VERTEX
  5
4C4
  8
TEAM-NET
 10
-12.284941
 20
-299.429205
 30
845.528647
 70
    64
  0
VERTEX
  5
4C5
  8
TEAM-NET
 10
-24.476387
 20
-297.721163
 30
841.091324
 70
    64
  0
VERTEX
  5
4C6
  8
TEAM-NET
 10
-36.481552
 20
-294.888874
 30
836.721801
 70
    64
  0
VERTEX
  5
4C7
  8
TEAM-NET
 10
-48.209071
 20
-290.953893
 30
832.453333
 70
    64
  0
VERTEX
  5
4C8
  8
TEAM-NET
 10
-59.569689
 20
-285.946168
 30
828.318406
 70
    64
  0
VERTEX
  5
4C9
  8
TEAM-NET
 10
-70.476947
 20
-279.903811
 30
824.348489
 70
    64
  0
VERTEX
  5
4CA
  8
TEAM-NET
 10
-80.847832
 20
-272.872807
 30
820.573796
 70
    64
  0
VERTEX
  5
4CB
  8
TEAM-NET
 10
-90.603416
 20
-264.906666
 30
817.023053
 70
    64
  0
VERTEX
  5
4CC
  8
TEAM-NET
 10
-99.669454
 20
-256.066017
 30
813.723286
 70
    64
  0
VERTEX
  5
4CD
  8
TEAM-NET
 10
-107.976947
 20
-246.418141
 30
810.699605
 70
    64
  0
VERTEX
  5
4CE
  8
TEAM-NET
 10
-115.46267
 20
-236.036465
 30
807.975025
 70
    64
  0
VERTEX
  5
4CF
  8
TEAM-NET
 10
-122.069652
 20
-225.0
 30
805.57028
 70
    64
  0
VERTEX
  5
4D0
  8
TEAM-NET
 10
-127.747611
 20
-213.392739
 30
803.503672
 70
    64
  0
VERTEX
  5
4D1
  8
TEAM-NET
 10
-132.453333
 20
-201.303021
 30
801.790929
 70
    64
  0
VERTEX
  5
4D2
  8
TEAM-NET
 10
-136.151006
 20
-188.822857
 30
800.445087
 70
    64
  0
VERTEX
  5
4D3
  8
TEAM-NET
 10
-138.812487
 20
-176.047227
 30
799.476387
 70
    64
  0
VERTEX
  5
4D4
  8
TEAM-NET
 10
-140.417521
 20
-163.073361
 30
798.892202
 70
    64
  0
VERTEX
  5
4D5
  8
TEAM-NET
 10
-140.953893
 20
-150.0
 30
798.696979
 70
    64
  0
VERTEX
  5
4D6
  8
TEAM-NET
 10
-140.417521
 20
-136.926639
 30
798.892202
 70
    64
  0
VERTEX
  5
4D7
  8
TEAM-NET
 10
-138.812487
 20
-123.952773
 30
799.476387
 70
    64
  0
VERTEX
  5
4D8
  8
TEAM-NET
 10
-136.151006
 20
-111.177143
 30
800.445087
 70
    64
  0
VERTEX
  5
4D9
  8
TEAM-NET
 10
-132.453333
 20
-98.696979
 30
801.790929
 70
    64
  0
VERTEX
  5
4DA
  8
TEAM-NET
 10
-127.747611
 20
-86.607261
 30
803.503672
 70
    64
  0
VERTEX
  5
4DB
  8
TEAM-NET
 10
-122.069652
 20
-75.0
 30
805.57028
 70
    64
  0
VERTEX
  5
4DC
  8
TEAM-NET
 10
-115.46267
 20
-63.963535
 30
807.975025
 70
    64
  0
VERTEX
  5
4DD
  8
TEAM-NET
 10
-107.976947
 20
-53.581859
 30
810.699605
 70
    64
  0
VERTEX
  5
4DE
  8
TEAM-NET
 10
-99.669454
 20
-43.933983
 30
813.723286
 70
    64
  0
VERTEX
  5
4DF
  8
TEAM-NET
 10
-90.603416
 20
-35.093334
 30
817.023053
 70
    64
  0
VERTEX
  5
4E0
  8
TEAM-NET
 10
-80.847832
 20
-27.127193
 30
820.573796
 70
    64
  0
VERTEX
  5
4E1
  8
TEAM-NET
 10
-70.476947
 20
-20.096189
 30
824.348489
 70
    64
  0
VERTEX
  5
4E2
  8
TEAM-NET
 10
-59.569689
 20
-14.053832
 30
828.318406
 70
    64
  0
VERTEX
  5
4E3
  8
TEAM-NET
 10
-48.209071
 20
-9.046107
 30
832.453333
 70
    64
  0
VERTEX
  5
4E4
  8
TEAM-NET
 10
-36.481552
 20
-5.111126
 30
836.721801
 70
    64
  0
VERTEX
  5
4E5
  8
TEAM-NET
 10
-24.476387
 20
-2.278837
 30
841.091324
 70
    64
  0
VERTEX
  5
4E6
  8
TEAM-NET
 10
-12.284941
 20
-0.570795
 30
845.528647
 70
    64
  0
VERTEX
  5
4E7
  8
TEAM-NET
 10
0.0
 20
0.0
 30
850.0
 70
    64
  0
VERTEX
  5
4E8
  8
TEAM-NET
 10
0.0
 20
-300.0
 30
850.0
 70
    64
  0
VERTEX
  5
4E9
  8
TEAM-NET
 10
-12.627897
 20
-299.429205
 30
846.616365
 70
    64
  0
VERTEX
  5
4EA
  8
TEAM-NET
 10
-25.159689
 20
-297.721163
 30
843.258482
 70
    64
  0
VERTEX
  5
4EB
  8
TEAM-NET
 10
-37.5
 20
-294.888874
 30
839.951905
 70
    64
  0
VERTEX
  5
4EC
  8
TEAM-NET
 10
-49.554913
 20
-290.953893
 30
836.721801
 70
    64
  0
VERTEX
  5
4ED
  8
TEAM-NET
 10
-61.232684
 20
-285.946168
 30
833.592752
 70
    64
  0
VERTEX
  5
4EE
  8
TEAM-NET
 10
-72.444437
 20
-279.903811
 30
830.588572
 70
    64
  0
VERTEX
  5
4EF
  8
TEAM-NET
 10
-83.104844
 20
-272.872807
 30
827.732124
 70
    64
  0
VERTEX
  5
4F0
  8
TEAM-NET
 10
-93.132773
 20
-264.906666
 30
825.045149
 70
    64
  0
VERTEX
  5
4F1
  8
TEAM-NET
 10
-102.451905
 20
-256.066017
 30
822.548095
 70
    64
  0
VERTEX
  5
4F2
  8
TEAM-NET
 10
-110.991317
 20
-246.418141
 30
820.259966
 70
    64
  0
VERTEX
  5
4F3
  8
TEAM-NET
 10
-118.686017
 20
-236.036465
 30
818.198178
 70
    64
  0
VERTEX
  5
4F4
  8
TEAM-NET
 10
-125.477446
 20
-225.0
 30
816.37842
 70
    64
  0
VERTEX
  5
4F5
  8
TEAM-NET
 10
-131.313915
 20
-213.392739
 30
814.814543
 70
    64
  0
VERTEX
  5
4F6
  8
TEAM-NET
 10
-136.151006
 20
-201.303021
 30
813.518448
 70
    64
  0
VERTEX
  5
4F7
  8
TEAM-NET
 10
-139.951905
 20
-188.822857
 30
812.5
 70
    64
  0
VERTEX
  5
4F8
  8
TEAM-NET
 10
-142.687686
 20
-176.047227
 30
811.76695
 70
    64
  0
VERTEX
  5
4F9
  8
TEAM-NET
 10
-144.337528
 20
-163.073361
 30
811.324876
 70
    64
  0
VERTEX
  5
4FA
  8
TEAM-NET
 10
-144.888874
 20
-150.0
 30
811.177143
 70
    64
  0
VERTEX
  5
4FB
  8
TEAM-NET
 10
-144.337528
 20
-136.926639
 30
811.324876
 70
    64
  0
VERTEX
  5
4FC
  8
TEAM-NET
 10
-142.687686
 20
-123.952773
 30
811.76695
 70
    64
  0
VERTEX
  5
4FD
  8
TEAM-NET
 10
-139.951905
 20
-111.177143
 30
812.5
 70
    64
  0
VERTEX
  5
4FE
  8
TEAM-NET
 10
-136.151006
 20
-98.696979
 30
813.518448
 70
    64
  0
VERTEX
  5
4FF
  8
TEAM-NET
 10
-131.313915
 20
-86.607261
 30
814.814543
 70
    64
  0
VERTEX
  5
500
  8
TEAM-NET
 10
-125.477446
 20
-75.0
 30
816.37842
 70
    64
  0
VERTEX
  5
501
  8
TEAM-NET
 10
-118.686017
 20
-63.963535
 30
818.198178
 70
    64
  0
VERTEX
  5
502
  8
TEAM-NET
 10
-110.991317
 20
-53.581859
 30
820.259966
 70
    64
  0
VERTEX
  5
503
  8
TEAM-NET
 10
-102.451905
 20
-43.933983
 30
822.548095
 70
    64
  0
VERTEX
  5
504
  8
TEAM-NET
 10
-93.132773
 20
-35.093334
 30
825.045149
 70
    64
  0
VERTEX
  5
505
  8
TEAM-NET
 10
-83.104844
 20
-27.127193
 30
827.732124
 70
    64
  0
VERTEX
  5
506
  8
TEAM-NET
 10
-72.444437
 20
-20.096189
 30
830.588572
 70
    64
  0
VERTEX
  5
507
  8
TEAM-NET
 10
-61.232684
 20
-14.053832
 30
833.592752
 70
    64
  0
VERTEX
  5
508
  8
TEAM-NET
 10
-49.554913
 20
-9.046107
 30
836.721801
 70
    64
  0
VERTEX
  5
509
  8
TEAM-NET
 10
-37.5
 20
-5.111126
 30
839.951905
 70
    64
  0
VERTEX
  5
50A
  8
TEAM-NET
 10
-25.159689
 20
-2.278837
 30
843.258482
 70
    64
  0
VERTEX
  5
50B
  8
TEAM-NET
 10
-12.627897
 20
-0.570795
 30
846.616365
 70
    64
  0
VERTEX
  5
50C
  8
TEAM-NET
 10
0.0
 20
0.0
 30
850.0
 70
    64
  0
VERTEX
  5
50D
  8
TEAM-NET
 10
0.0
 20
-300.0
 30
850.0
 70
    64
  0
VERTEX
  5
50E
  8
TEAM-NET
 10
-12.874748
 20
-299.429205
 30
847.729835
 70
    64
  0
VERTEX
  5
50F
  8
TEAM-NET
 10
-25.651511
 20
-297.721163
 30
845.476947
 70
    64
  0
VERTEX
  5
510
  8
TEAM-NET
 10
-38.23305
 20
-294.888874
 30
843.258482
 70
    64
  0
VERTEX
  5
511
  8
TEAM-NET
 10
-50.523613
 20
-290.953893
 30
841.091324
 70
    64
  0
VERTEX
  5
512
  8
TEAM-NET
 10
-62.429661
 20
-285.946168
 30
838.991966
 70
    64
  0
VERTEX
  5
513
  8
TEAM-NET
 10
-73.860581
 20
-279.903811
 30
836.976387
 70
    64
  0
VERTEX
  5
514
  8
TEAM-NET
 10
-84.729378
 20
-272.872807
 30
835.059925
 70
    64
  0
VERTEX
  5
515
  8
TEAM-NET
 10
-94.953333
 20
-264.906666
 30
833.257165
 70
    64
  0
VERTEX
  5
516
  8
TEAM-NET
 10
-104.454636
 20
-256.066017
 30
831.581829
 70
    64
  0
VERTEX
  5
517
  8
TEAM-NET
 10
-113.160976
 20
-246.418141
 30
830.046667
 70
    64
  0
VERTEX
  5
518
  8
TEAM-NET
 10
-121.006093
 20
-236.036465
 30
828.663361
 70
    64
  0
VERTEX
  5
519
  8
TEAM-NET
 10
-127.93028
 20
-225.0
 30
827.44244
 70
    64
  0
VERTEX
  5
51A
  8
TEAM-NET
 10
-133.88084
 20
-213.392739
 30
826.393196
 70
    64
  0
VERTEX
  5
51B
  8
TEAM-NET
 10
-138.812487
 20
-201.303021
 30
825.523613
 70
    64
  0
VERTEX
  5
51C
  8
TEAM-NET
 10
-142.687686
 20
-188.822857
 30
824.840311
 70
    64
  0
VERTEX
  5
51D
  8
TEAM-NET
 10
-145.476947
 20
-176.047227
 30
824.348489
 70
    64
  0
VERTEX
  5
51E
  8
TEAM-NET
 10
-147.159039
 20
-163.073361
 30
824.051891
 70
    64
  0
VERTEX
  5
51F
  8
TEAM-NET
 10
-147.721163
 20
-150.0
 30
823.952773
 70
    64
  0
VERTEX
  5
520
  8
TEAM-NET
 10
-147.159039
 20
-136.926639
 30
824.051891
 70
    64
  0
VERTEX
  5
521
  8
TEAM-NET
 10
-145.476947
 20
-123.952773
 30
824.348489
 70
    64
  0
VERTEX
  5
522
  8
TEAM-NET
 10
-142.687686
 20
-111.177143
 30
824.840311
 70
    64
  0
VERTEX
  5
523
  8
TEAM-NET
 10
-138.812487
 20
-98.696979
 30
825.523613
 70
    64
  0
VERTEX
  5
524
  8
TEAM-NET
 10
-133.88084
 20
-86.607261
 30
826.393196
 70
    64
  0
VERTEX
  5
525
  8
TEAM-NET
 10
-127.93028
 20
-75.0
 30
827.44244
 70
    64
  0
VERTEX
  5
526
  8
TEAM-NET
 10
-121.006093
 20
-63.963535
 30
828.663361
 70
    64
  0
VERTEX
  5
527
  8
TEAM-NET
 10
-113.160976
 20
-53.581859
 30
830.046667
 70
    64
  0
VERTEX
  5
528
  8
TEAM-NET
 10
-104.454636
 20
-43.933983
 30
831.581829
 70
    64
  0
VERTEX
  5
529
  8
TEAM-NET
 10
-94.953333
 20
-35.093334
 30
833.257165
 70
    64
  0
VERTEX
  5
52A
  8
TEAM-NET
 10
-84.729378
 20
-27.127193
 30
835.059925
 70
    64
  0
VERTEX
  5
52B
  8
TEAM-NET
 10
-73.860581
 20
-20.096189
 30
836.976387
 70
    64
  0
VERTEX
  5
52C
  8
TEAM-NET
 10
-62.429661
 20
-14.053832
 30
838.991966
 70
    64
  0
VERTEX
  5
52D
  8
TEAM-NET
 10
-50.523613
 20
-9.046107
 30
841.091324
 70
    64
  0
VERTEX
  5
52E
  8
TEAM-NET
 10
-38.23305
 20
-5.111126
 30
843.258482
 70
    64
  0
VERTEX
  5
52F
  8
TEAM-NET
 10
-25.651511
 20
-2.278837
 30
845.476947
 70
    64
  0
VERTEX
  5
530
  8
TEAM-NET
 10
-12.874748
 20
-0.570795
 30
847.729835
 70
    64
  0
VERTEX
  5
531
  8
TEAM-NET
 10
0.0
 20
0.0
 30
850.0
 70
    64
  0
VERTEX
  5
532
  8
TEAM-NET
 10
0.0
 20
-300.0
 30
850.0
 70
    64
  0
VERTEX
  5
533
  8
TEAM-NET
 10
-13.023613
 20
-299.429205
 30
848.860581
 70
    64
  0
VERTEX
  5
534
  8
TEAM-NET
 10
-25.948109
 20
-297.721163
 30
847.729835
 70
    64
  0
VERTEX
  5
535
  8
TEAM-NET
 10
-38.675124
 20
-294.888874
 30
846.616365
 70
    64
  0
VERTEX
  5
536
  8
TEAM-NET
 10
-51.107798
 20
-290.953893
 30
845.528647
 70
    64
  0
VERTEX
  5
537
  8
TEAM-NET
 10
-63.151511
 20
-285.946168
 30
844.474959
 70
    64
  0
VERTEX
  5
538
  8
TEAM-NET
 10
-74.714602
 20
-279.903811
 30
843.463319
 70
    64
  0
VERTEX
  5
539
  8
TEAM-NET
 10
-85.709071
 20
-272.872807
 30
842.501428
 70
    64
  0
VERTEX
  5
53A
  8
TEAM-NET
 10
-96.051241
 20
-264.906666
 30
841.596605
 70
    64
  0
VERTEX
  5
53B
  8
TEAM-NET
 10
-105.662404
 20
-256.066017
 30
840.755737
 70
    64
  0
VERTEX
  5
53C
  8
TEAM-NET
 10
-114.469412
 20
-246.418141
 30
839.985224
 70
    64
  0
VERTEX
  5
53D
  8
TEAM-NET
 10
-122.405239
 20
-236.036465
 30
839.290929
 70
    64
  0
VERTEX
  5
53E
  8
TEAM-NET
 10
-129.409487
 20
-225.0
 30
838.678137
 70
    64
  0
VERTEX
  5
53F
  8
TEAM-NET
 10
-135.428852
 20
-213.392739
 30
838.151511
 70
    64
  0
VERTEX
  5
540
  8
TEAM-NET
 10
-140.417521
 20
-201.303021
 30
837.715059
 70
    64
  0
VERTEX
  5
541
  8
TEAM-NET
 10
-144.337528
 20
-188.822857
 30
837.372103
 70
    64
  0
VERTEX
  5
542
  8
TEAM-NET
 10
-147.159039
 20
-176.047227
 30
837.125252
 70
    64
  0
VERTEX
  5
543
  8
TEAM-NET
 10
-148.860581
 20
-163.073361
 30
836.976387
 70
    64
  0
VERTEX
  5
544
  8
TEAM-NET
 10
-149.429205
 20
-150.0
 30
836.926639
 70
    64
  0
VERTEX
  5
545
  8
TEAM-NET
 10
-148.860581
 20
-136.926639
 30
836.976387
 70
    64
  0
VERTEX
  5
546
  8
TEAM-NET
 10
-147.159039
 20
-123.952773
 30
837.125252
 70
    64
  0
VERTEX
  5
547
  8
TEAM-NET
 10
-144.337528
 20
-111.177143
 30
837.372103
 70
    64
  0
VERTEX
  5
548
  8
TEAM-NET
 10
-140.417521
 20
-98.696979
 30
837.715059
 70
    64
  0
VERTEX
  5
549
  8
TEAM-NET
 10
-135.428852
 20
-86.607261
 30
838.151511
 70
    64
  0
VERTEX
  5
54A
  8
TEAM-NET
 10
-129.409487
 20
-75.0
 30
838.678137
 70
    64
  0
VERTEX
  5
54B
  8
TEAM-NET
 10
-122.405239
 20
-63.963535
 30
839.290929
 70
    64
  0
VERTEX
  5
54C
  8
TEAM-NET
 10
-114.469412
 20
-53.581859
 30
839.985224
 70
    64
  0
VERTEX
  5
54D
  8
TEAM-NET
 10
-105.662404
 20
-43.933983
 30
840.755737
 70
    64
  0
VERTEX
  5
54E
  8
TEAM-NET
 10
-96.051241
 20
-35.093334
 30
841.596605
 70
    64
  0
VERTEX
  5
54F
  8
TEAM-NET
 10
-85.709071
 20
-27.127193
 30
842.501428
 70
    64
  0
VERTEX
  5
550
  8
TEAM-NET
 10
-74.714602
 20
-20.096189
 30
843.463319
 70
    64
  0
VERTEX
  5
551
  8
TEAM-NET
 10
-63.151511
 20
-14.053832
 30
844.474959
 70
    64
  0
VERTEX
  5
552
  8
TEAM-NET
 10
-51.107798
 20
-9.046107
 30
845.528647
 70
    64
  0
VERTEX
  5
553
  8
TEAM-NET
 10
-38.675124
 20
-5.111126
 30
846.616365
 70
    64
  0
VERTEX
  5
554
  8
TEAM-NET
 10
-25.948109
 20
-2.278837
 30
847.729835
 70
    64
  0
VERTEX
  5
555
  8
TEAM-NET
 10
-13.023613
 20
-0.570795
 30
848.860581
 70
    64
  0
VERTEX
  5
556
  8
TEAM-NET
 10
0.0
 20
0.0
 30
850.0
 70
    64
  0
VERTEX
  5
557
  8
TEAM-NET
 10
0.0
 20
-300.0
 30
850.0
 70
    64
  0
VERTEX
  5
558
  8
TEAM-NET
 10
-13.073361
 20
-299.429205
 30
850.0
 70
    64
  0
VERTEX
  5
559
  8
TEAM-NET
 10
-26.047227
 20
-297.721163
 30
850.0
 70
    64
  0
VERTEX
  5
55A
  8
TEAM-NET
 10
-38.822857
 20
-294.888874
 30
850.0
 70
    64
  0
VERTEX
  5
55B
  8
TEAM-NET
 10
-51.303021
 20
-290.953893
 30
850.0
 70
    64
  0
VERTEX
  5
55C
  8
TEAM-NET
 10
-63.392739
 20
-285.946168
 30
850.0
 70
    64
  0
VERTEX
  5
55D
  8
TEAM-NET
 10
-75.0
 20
-279.903811
 30
850.0
 70
    64
  0
VERTEX
  5
55E
  8
TEAM-NET
 10
-86.036465
 20
-272.872807
 30
850.0
 70
    64
  0
VERTEX
  5
55F
  8
TEAM-NET
 10
-96.418141
 20
-264.906666
 30
850.0
 70
    64
  0
VERTEX
  5
560
  8
TEAM-NET
 10
-106.066017
 20
-256.066017
 30
850.0
 70
    64
  0
VERTEX
  5
561
  8
TEAM-NET
 10
-114.906666
 20
-246.418141
 30
850.0
 70
    64
  0
VERTEX
  5
562
  8
TEAM-NET
 10
-122.872807
 20
-236.036465
 30
850.0
 70
    64
  0
VERTEX
  5
563
  8
TEAM-NET
 10
-129.903811
 20
-225.0
 30
850.0
 70
    64
  0
VERTEX
  5
564
  8
TEAM-NET
 10
-135.946168
 20
-213.392739
 30
850.0
 70
    64
  0
VERTEX
  5
565
  8
TEAM-NET
 10
-140.953893
 20
-201.303021
 30
850.0
 70
    64
  0
VERTEX
  5
566
  8
TEAM-NET
 10
-144.888874
 20
-188.822857
 30
850.0
 70
    64
  0
VERTEX
  5
567
  8
TEAM-NET
 10
-147.721163
 20
-176.047227
 30
850.0
 70
    64
  0
VERTEX
  5
568
  8
TEAM-NET
 10
-149.429205
 20
-163.073361
 30
850.0
 70
    64
  0
VERTEX
  5
569
  8
TEAM-NET
 10
-150.0
 20
-150.0
 30
850.0
 70
    64
  0
VERTEX
  5
56A
  8
TEAM-NET
 10
-149.429205
 20
-136.926639
 30
850.0
 70
    64
  0
VERTEX
  5
56B
  8
TEAM-NET
 10
-147.721163
 20
-123.952773
 30
850.0
 70
    64
  0
VERTEX
  5
56C
  8
TEAM-NET
 10
-144.888874
 20
-111.177143
 30
850.0
 70
    64
  0
VERTEX
  5
56D
  8
TEAM-NET
 10
-140.953893
 20
-98.696979
 30
850.0
 70
    64
  0
VERTEX
  5
56E
  8
TEAM-NET
 10
-135.946168
 20
-86.607261
 30
850.0
 70
    64
  0
VERTEX
  5
56F
  8
TEAM-NET
 10
-129.903811
 20
-75.0
 30
850.0
 70
    64
  0
VERTEX
  5
570
  8
TEAM-NET
 10
-122.872807
 20
-63.963535
 30
850.0
 70
    64
  0
VERTEX
  5
571
  8
TEAM-NET
 10
-114.906666
 20
-53.581859
 30
850.0
 70
    64
  0
VERTEX
  5
572
  8
TEAM-NET
 10
-106.066017
 20
-43.933983
 30
850.0
 70
    64
  0
VERTEX
  5
573
  8
TEAM-NET
 10
-96.418141
 20
-35.093334
 30
850.0
 70
    64
  0
VERTEX
  5
574
  8
TEAM-NET
 10
-86.036465
 20
-27.127193
 30
850.0
 70
    64
  0
VERTEX
  5
575
  8
TEAM-NET
 10
-75.0
 20
-20.096189
 30
850.0
 70
    64
  0
VERTEX
  5
576
  8
TEAM-NET
 10
-63.392739
 20
-14.053832
 30
850.0
 70
    64
  0
VERTEX
  5
577
  8
TEAM-NET
 10
-51.303021
 20
-9.046107
 30
850.0
 70
    64
  0
VERTEX
  5
578
  8
TEAM-NET
 10
-38.822857
 20
-5.111126
 30
850.0
 70
    64
  0
VERTEX
  5
579
  8
TEAM-NET
 10
-26.047227
 20
-2.278837
 30
850.0
 70
    64
  0
VERTEX
  5
57A
  8
TEAM-NET
 10
-13.073361
 20
-0.570795
 30
850.0
 70
    64
  0
VERTEX
  5
57B
  8
TEAM-NET
 10
0.0
 20
0.0
 30
850.0
 70
    64
  0
SEQEND
  5
57D
  8
TEAM-NET
  0
POLYLINE
  5
57E
  8
TEAM-NET
 66
     1
 10
0.0
 20
0.0
 30
0.0
 70
    16
 71
    37
 72
    37
  0
VERTEX
  5
57F
  8
TEAM-NET
 10
0.0
 20
-295.0
 30
850.0
 70
    64
  0
VERTEX
  5
580
  8
TEAM-NET
 10
12.637583
 20
-294.448231
 30
850.0
 70
    64
  0
VERTEX
  5
581
  8
TEAM-NET
 10
25.178986
 20
-292.797124
 30
850.0
 70
    64
  0
VERTEX
  5
582
  8
TEAM-NET
 10
37.528762
 20
-290.059245
 30
850.0
 70
    64
  0
VERTEX
  5
583
  8
TEAM-NET
 10
49.592921
 20
-286.25543
 30
850.0
 70
    64
  0
VERTEX
  5
584
  8
TEAM-NET
 10
61.279648
 20
-281.414629
 30
850.0
 70
    64
  0
VERTEX
  5
585
  8
TEAM-NET
 10
72.5
 20
-275.573684
 30
850.0
 70
    64
  0
VERTEX
  5
586
  8
TEAM-NET
 10
83.168583
 20
-268.777046
 30
850.0
 70
    64
  0
VERTEX
  5
587
  8
TEAM-NET
 10
93.204203
 20
-261.076444
 30
850.0
 70
    64
  0
VERTEX
  5
588
  8
TEAM-NET
 10
102.530483
 20
-252.530483
 30
850.0
 70
    64
  0
VERTEX
  5
589
  8
TEAM-NET
 10
111.076444
 20
-243.204203
 30
850.0
 70
    64
  0
VERTEX
  5
58A
  8
TEAM-NET
 10
118.777046
 20
-233.168583
 30
850.0
 70
    64
  0
VERTEX
  5
58B
  8
TEAM-NET
 10
125.573684
 20
-222.5
 30
850.0
 70
    64
  0
VERTEX
  5
58C
  8
TEAM-NET
 10
131.414629
 20
-211.279648
 30
850.0
 70
    64
  0
VERTEX
  5
58D
  8
TEAM-NET
 10
136.25543
 20
-199.592921
 30
850.0
 70
    64
  0
VERTEX
  5
58E
  8
TEAM-NET
 10
140.059245
 20
-187.528762
 30
850.0
 70
    64
  0
VERTEX
  5
58F
  8
TEAM-NET
 10
142.797124
 20
-175.178986
 30
850.0
 70
    64
  0
VERTEX
  5
590
  8
TEAM-NET
 10
144.448231
 20
-162.637583
 30
850.0
 70
    64
  0
VERTEX
  5
591
  8
TEAM-NET
 10
145.0
 20
-150.0
 30
850.0
 70
    64
  0
VERTEX
  5
592
  8
TEAM-NET
 10
144.448231
 20
-137.362417
 30
850.0
 70
    64
  0
VERTEX
  5
593
  8
TEAM-NET
 10
142.797124
 20
-124.821014
 30
850.0
 70
    64
  0
VERTEX
  5
594
  8
TEAM-NET
 10
140.059245
 20
-112.471238
 30
850.0
 70
    64
  0
VERTEX
  5
595
  8
TEAM-NET
 10
136.25543
 20
-100.407079
 30
850.0
 70
    64
  0
VERTEX
  5
596
  8
TEAM-NET
 10
131.414629
 20
-88.720352
 30
850.0
 70
    64
  0
VERTEX
  5
597
  8
TEAM-NET
 10
125.573684
 20
-77.5
 30
850.0
 70
    64
  0
VERTEX
  5
598
  8
TEAM-NET
 10
118.777046
 20
-66.831417
 30
850.0
 70
    64
  0
VERTEX
  5
599
  8
TEAM-NET
 10
111.076444
 20
-56.795797
 30
850.0
 70
    64
  0
VERTEX
  5
59A
  8
TEAM-NET
 10
102.530483
 20
-47.469517
 30
850.0
 70
    64
  0
VERTEX
  5
59B
  8
TEAM-NET
 10
93.204203
 20
-38.923556
 30
850.0
 70
    64
  0
VERTEX
  5
59C
  8
TEAM-NET
 10
83.168583
 20
-31.222954
 30
850.0
 70
    64
  0
VERTEX
  5
59D
  8
TEAM-NET
 10
72.5
 20
-24.426316
 30
850.0
 70
    64
  0
VERTEX
  5
59E
  8
TEAM-NET
 10
61.279648
 20
-18.585371
 30
850.0
 70
    64
  0
VERTEX
  5
59F
  8
TEAM-NET
 10
49.592921
 20
-13.74457
 30
850.0
 70
    64
  0
VERTEX
  5
5A0
  8
TEAM-NET
 10
37.528762
 20
-9.940755
 30
850.0
 70
    64
  0
VERTEX
  5
5A1
  8
TEAM-NET
 10
25.178986
 20
-7.202876
 30
850.0
 70
    64
  0
VERTEX
  5
5A2
  8
TEAM-NET
 10
12.637583
 20
-5.551769
 30
850.0
 70
    64
  0
VERTEX
  5
5A3
  8
TEAM-NET
 10
0.0
 20
-5.0
 30
850.0
 70
    64
  0
VERTEX
  5
5A4
  8
TEAM-NET
 10
0.0
 20
-295.0
 30
850.0
 70
    64
  0
VERTEX
  5
5A5
  8
TEAM-NET
 10
12.589493
 20
-294.448231
 30
848.898562
 70
    64
  0
VERTEX
  5
5A6
  8
TEAM-NET
 10
25.083172
 20
-292.797124
 30
847.805507
 70
    64
  0
VERTEX
  5
5A7
  8
TEAM-NET
 10
37.385953
 20
-290.059245
 30
846.729153
 70
    64
  0
VERTEX
  5
5A8
  8
TEAM-NET
 10
49.404205
 20
-286.25543
 30
845.677692
 70
    64
  0
VERTEX
  5
5A9
  8
TEAM-NET
 10
61.04646
 20
-281.414629
 30
844.659127
 70
    64
  0
VERTEX
  5
5AA
  8
TEAM-NET
 10
72.224116
 20
-275.573684
 30
843.681209
 70
    64
  0
VERTEX
  5
5AB
  8
TEAM-NET
 10
82.852102
 20
-268.777046
 30
842.75138
 70
    64
  0
VERTEX
  5
5AC
  8
TEAM-NET
 10
92.849533
 20
-261.076444
 30
841.876718
 70
    64
  0
VERTEX
  5
5AD
  8
TEAM-NET
 10
102.140324
 20
-252.530483
 30
841.06388
 70
    64
  0
VERTEX
  5
5AE
  8
TEAM-NET
 10
110.653765
 20
-243.204203
 30
840.31905
 70
    64
  0
VERTEX
  5
5AF
  8
TEAM-NET
 10
118.325064
 20
-233.168583
 30
839.647898
 70
    64
  0
VERTEX
  5
5B0
  8
TEAM-NET
 10
125.095838
 20
-222.5
 30
839.055532
 70
    64
  0
VERTEX
  5
5B1
  8
TEAM-NET
 10
130.914557
 20
-211.279648
 30
838.54646
 70
    64
  0
VERTEX
  5
5B2
  8
TEAM-NET
 10
135.736937
 20
-199.592921
 30
838.124557
 70
    64
  0
VERTEX
  5
5B3
  8
TEAM-NET
 10
139.526277
 20
-187.528762
 30
837.793032
 70
    64
  0
VERTEX
  5
5B4
  8
TEAM-NET
 10
142.253738
 20
-175.178986
 30
837.554411
 70
    64
  0
VERTEX
  5
5B5
  8
TEAM-NET
 10
143.898562
 20
-162.637583
 30
837.410507
 70
    64
  0
VERTEX
  5
5B6
  8
TEAM-NET
 10
144.448231
 20
-150.0
 30
837.362417
 70
    64
  0
VERTEX
  5
5B7
  8
TEAM-NET
 10
143.898562
 20
-137.362417
 30
837.410507
 70
    64
  0
VERTEX
  5
5B8
  8
TEAM-NET
 10
142.253738
 20
-124.821014
 30
837.554411
 70
    64
  0
VERTEX
  5
5B9
  8
TEAM-NET
 10
139.526277
 20
-112.471238
 30
837.793032
 70
    64
  0
VERTEX
  5
5BA
  8
TEAM-NET
 10
135.736937
 20
-100.407079
 30
838.124557
 70
    64
  0
VERTEX
  5
5BB
  8
TEAM-NET
 10
130.914557
 20
-88.720352
 30
838.54646
 70
    64
  0
VERTEX
  5
5BC
  8
TEAM-NET
 10
125.095838
 20
-77.5
 30
839.055532
 70
    64
  0
VERTEX
  5
5BD
  8
TEAM-NET
 10
118.325064
 20
-66.831417
 30
839.647898
 70
    64
  0
VERTEX
  5
5BE
  8
TEAM-NET
 10
110.653765
 20
-56.795797
 30
840.31905
 70
    64
  0
VERTEX
  5
5BF
  8
TEAM-NET
 10
102.140324
 20
-47.469517
 30
841.06388
 70
    64
  0
VERTEX
  5
5C0
  8
TEAM-NET
 10
92.849533
 20
-38.923556
 30
841.876718
 70
    64
  0
VERTEX
  5
5C1
  8
TEAM-NET
 10
82.852102
 20
-31.222954
 30
842.75138
 70
    64
  0
VERTEX
  5
5C2
  8
TEAM-NET
 10
72.224116
 20
-24.426316
 30
843.681209
 70
    64
  0
VERTEX
  5
5C3
  8
TEAM-NET
 10
61.04646
 20
-18.585371
 30
844.659127
 70
    64
  0
VERTEX
  5
5C4
  8
TEAM-NET
 10
49.404205
 20
-13.74457
 30
845.677692
 70
    64
  0
VERTEX
  5
5C5
  8
TEAM-NET
 10
37.385953
 20
-9.940755
 30
846.729153
 70
    64
  0
VERTEX
  5
5C6
  8
TEAM-NET
 10
25.083172
 20
-7.202876
 30
847.805507
 70
    64
  0
VERTEX
  5
5C7
  8
TEAM-NET
 10
12.589493
 20
-5.551769
 30
848.898562
 70
    64
  0
VERTEX
  5
5C8
  8
TEAM-NET
 10
0.0
 20
-5.0
 30
850.0
 70
    64
  0
VERTEX
  5
5C9
  8
TEAM-NET
 10
0.0
 20
-295.0
 30
850.0
 70
    64
  0
VERTEX
  5
5CA
  8
TEAM-NET
 10
12.445589
 20
-294.448231
 30
847.805507
 70
    64
  0
VERTEX
  5
5CB
  8
TEAM-NET
 10
24.79646
 20
-292.797124
 30
845.627715
 70
    64
  0
VERTEX
  5
5CC
  8
TEAM-NET
 10
36.958615
 20
-290.059245
 30
843.483199
 70
    64
  0
VERTEX
  5
5CD
  8
TEAM-NET
 10
48.839493
 20
-286.25543
 30
841.38828
 70
    64
  0
VERTEX
  5
5CE
  8
TEAM-NET
 10
60.348672
 20
-281.414629
 30
839.358901
 70
    64
  0
VERTEX
  5
5CF
  8
TEAM-NET
 10
71.398562
 20
-275.573684
 30
837.410507
 70
    64
  0
VERTEX
  5
5D0
  8
TEAM-NET
 10
81.905066
 20
-268.777046
 30
835.557927
 70
    64
  0
VERTEX
  5
5D1
  8
TEAM-NET
 10
91.788222
 20
-261.076444
 30
833.81526
 70
    64
  0
VERTEX
  5
5D2
  8
TEAM-NET
 10
100.972815
 20
-252.530483
 30
832.195768
 70
    64
  0
VERTEX
  5
5D3
  8
TEAM-NET
 10
109.388943
 20
-243.204203
 30
830.711778
 70
    64
  0
VERTEX
  5
5D4
  8
TEAM-NET
 10
116.972556
 20
-233.168583
 30
829.374582
 70
    64
  0
VERTEX
  5
5D5
  8
TEAM-NET
 10
123.665937
 20
-222.5
 30
828.194359
 70
    64
  0
VERTEX
  5
5D6
  8
TEAM-NET
 10
129.418146
 20
-211.279648
 30
827.180089
 70
    64
  0
VERTEX
  5
5D7
  8
TEAM-NET
 10
134.185404
 20
-199.592921
 30
826.339493
 70
    64
  0
VERTEX
  5
5D8
  8
TEAM-NET
 10
137.93143
 20
-187.528762
 30
825.678967
 70
    64
  0
VERTEX
  5
5D9
  8
TEAM-NET
 10
140.627715
 20
-175.178986
 30
825.20354
 70
    64
  0
VERTEX
  5
5DA
  8
TEAM-NET
 10
142.253738
 20
-162.637583
 30
824.916828
 70
    64
  0
VERTEX
  5
5DB
  8
TEAM-NET
 10
142.797124
 20
-150.0
 30
824.821014
 70
    64
  0
VERTEX
  5
5DC
  8
TEAM-NET
 10
142.253738
 20
-137.362417
 30
824.916828
 70
    64
  0
VERTEX
  5
5DD
  8
TEAM-NET
 10
140.627715
 20
-124.821014
 30
825.20354
 70
    64
  0
VERTEX
  5
5DE
  8
TEAM-NET
 10
137.93143
 20
-112.471238
 30
825.678967
 70
    64
  0
VERTEX
  5
5DF
  8
TEAM-NET
 10
134.185404
 20
-100.407079
 30
826.339493
 70
    64
  0
VERTEX
  5
5E0
  8
TEAM-NET
 10
129.418146
 20
-88.720352
 30
827.180089
 70
    64
  0
VERTEX
  5
5E1
  8
TEAM-NET
 10
123.665937
 20
-77.5
 30
828.194359
 70
    64
  0
VERTEX
  5
5E2
  8
TEAM-NET
 10
116.972556
 20
-66.831417
 30
829.374582
 70
    64
  0
VERTEX
  5
5E3
  8
TEAM-NET
 10
109.388943
 20
-56.795797
 30
830.711778
 70
    64
  0
VERTEX
  5
5E4
  8
TEAM-NET
 10
100.972815
 20
-47.469517
 30
832.195768
 70
    64
  0
VERTEX
  5
5E5
  8
TEAM-NET
 10
91.788222
 20
-38.923556
 30
833.81526
 70
    64
  0
VERTEX
  5
5E6
  8
TEAM-NET
 10
81.905066
 20
-31.222954
 30
835.557927
 70
    64
  0
VERTEX
  5
5E7
  8
TEAM-NET
 10
71.398562
 20
-24.426316
 30
837.410507
 70
    64
  0
VERTEX
  5
5E8
  8
TEAM-NET
 10
60.348672
 20
-18.585371
 30
839.358901
 70
    64
  0
VERTEX
  5
5E9
  8
TEAM-NET
 10
48.839493
 20
-13.74457
 30
841.38828
 70
    64
  0
VERTEX
  5
5EA
  8
TEAM-NET
 10
36.958615
 20
-9.940755
 30
843.483199
 70
    64
  0
VERTEX
  5
5EB
  8
TEAM-NET
 10
24.79646
 20
-7.202876
 30
845.627715
 70
    64
  0
VERTEX
  5
5EC
  8
TEAM-NET
 10
12.445589
 20
-5.551769
 30
847.805507
 70
    64
  0
VERTEX
  5
5ED
  8
TEAM-NET
 10
0.0
 20
-5.0
 30
850.0
 70
    64
  0
VERTEX
  5
5EE
  8
TEAM-NET
 10
0.0
 20
-295.0
 30
850.0
 70
    64
  0
VERTEX
  5
5EF
  8
TEAM-NET
 10
12.206968
 20
-294.448231
 30
846.729153
 70
    64
  0
VERTEX
  5
5F0
  8
TEAM-NET
 10
24.321033
 20
-292.797124
 30
843.483199
 70
    64
  0
VERTEX
  5
5F1
  8
TEAM-NET
 10
36.25
 20
-290.059245
 30
840.286842
 70
    64
  0
VERTEX
  5
5F2
  8
TEAM-NET
 10
47.903083
 20
-286.25543
 30
837.164408
 70
    64
  0
VERTEX
  5
5F3
  8
TEAM-NET
 10
59.191595
 20
-281.414629
 30
834.13966
 70
    64
  0
VERTEX
  5
5F4
  8
TEAM-NET
 10
70.029622
 20
-275.573684
 30
831.235619
 70
    64
  0
VERTEX
  5
5F5
  8
TEAM-NET
 10
80.334683
 20
-268.777046
 30
828.474387
 70
    64
  0
VERTEX
  5
5F6
  8
TEAM-NET
 10
90.028347
 20
-261.076444
 30
825.876977
 70
    64
  0
VERTEX
  5
5F7
  8
TEAM-NET
 10
99.036842
 20
-252.530483
 30
823.463158
 70
    64
  0
VERTEX
  5
5F8
  8
TEAM-NET
 10
107.291606
 20
-243.204203
 30
821.251301
 70
    64
  0
VERTEX
  5
5F9
  8
TEAM-NET
 10
114.729817
 20
-233.168583
 30
819.258238
 70
    64
  0
VERTEX
  5
5FA
  8
TEAM-NET
 10
121.294864
 20
-222.5
 30
817.499139
 70
    64
  0
VERTEX
  5
5FB
  8
TEAM-NET
 10
126.936784
 20
-211.279648
 30
815.987391
 70
    64
  0
VERTEX
  5
5FC
  8
TEAM-NET
 10
131.612639
 20
-199.592921
 30
814.7345
 70
    64
  0
VERTEX
  5
5FD
  8
TEAM-NET
 10
135.286842
 20
-187.528762
 30
813.75
 70
    64
  0
VERTEX
  5
5FE
  8
TEAM-NET
 10
137.93143
 20
-175.178986
 30
813.041385
 70
    64
  0
VERTEX
  5
5FF
  8
TEAM-NET
 10
139.526277
 20
-162.637583
 30
812.614047
 70
    64
  0
VERTEX
  5
600
  8
TEAM-NET
 10
140.059245
 20
-150.0
 30
812.471238
 70
    64
  0
VERTEX
  5
601
  8
TEAM-NET
 10
139.526277
 20
-137.362417
 30
812.614047
 70
    64
  0
VERTEX
  5
602
  8
TEAM-NET
 10
137.93143
 20
-124.821014
 30
813.041385
 70
    64
  0
VERTEX
  5
603
  8
TEAM-NET
 10
135.286842
 20
-112.471238
 30
813.75
 70
    64
  0
VERTEX
  5
604
  8
TEAM-NET
 10
131.612639
 20
-100.407079
 30
814.7345
 70
    64
  0
VERTEX
  5
605
  8
TEAM-NET
 10
126.936784
 20
-88.720352
 30
815.987391
 70
    64
  0
VERTEX
  5
606
  8
TEAM-NET
 10
121.294864
 20
-77.5
 30
817.499139
 70
    64
  0
VERTEX
  5
607
  8
TEAM-NET
 10
114.729817
 20
-66.831417
 30
819.258238
 70
    64
  0
VERTEX
  5
608
  8
TEAM-NET
 10
107.291606
 20
-56.795797
 30
821.251301
 70
    64
  0
VERTEX
  5
609
  8
TEAM-NET
 10
99.036842
 20
-47.469517
 30
823.463158
 70
    64
  0
VERTEX
  5
60A
  8
TEAM-NET
 10
90.028347
 20
-38.923556
 30
825.876977
 70
    64
  0
VERTEX
  5
60B
  8
TEAM-NET
 10
80.334683
 20
-31.222954
 30
828.474387
 70
    64
  0
VERTEX
  5
60C
  8
TEAM-NET
 10
70.029622
 20
-24.426316
 30
831.235619
 70
    64
  0
VERTEX
  5
60D
  8
TEAM-NET
 10
59.191595
 20
-18.585371
 30
834.13966
 70
    64
  0
VERTEX
  5
60E
  8
TEAM-NET
 10
47.903083
 20
-13.74457
 30
837.164408
 70
    64
  0
VERTEX
  5
60F
  8
TEAM-NET
 10
36.25
 20
-9.940755
 30
840.286842
 70
    64
  0
VERTEX
  5
610
  8
TEAM-NET
 10
24.321033
 20
-7.202876
 30
843.483199
 70
    64
  0
VERTEX
  5
611
  8
TEAM-NET
 10
12.206968
 20
-5.551769
 30
846.729153
 70
    64
  0
VERTEX
  5
612
  8
TEAM-NET
 10
0.0
 20
-5.0
 30
850.0
 70
    64
  0
VERTEX
  5
613
  8
TEAM-NET
 10
0.0
 20
-295.0
 30
850.0
 70
    64
  0
VERTEX
  5
614
  8
TEAM-NET
 10
11.875443
 20
-294.448231
 30
845.677692
 70
    64
  0
VERTEX
  5
615
  8
TEAM-NET
 10
23.660507
 20
-292.797124
 30
841.38828
 70
    64
  0
VERTEX
  5
616
  8
TEAM-NET
 10
35.2655
 20
-290.059245
 30
837.164408
 70
    64
  0
VERTEX
  5
617
  8
TEAM-NET
 10
46.602102
 20
-286.25543
 30
833.038222
 70
    64
  0
VERTEX
  5
618
  8
TEAM-NET
 10
57.584033
 20
-281.414629
 30
829.041126
 70
    64
  0
VERTEX
  5
619
  8
TEAM-NET
 10
68.127715
 20
-275.573684
 30
825.20354
 70
    64
  0
VERTEX
  5
61A
  8
TEAM-NET
 10
78.152904
 20
-268.777046
 30
821.554669
 70
    64
  0
VERTEX
  5
61B
  8
TEAM-NET
 10
87.583302
 20
-261.076444
 30
818.122285
 70
    64
  0
VERTEX
  5
61C
  8
TEAM-NET
 10
96.347139
 20
-252.530483
 30
814.932509
 70
    64
  0
VERTEX
  5
61D
  8
TEAM-NET
 10
104.377715
 20
-243.204203
 30
812.009619
 70
    64
  0
VERTEX
  5
61E
  8
TEAM-NET
 10
111.613914
 20
-233.168583
 30
809.375858
 70
    64
  0
VERTEX
  5
61F
  8
TEAM-NET
 10
118.000664
 20
-222.5
 30
807.051271
 70
    64
  0
VERTEX
  5
620
  8
TEAM-NET
 10
123.489357
 20
-211.279648
 30
805.05355
 70
    64
  0
VERTEX
  5
621
  8
TEAM-NET
 10
128.038222
 20
-199.592921
 30
803.397898
 70
    64
  0
VERTEX
  5
622
  8
TEAM-NET
 10
131.612639
 20
-187.528762
 30
802.096917
 70
    64
  0
VERTEX
  5
623
  8
TEAM-NET
 10
134.185404
 20
-175.178986
 30
801.160507
 70
    64
  0
VERTEX
  5
624
  8
TEAM-NET
 10
135.736937
 20
-162.637583
 30
800.595795
 70
    64
  0
VERTEX
  5
625
  8
TEAM-NET
 10
136.25543
 20
-150.0
 30
800.407079
 70
    64
  0
VERTEX
  5
626
  8
TEAM-NET
 10
135.736937
 20
-137.362417
 30
800.595795
 70
    64
  0
VERTEX
  5
627
  8
TEAM-NET
 10
134.185404
 20
-124.821014
 30
801.160507
 70
    64
  0
VERTEX
  5
628
  8
TEAM-NET
 10
131.612639
 20
-112.471238
 30
802.096917
 70
    64
  0
VERTEX
  5
629
  8
TEAM-NET
 10
128.038222
 20
-100.407079
 30
803.397898
 70
    64
  0
VERTEX
  5
62A
  8
TEAM-NET
 10
123.489357
 20
-88.720352
 30
805.05355
 70
    64
  0
VERTEX
  5
62B
  8
TEAM-NET
 10
118.000664
 20
-77.5
 30
807.051271
 70
    64
  0
VERTEX
  5
62C
  8
TEAM-NET
 10
111.613914
 20
-66.831417
 30
809.375858
 70
    64
  0
VERTEX
  5
62D
  8
TEAM-NET
 10
104.377715
 20
-56.795797
 30
812.009619
 70
    64
  0
VERTEX
  5
62E
  8
TEAM-NET
 10
96.347139
 20
-47.469517
 30
814.932509
 70
    64
  0
VERTEX
  5
62F
  8
TEAM-NET
 10
87.583302
 20
-38.923556
 30
818.122285
 70
    64
  0
VERTEX
  5
630
  8
TEAM-NET
 10
78.152904
 20
-31.222954
 30
821.554669
 70
    64
  0
VERTEX
  5
631
  8
TEAM-NET
 10
68.127715
 20
-24.426316
 30
825.20354
 70
    64
  0
VERTEX
  5
632
  8
TEAM-NET
 10
57.584033
 20
-18.585371
 30
829.041126
 70
    64
  0
VERTEX
  5
633
  8
TEAM-NET
 10
46.602102
 20
-13.74457
 30
833.038222
 70
    64
  0
VERTEX
  5
634
  8
TEAM-NET
 10
35.2655
 20
-9.940755
 30
837.164408
 70
    64
  0
VERTEX
  5
635
  8
TEAM-NET
 10
23.660507
 20
-7.202876
 30
841.38828
 70
    64
  0
VERTEX
  5
636
  8
TEAM-NET
 10
11.875443
 20
-5.551769
 30
845.677692
 70
    64
  0
VERTEX
  5
637
  8
TEAM-NET
 10
0.0
 20
-5.0
 30
850.0
 70
    64
  0
VERTEX
  5
638
  8
TEAM-NET
 10
0.0
 20
-295.0
 30
850.0
 70
    64
  0
VERTEX
  5
639
  8
TEAM-NET
 10
11.45354
 20
-294.448231
 30
844.659127
 70
    64
  0
VERTEX
  5
63A
  8
TEAM-NET
 10
22.819911
 20
-292.797124
 30
839.358901
 70
    64
  0
VERTEX
  5
63B
  8
TEAM-NET
 10
34.012609
 20
-290.059245
 30
834.13966
 70
    64
  0
VERTEX
  5
63C
  8
TEAM-NET
 10
44.94645
 20
-286.25543
 30
829.041126
 70
    64
  0
VERTEX
  5
63D
  8
TEAM-NET
 10
55.538222
 20
-281.414629
 30
824.102102
 70
    64
  0
VERTEX
  5
63E
  8
TEAM-NET
 10
65.707315
 20
-275.573684
 30
819.360176
 70
    64
  0
VERTEX
  5
63F
  8
TEAM-NET
 10
75.376335
 20
-268.777046
 30
814.851438
 70
    64
  0
VERTEX
  5
640
  8
TEAM-NET
 10
84.471695
 20
-261.076444
 30
810.610202
 70
    64
  0
VERTEX
  5
641
  8
TEAM-NET
 10
92.924175
 20
-252.530483
 30
806.668745
 70
    64
  0
VERTEX
  5
642
  8
TEAM-NET
 10
100.669446
 20
-243.204203
 30
803.057066
 70
    64
  0
VERTEX
  5
643
  8
TEAM-NET
 10
107.648562
 20
-233.168583
 30
799.802651
 70
    64
  0
VERTEX
  5
644
  8
TEAM-NET
 10
113.808407
 20
-222.5
 30
796.930268
 70
    64
  0
VERTEX
  5
645
  8
TEAM-NET
 10
119.102102
 20
-211.279648
 30
794.461778
 70
    64
  0
VERTEX
  5
646
  8
TEAM-NET
 10
123.489357
 20
-199.592921
 30
792.415967
 70
    64
  0
VERTEX
  5
647
  8
TEAM-NET
 10
126.936784
 20
-187.528762
 30
790.808405
 70
    64
  0
VERTEX
  5
648
  8
TEAM-NET
 10
129.418146
 20
-175.178986
 30
789.651328
 70
    64
  0
VERTEX
  5
649
  8
TEAM-NET
 10
130.914557
 20
-162.637583
 30
788.95354
 70
    64
  0
VERTEX
  5
64A
  8
TEAM-NET
 10
131.414629
 20
-150.0
 30
788.720352
 70
    64
  0
VERTEX
  5
64B
  8
TEAM-NET
 10
130.914557
 20
-137.362417
 30
788.95354
 70
    64
  0
VERTEX
  5
64C
  8
TEAM-NET
 10
129.418146
 20
-124.821014
 30
789.651328
 70
    64
  0
VERTEX
  5
64D
  8
TEAM-NET
 10
126.936784
 20
-112.471238
 30
790.808405
 70
    64
  0
VERTEX
  5
64E
  8
TEAM-NET
 10
123.489357
 20
-100.407079
 30
792.415967
 70
    64
  0
VERTEX
  5
64F
  8
TEAM-NET
 10
119.102102
 20
-88.720352
 30
794.461778
 70
    64
  0
VERTEX
  5
650
  8
TEAM-NET
 10
113.808407
 20
-77.5
 30
796.930268
 70
    64
  0
VERTEX
  5
651
  8
TEAM-NET
 10
107.648562
 20
-66.831417
 30
799.802651
 70
    64
  0
VERTEX
  5
652
  8
TEAM-NET
 10
100.669446
 20
-56.795797
 30
803.057066
 70
    64
  0
VERTEX
  5
653
  8
TEAM-NET
 10
92.924175
 20
-47.469517
 30
806.668745
 70
    64
  0
VERTEX
  5
654
  8
TEAM-NET
 10
84.471695
 20
-38.923556
 30
810.610202
 70
    64
  0
VERTEX
  5
655
  8
TEAM-NET
 10
75.376335
 20
-31.222954
 30
814.851438
 70
    64
  0
VERTEX
  5
656
  8
TEAM-NET
 10
65.707315
 20
-24.426316
 30
819.360176
 70
    64
  0
VERTEX
  5
657
  8
TEAM-NET
 10
55.538222
 20
-18.585371
 30
824.102102
 70
    64
  0
VERTEX
  5
658
  8
TEAM-NET
 10
44.94645
 20
-13.74457
 30
829.041126
 70
    64
  0
VERTEX
  5
659
  8
TEAM-NET
 10
34.012609
 20
-9.940755
 30
834.13966
 70
    64
  0
VERTEX
  5
65A
  8
TEAM-NET
 10
22.819911
 20
-7.202876
 30
839.358901
 70
    64
  0
VERTEX
  5
65B
  8
TEAM-NET
 10
11.45354
 20
-5.551769
 30
844.659127
 70
    64
  0
VERTEX
  5
65C
  8
TEAM-NET
 10
0.0
 20
-5.0
 30
850.0
 70
    64
  0
VERTEX
  5
65D
  8
TEAM-NET
 10
0.0
 20
-295.0
 30
850.0
 70
    64
  0
VERTEX
  5
65E
  8
TEAM-NET
 10
10.944468
 20
-294.448231
 30
843.681209
 70
    64
  0
VERTEX
  5
65F
  8
TEAM-NET
 10
21.805641
 20
-292.797124
 30
837.410507
 70
    64
  0
VERTEX
  5
660
  8
TEAM-NET
 10
32.500861
 20
-290.059245
 30
831.235619
 70
    64
  0
VERTEX
  5
661
  8
TEAM-NET
 10
42.948729
 20
-286.25543
 30
825.20354
 70
    64
  0
VERTEX
  5
662
  8
TEAM-NET
 10
53.069732
 20
-281.414629
 30
819.360176
 70
    64
  0
VERTEX
  5
663
  8
TEAM-NET
 10
62.786842
 20
-275.573684
 30
813.75
 70
    64
  0
VERTEX
  5
664
  8
TEAM-NET
 10
72.026106
 20
-268.777046
 30
808.415708
 70
    64
  0
VERTEX
  5
665
  8
TEAM-NET
 10
80.717208
 20
-261.076444
 30
803.397898
 70
    64
  0
VERTEX
  5
666
  8
TEAM-NET
 10
88.794003
 20
-252.530483
 30
798.734758
 70
    64
  0
VERTEX
  5
667
  8
TEAM-NET
 10
96.195022
 20
-243.204203
 30
794.461778
 70
    64
  0
VERTEX
  5
668
  8
TEAM-NET
 10
102.86394
 20
-233.168583
 30
790.611477
 70
    64
  0
VERTEX
  5
669
  8
TEAM-NET
 10
108.75
 20
-222.5
 30
787.213158
 70
    64
  0
VERTEX
  5
66A
  8
TEAM-NET
 10
113.808407
 20
-211.279648
 30
784.292685
 70
    64
  0
VERTEX
  5
66B
  8
TEAM-NET
 10
118.000664
 20
-199.592921
 30
781.872285
 70
    64
  0
VERTEX
  5
66C
  8
TEAM-NET
 10
121.294864
 20
-187.528762
 30
779.970378
 70
    64
  0
VERTEX
  5
66D
  8
TEAM-NET
 10
123.665937
 20
-175.178986
 30
778.601438
 70
    64
  0
VERTEX
  5
66E
  8
TEAM-NET
 10
125.095838
 20
-162.637583
 30
777.775884
 70
    64
  0
VERTEX
  5
66F
  8
TEAM-NET
 10
125.573684
 20
-150.0
 30
777.5
 70
    64
  0
VERTEX
  5
670
  8
TEAM-NET
 10
125.095838
 20
-137.362417
 30
777.775884
 70
    64
  0
VERTEX
  5
671
  8
TEAM-NET
 10
123.665937
 20
-124.821014
 30
778.601438
 70
    64
  0
VERTEX
  5
672
  8
TEAM-NET
 10
121.294864
 20
-112.471238
 30
779.970378
 70
    64
  0
VERTEX
  5
673
  8
TEAM-NET
 10
118.000664
 20
-100.407079
 30
781.872285
 70
    64
  0
VERTEX
  5
674
  8
TEAM-NET
 10
113.808407
 20
-88.720352
 30
784.292685
 70
    64
  0
VERTEX
  5
675
  8
TEAM-NET
 10
108.75
 20
-77.5
 30
787.213158
 70
    64
  0
VERTEX
  5
676
  8
TEAM-NET
 10
102.86394
 20
-66.831417
 30
790.611477
 70
    64
  0
VERTEX
  5
677
  8
TEAM-NET
 10
96.195022
 20
-56.795797
 30
794.461778
 70
    64
  0
VERTEX
  5
678
  8
TEAM-NET
 10
88.794003
 20
-47.469517
 30
798.734758
 70
    64
  0
VERTEX
  5
679
  8
TEAM-NET
 10
80.717208
 20
-38.923556
 30
803.397898
 70
    64
  0
VERTEX
  5
67A
  8
TEAM-NET
 10
72.026106
 20
-31.222954
 30
808.415708
 70
    64
  0
VERTEX
  5
67B
  8
TEAM-NET
 10
62.786842
 20
-24.426316
 30
813.75
 70
    64
  0
VERTEX
  5
67C
  8
TEAM-NET
 10
53.069732
 20
-18.585371
 30
819.360176
 70
    64
  0
VERTEX
  5
67D
  8
TEAM-NET
 10
42.948729
 20
-13.74457
 30
825.20354
 70
    64
  0
VERTEX
  5
67E
  8
TEAM-NET
 10
32.500861
 20
-9.940755
 30
831.235619
 70
    64
  0
VERTEX
  5
67F
  8
TEAM-NET
 10
21.805641
 20
-7.202876
 30
837.410507
 70
    64
  0
VERTEX
  5
680
  8
TEAM-NET
 10
10.944468
 20
-5.551769
 30
843.681209
 70
    64
  0
VERTEX
  5
681
  8
TEAM-NET
 10
0.0
 20
-5.0
 30
850.0
 70
    64
  0
VERTEX
  5
682
  8
TEAM-NET
 10
0.0
 20
-295.0
 30
850.0
 70
    64
  0
VERTEX
  5
683
  8
TEAM-NET
 10
10.352102
 20
-294.448231
 30
842.75138
 70
    64
  0
VERTEX
  5
684
  8
TEAM-NET
 10
20.625418
 20
-292.797124
 30
835.557927
 70
    64
  0
VERTEX
  5
685
  8
TEAM-NET
 10
30.741762
 20
-290.059245
 30
828.474387
 70
    64
  0
VERTEX
  5
686
  8
TEAM-NET
 10
40.624142
 20
-286.25543
 30
821.554669
 70
    64
  0
VERTEX
  5
687
  8
TEAM-NET
 10
50.197349
 20
-281.414629
 30
814.851438
 70
    64
  0
VERTEX
  5
688
  8
TEAM-NET
 10
59.388523
 20
-275.573684
 30
808.415708
 70
    64
  0
VERTEX
  5
689
  8
TEAM-NET
 10
68.127715
 20
-268.777046
 30
802.29646
 70
    64
  0
VERTEX
  5
68A
  8
TEAM-NET
 10
76.348414
 20
-261.076444
 30
796.540265
 70
    64
  0
VERTEX
  5
68B
  8
TEAM-NET
 10
83.988055
 20
-252.530483
 30
791.190931
 70
    64
  0
VERTEX
  5
68C
  8
TEAM-NET
 10
90.988496
 20
-243.204203
 30
786.289169
 70
    64
  0
VERTEX
  5
68D
  8
TEAM-NET
 10
97.29646
 20
-233.168583
 30
781.872285
 70
    64
  0
VERTEX
  5
68E
  8
TEAM-NET
 10
102.86394
 20
-222.5
 30
777.973894
 70
    64
  0
VERTEX
  5
68F
  8
TEAM-NET
 10
107.648562
 20
-211.279648
 30
774.623665
 70
    64
  0
VERTEX
  5
690
  8
TEAM-NET
 10
111.613914
 20
-199.592921
 30
771.847096
 70
    64
  0
VERTEX
  5
691
  8
TEAM-NET
 10
114.729817
 20
-187.528762
 30
769.665317
 70
    64
  0
VERTEX
  5
692
  8
TEAM-NET
 10
116.972556
 20
-175.178986
 30
768.094934
 70
    64
  0
VERTEX
  5
693
  8
TEAM-NET
 10
118.325064
 20
-162.637583
 30
767.147898
 70
    64
  0
VERTEX
  5
694
  8
TEAM-NET
 10
118.777046
 20
-150.0
 30
766.831417
 70
    64
  0
VERTEX
  5
695
  8
TEAM-NET
 10
118.325064
 20
-137.362417
 30
767.147898
 70
    64
  0
VERTEX
  5
696
  8
TEAM-NET
 10
116.972556
 20
-124.821014
 30
768.094934
 70
    64
  0
VERTEX
  5
697
  8
TEAM-NET
 10
114.729817
 20
-112.471238
 30
769.665317
 70
    64
  0
VERTEX
  5
698
  8
TEAM-NET
 10
111.613914
 20
-100.407079
 30
771.847096
 70
    64
  0
VERTEX
  5
699
  8
TEAM-NET
 10
107.648562
 20
-88.720352
 30
774.623665
 70
    64
  0
VERTEX
  5
69A
  8
TEAM-NET
 10
102.86394
 20
-77.5
 30
777.973894
 70
    64
  0
VERTEX
  5
69B
  8
TEAM-NET
 10
97.29646
 20
-66.831417
 30
781.872285
 70
    64
  0
VERTEX
  5
69C
  8
TEAM-NET
 10
90.988496
 20
-56.795797
 30
786.289169
 70
    64
  0
VERTEX
  5
69D
  8
TEAM-NET
 10
83.988055
 20
-47.469517
 30
791.190931
 70
    64
  0
VERTEX
  5
69E
  8
TEAM-NET
 10
76.348414
 20
-38.923556
 30
796.540265
 70
    64
  0
VERTEX
  5
69F
  8
TEAM-NET
 10
68.127715
 20
-31.222954
 30
802.29646
 70
    64
  0
VERTEX
  5
6A0
  8
TEAM-NET
 10
59.388523
 20
-24.426316
 30
808.415708
 70
    64
  0
VERTEX
  5
6A1
  8
TEAM-NET
 10
50.197349
 20
-18.585371
 30
814.851438
 70
    64
  0
VERTEX
  5
6A2
  8
TEAM-NET
 10
40.624142
 20
-13.74457
 30
821.554669
 70
    64
  0
VERTEX
  5
6A3
  8
TEAM-NET
 10
30.741762
 20
-9.940755
 30
828.474387
 70
    64
  0
VERTEX
  5
6A4
  8
TEAM-NET
 10
20.625418
 20
-7.202876
 30
835.557927
 70
    64
  0
VERTEX
  5
6A5
  8
TEAM-NET
 10
10.352102
 20
-5.551769
 30
842.75138
 70
    64
  0
VERTEX
  5
6A6
  8
TEAM-NET
 10
0.0
 20
-5.0
 30
850.0
 70
    64
  0
VERTEX
  5
6A7
  8
TEAM-NET
 10
0.0
 20
-295.0
 30
850.0
 70
    64
  0
VERTEX
  5
6A8
  8
TEAM-NET
 10
9.68095
 20
-294.448231
 30
841.876718
 70
    64
  0
VERTEX
  5
6A9
  8
TEAM-NET
 10
19.288222
 20
-292.797124
 30
833.81526
 70
    64
  0
VERTEX
  5
6AA
  8
TEAM-NET
 10
28.748699
 20
-290.059245
 30
825.876977
 70
    64
  0
VERTEX
  5
6AB
  8
TEAM-NET
 10
37.990381
 20
-286.25543
 30
818.122285
 70
    64
  0
VERTEX
  5
6AC
  8
TEAM-NET
 10
46.942934
 20
-281.414629
 30
810.610202
 70
    64
  0
VERTEX
  5
6AD
  8
TEAM-NET
 10
55.538222
 20
-275.573684
 30
803.397898
 70
    64
  0
VERTEX
  5
6AE
  8
TEAM-NET
 10
63.710831
 20
-268.777046
 30
796.540265
 70
    64
  0
VERTEX
  5
6AF
  8
TEAM-NET
 10
71.398562
 20
-261.076444
 30
790.089493
 70
    64
  0
VERTEX
  5
6B0
  8
TEAM-NET
 10
78.542907
 20
-252.530483
 30
784.094676
 70
    64
  0
VERTEX
  5
6B1
  8
TEAM-NET
 10
85.089493
 20
-243.204203
 30
778.601438
 70
    64
  0
VERTEX
  5
6B2
  8
TEAM-NET
 10
90.988496
 20
-233.168583
 30
773.651586
 70
    64
  0
VERTEX
  5
6B3
  8
TEAM-NET
 10
96.195022
 20
-222.5
 30
769.282792
 70
    64
  0
VERTEX
  5
6B4
  8
TEAM-NET
 10
100.669446
 20
-211.279648
 30
765.528305
 70
    64
  0
VERTEX
  5
6B5
  8
TEAM-NET
 10
104.377715
 20
-199.592921
 30
762.416698
 70
    64
  0
VERTEX
  5
6B6
  8
TEAM-NET
 10
107.291606
 20
-187.528762
 30
759.971653
 70
    64
  0
VERTEX
  5
6B7
  8
TEAM-NET
 10
109.388943
 20
-175.178986
 30
758.211778
 70
    64
  0
VERTEX
  5
6B8
  8
TEAM-NET
 10
110.653765
 20
-162.637583
 30
757.150467
 70
    64
  0
VERTEX
  5
6B9
  8
TEAM-NET
 10
111.076444
 20
-150.0
 30
756.795797
 70
    64
  0
VERTEX
  5
6BA
  8
TEAM-NET
 10
110.653765
 20
-137.362417
 30
757.150467
 70
    64
  0
VERTEX
  5
6BB
  8
TEAM-NET
 10
109.388943
 20
-124.821014
 30
758.211778
 70
    64
  0
VERTEX
  5
6BC
  8
TEAM-NET
 10
107.291606
 20
-112.471238
 30
759.971653
 70
    64
  0
VERTEX
  5
6BD
  8
TEAM-NET
 10
104.377715
 20
-100.407079
 30
762.416698
 70
    64
  0
VERTEX
  5
6BE
  8
TEAM-NET
 10
100.669446
 20
-88.720352
 30
765.528305
 70
    64
  0
VERTEX
  5
6BF
  8
TEAM-NET
 10
96.195022
 20
-77.5
 30
769.282792
 70
    64
  0
VERTEX
  5
6C0
  8
TEAM-NET
 10
90.988496
 20
-66.831417
 30
773.651586
 70
    64
  0
VERTEX
  5
6C1
  8
TEAM-NET
 10
85.089493
 20
-56.795797
 30
778.601438
 70
    64
  0
VERTEX
  5
6C2
  8
TEAM-NET
 10
78.542907
 20
-47.469517
 30
784.094676
 70
    64
  0
VERTEX
  5
6C3
  8
TEAM-NET
 10
71.398562
 20
-38.923556
 30
790.089493
 70
    64
  0
VERTEX
  5
6C4
  8
TEAM-NET
 10
63.710831
 20
-31.222954
 30
796.540265
 70
    64
  0
VERTEX
  5
6C5
  8
TEAM-NET
 10
55.538222
 20
-24.426316
 30
803.397898
 70
    64
  0
VERTEX
  5
6C6
  8
TEAM-NET
 10
46.942934
 20
-18.585371
 30
810.610202
 70
    64
  0
VERTEX
  5
6C7
  8
TEAM-NET
 10
37.990381
 20
-13.74457
 30
818.122285
 70
    64
  0
VERTEX
  5
6C8
  8
TEAM-NET
 10
28.748699
 20
-9.940755
 30
825.876977
 70
    64
  0
VERTEX
  5
6C9
  8
TEAM-NET
 10
19.288222
 20
-7.202876
 30
833.81526
 70
    64
  0
VERTEX
  5
6CA
  8
TEAM-NET
 10
9.68095
 20
-5.551769
 30
841.876718
 70
    64
  0
VERTEX
  5
6CB
  8
TEAM-NET
 10
0.0
 20
-5.0
 30
850.0
 70
    64
  0
VERTEX
  5
6CC
  8
TEAM-NET
 10
0.0
 20
-295.0
 30
850.0
 70
    64
  0
VERTEX
  5
6CD
  8
TEAM-NET
 10
8.93612
 20
-294.448231
 30
841.06388
 70
    64
  0
VERTEX
  5
6CE
  8
TEAM-NET
 10
17.804232
 20
-292.797124
 30
832.195768
 70
    64
  0
VERTEX
  5
6CF
  8
TEAM-NET
 10
26.536842
 20
-290.059245
 30
823.463158
 70
    64
  0
VERTEX
  5
6D0
  8
TEAM-NET
 10
35.067491
 20
-286.25543
 30
814.932509
 70
    64
  0
VERTEX
  5
6D1
  8
TEAM-NET
 10
43.331255
 20
-281.414629
 30
806.668745
 70
    64
  0
VERTEX
  5
6D2
  8
TEAM-NET
 10
51.265242
 20
-275.573684
 30
798.734758
 70
    64
  0
VERTEX
  5
6D3
  8
TEAM-NET
 10
58.809069
 20
-268.777046
 30
791.190931
 70
    64
  0
VERTEX
  5
6D4
  8
TEAM-NET
 10
65.905324
 20
-261.076444
 30
784.094676
 70
    64
  0
VERTEX
  5
6D5
  8
TEAM-NET
 10
72.5
 20
-252.530483
 30
777.5
 70
    64
  0
VERTEX
  5
6D6
  8
TEAM-NET
 10
78.542907
 20
-243.204203
 30
771.457093
 70
    64
  0
VERTEX
  5
6D7
  8
TEAM-NET
 10
83.988055
 20
-233.168583
 30
766.011945
 70
    64
  0
VERTEX
  5
6D8
  8
TEAM-NET
 10
88.794003
 20
-222.5
 30
761.205997
 70
    64
  0
VERTEX
  5
6D9
  8
TEAM-NET
 10
92.924175
 20
-211.279648
 30
757.075825
 70
    64
  0
VERTEX
  5
6DA
  8
TEAM-NET
 10
96.347139
 20
-199.592921
 30
753.652861
 70
    64
  0
VERTEX
  5
6DB
  8
TEAM-NET
 10
99.036842
 20
-187.528762
 30
750.963158
 70
    64
  0
VERTEX
  5
6DC
  8
TEAM-NET
 10
100.972815
 20
-175.178986
 30
749.027185
 70
    64
  0
VERTEX
  5
6DD
  8
TEAM-NET
 10
102.140324
 20
-162.637583
 30
747.859676
 70
    64
  0
VERTEX
  5
6DE
  8
TEAM-NET
 10
102.530483
 20
-150.0
 30
747.469517
 70
    64
  0
VERTEX
  5
6DF
  8
TEAM-NET
 10
102.140324
 20
-137.362417
 30
747.859676
 70
    64
  0
VERTEX
  5
6E0
  8
TEAM-NET
 10
100.972815
 20
-124.821014
 30
749.027185
 70
    64
  0
VERTEX
  5
6E1
  8
TEAM-NET
 10
99.036842
 20
-112.471238
 30
750.963158
 70
    64
  0
VERTEX
  5
6E2
  8
TEAM-NET
 10
96.347139
 20
-100.407079
 30
753.652861
 70
    64
  0
VERTEX
  5
6E3
  8
TEAM-NET
 10
92.924175
 20
-88.720352
 30
757.075825
 70
    64
  0
VERTEX
  5
6E4
  8
TEAM-NET
 10
88.794003
 20
-77.5
 30
761.205997
 70
    64
  0
VERTEX
  5
6E5
  8
TEAM-NET
 10
83.988055
 20
-66.831417
 30
766.011945
 70
    64
  0
VERTEX
  5
6E6
  8
TEAM-NET
 10
78.542907
 20
-56.795797
 30
771.457093
 70
    64
  0
VERTEX
  5
6E7
  8
TEAM-NET
 10
72.5
 20
-47.469517
 30
777.5
 70
    64
  0
VERTEX
  5
6E8
  8
TEAM-NET
 10
65.905324
 20
-38.923556
 30
784.094676
 70
    64
  0
VERTEX
  5
6E9
  8
TEAM-NET
 10
58.809069
 20
-31.222954
 30
791.190931
 70
    64
  0
VERTEX
  5
6EA
  8
TEAM-NET
 10
51.265242
 20
-24.426316
 30
798.734758
 70
    64
  0
VERTEX
  5
6EB
  8
TEAM-NET
 10
43.331255
 20
-18.585371
 30
806.668745
 70
    64
  0
VERTEX
  5
6EC
  8
TEAM-NET
 10
35.067491
 20
-13.74457
 30
814.932509
 70
    64
  0
VERTEX
  5
6ED
  8
TEAM-NET
 10
26.536842
 20
-9.940755
 30
823.463158
 70
    64
  0
VERTEX
  5
6EE
  8
TEAM-NET
 10
17.804232
 20
-7.202876
 30
832.195768
 70
    64
  0
VERTEX
  5
6EF
  8
TEAM-NET
 10
8.93612
 20
-5.551769
 30
841.06388
 70
    64
  0
VERTEX
  5
6F0
  8
TEAM-NET
 10
0.0
 20
-5.0
 30
850.0
 70
    64
  0
VERTEX
  5
6F1
  8
TEAM-NET
 10
0.0
 20
-295.0
 30
850.0
 70
    64
  0
VERTEX
  5
6F2
  8
TEAM-NET
 10
8.123282
 20
-294.448231
 30
840.31905
 70
    64
  0
VERTEX
  5
6F3
  8
TEAM-NET
 10
16.18474
 20
-292.797124
 30
830.711778
 70
    64
  0
VERTEX
  5
6F4
  8
TEAM-NET
 10
24.123023
 20
-290.059245
 30
821.251301
 70
    64
  0
VERTEX
  5
6F5
  8
TEAM-NET
 10
31.877715
 20
-286.25543
 30
812.009619
 70
    64
  0
VERTEX
  5
6F6
  8
TEAM-NET
 10
39.389798
 20
-281.414629
 30
803.057066
 70
    64
  0
VERTEX
  5
6F7
  8
TEAM-NET
 10
46.602102
 20
-275.573684
 30
794.461778
 70
    64
  0
VERTEX
  5
6F8
  8
TEAM-NET
 10
53.459735
 20
-268.777046
 30
786.289169
 70
    64
  0
VERTEX
  5
6F9
  8
TEAM-NET
 10
59.910507
 20
-261.076444
 30
778.601438
 70
    64
  0
VERTEX
  5
6FA
  8
TEAM-NET
 10
65.905324
 20
-252.530483
 30
771.457093
 70
    64
  0
VERTEX
  5
6FB
  8
TEAM-NET
 10
71.398562
 20
-243.204203
 30
764.910507
 70
    64
  0
VERTEX
  5
6FC
  8
TEAM-NET
 10
76.348414
 20
-233.168583
 30
759.011504
 70
    64
  0
VERTEX
  5
6FD
  8
TEAM-NET
 10
80.717208
 20
-222.5
 30
753.804978
 70
    64
  0
VERTEX
  5
6FE
  8
TEAM-NET
 10
84.471695
 20
-211.279648
 30
749.330554
 70
    64
  0
VERTEX
  5
6FF
  8
TEAM-NET
 10
87.583302
 20
-199.592921
 30
745.622285
 70
    64
  0
VERTEX
  5
700
  8
TEAM-NET
 10
90.028347
 20
-187.528762
 30
742.708394
 70
    64
  0
VERTEX
  5
701
  8
TEAM-NET
 10
91.788222
 20
-175.178986
 30
740.611057
 70
    64
  0
VERTEX
  5
702
  8
TEAM-NET
 10
92.849533
 20
-162.637583
 30
739.346235
 70
    64
  0
VERTEX
  5
703
  8
TEAM-NET
 10
93.204203
 20
-150.0
 30
738.923556
 70
    64
  0
VERTEX
  5
704
  8
TEAM-NET
 10
92.849533
 20
-137.362417
 30
739.346235
 70
    64
  0
VERTEX
  5
705
  8
TEAM-NET
 10
91.788222
 20
-124.821014
 30
740.611057
 70
    64
  0
VERTEX
  5
706
  8
TEAM-NET
 10
90.028347
 20
-112.471238
 30
742.708394
 70
    64
  0
VERTEX
  5
707
  8
TEAM-NET
 10
87.583302
 20
-100.407079
 30
745.622285
 70
    64
  0
VERTEX
  5
708
  8
TEAM-NET
 10
84.471695
 20
-88.720352
 30
749.330554
 70
    64
  0
VERTEX
  5
709
  8
TEAM-NET
 10
80.717208
 20
-77.5
 30
753.804978
 70
    64
  0
VERTEX
  5
70A
  8
TEAM-NET
 10
76.348414
 20
-66.831417
 30
759.011504
 70
    64
  0
VERTEX
  5
70B
  8
TEAM-NET
 10
71.398562
 20
-56.795797
 30
764.910507
 70
    64
  0
VERTEX
  5
70C
  8
TEAM-NET
 10
65.905324
 20
-47.469517
 30
771.457093
 70
    64
  0
VERTEX
  5
70D
  8
TEAM-NET
 10
59.910507
 20
-38.923556
 30
778.601438
 70
    64
  0
VERTEX
  5
70E
  8
TEAM-NET
 10
53.459735
 20
-31.222954
 30
786.289169
 70
    64
  0
VERTEX
  5
70F
  8
TEAM-NET
 10
46.602102
 20
-24.426316
 30
794.461778
 70
    64
  0
VERTEX
  5
710
  8
TEAM-NET
 10
39.389798
 20
-18.585371
 30
803.057066
 70
    64
  0
VERTEX
  5
711
  8
TEAM-NET
 10
31.877715
 20
-13.74457
 30
812.009619
 70
    64
  0
VERTEX
  5
712
  8
TEAM-NET
 10
24.123023
 20
-9.940755
 30
821.251301
 70
    64
  0
VERTEX
  5
713
  8
TEAM-NET
 10
16.18474
 20
-7.202876
 30
830.711778
 70
    64
  0
VERTEX
  5
714
  8
TEAM-NET
 10
8.123282
 20
-5.551769
 30
840.31905
 70
    64
  0
VERTEX
  5
715
  8
TEAM-NET
 10
0.0
 20
-5.0
 30
850.0
 70
    64
  0
VERTEX
  5
716
  8
TEAM-NET
 10
0.0
 20
-295.0
 30
850.0
 70
    64
  0
VERTEX
  5
717
  8
TEAM-NET
 10
7.24862
 20
-294.448231
 30
839.647898
 70
    64
  0
VERTEX
  5
718
  8
TEAM-NET
 10
14.442073
 20
-292.797124
 30
829.374582
 70
    64
  0
VERTEX
  5
719
  8
TEAM-NET
 10
21.525613
 20
-290.059245
 30
819.258238
 70
    64
  0
VERTEX
  5
71A
  8
TEAM-NET
 10
28.445331
 20
-286.25543
 30
809.375858
 70
    64
  0
VERTEX
  5
71B
  8
TEAM-NET
 10
35.148562
 20
-281.414629
 30
799.802651
 70
    64
  0
VERTEX
  5
71C
  8
TEAM-NET
 10
41.584292
 20
-275.573684
 30
790.611477
 70
    64
  0
VERTEX
  5
71D
  8
TEAM-NET
 10
47.70354
 20
-268.777046
 30
781.872285
 70
    64
  0
VERTEX
  5
71E
  8
TEAM-NET
 10
53.459735
 20
-261.076444
 30
773.651586
 70
    64
  0
VERTEX
  5
71F
  8
TEAM-NET
 10
58.809069
 20
-252.530483
 30
766.011945
 70
    64
  0
VERTEX
  5
720
  8
TEAM-NET
 10
63.710831
 20
-243.204203
 30
759.011504
 70
    64
  0
VERTEX
  5
721
  8
TEAM-NET
 10
68.127715
 20
-233.168583
 30
752.70354
 70
    64
  0
VERTEX
  5
722
  8
TEAM-NET
 10
72.026106
 20
-222.5
 30
747.13606
 70
    64
  0
VERTEX
  5
723
  8
TEAM-NET
 10
75.376335
 20
-211.279648
 30
742.351438
 70
    64
  0
VERTEX
  5
724
  8
TEAM-NET
 10
78.152904
 20
-199.592921
 30
738.386086
 70
    64
  0
VERTEX
  5
725
  8
TEAM-NET
 10
80.334683
 20
-187.528762
 30
735.270183
 70
    64
  0
VERTEX
  5
726
  8
TEAM-NET
 10
81.905066
 20
-175.178986
 30
733.027444
 70
    64
  0
VERTEX
  5
727
  8
TEAM-NET
 10
82.852102
 20
-162.637583
 30
731.674936
 70
    64
  0
VERTEX
  5
728
  8
TEAM-NET
 10
83.168583
 20
-150.0
 30
731.222954
 70
    64
  0
VERTEX
  5
729
  8
TEAM-NET
 10
82.852102
 20
-137.362417
 30
731.674936
 70
    64
  0
VERTEX
  5
72A
  8
TEAM-NET
 10
81.905066
 20
-124.821014
 30
733.027444
 70
    64
  0
VERTEX
  5
72B
  8
TEAM-NET
 10
80.334683
 20
-112.471238
 30
735.270183
 70
    64
  0
VERTEX
  5
72C
  8
TEAM-NET
 10
78.152904
 20
-100.407079
 30
738.386086
 70
    64
  0
VERTEX
  5
72D
  8
TEAM-NET
 10
75.376335
 20
-88.720352
 30
742.351438
 70
    64
  0
VERTEX
  5
72E
  8
TEAM-NET
 10
72.026106
 20
-77.5
 30
747.13606
 70
    64
  0
VERTEX
  5
72F
  8
TEAM-NET
 10
68.127715
 20
-66.831417
 30
752.70354
 70
    64
  0
VERTEX
  5
730
  8
TEAM-NET
 10
63.710831
 20
-56.795797
 30
759.011504
 70
    64
  0
VERTEX
  5
731
  8
TEAM-NET
 10
58.809069
 20
-47.469517
 30
766.011945
 70
    64
  0
VERTEX
  5
732
  8
TEAM-NET
 10
53.459735
 20
-38.923556
 30
773.651586
 70
    64
  0
VERTEX
  5
733
  8
TEAM-NET
 10
47.70354
 20
-31.222954
 30
781.872285
 70
    64
  0
VERTEX
  5
734
  8
TEAM-NET
 10
41.584292
 20
-24.426316
 30
790.611477
 70
    64
  0
VERTEX
  5
735
  8
TEAM-NET
 10
35.148562
 20
-18.585371
 30
799.802651
 70
    64
  0
VERTEX
  5
736
  8
TEAM-NET
 10
28.445331
 20
-13.74457
 30
809.375858
 70
    64
  0
VERTEX
  5
737
  8
TEAM-NET
 10
21.525613
 20
-9.940755
 30
819.258238
 70
    64
  0
VERTEX
  5
738
  8
TEAM-NET
 10
14.442073
 20
-7.202876
 30
829.374582
 70
    64
  0
VERTEX
  5
739
  8
TEAM-NET
 10
7.24862
 20
-5.551769
 30
839.647898
 70
    64
  0
VERTEX
  5
73A
  8
TEAM-NET
 10
0.0
 20
-5.0
 30
850.0
 70
    64
  0
VERTEX
  5
73B
  8
TEAM-NET
 10
0.0
 20
-295.0
 30
850.0
 70
    64
  0
VERTEX
  5
73C
  8
TEAM-NET
 10
6.318791
 20
-294.448231
 30
839.055532
 70
    64
  0
VERTEX
  5
73D
  8
TEAM-NET
 10
12.589493
 20
-292.797124
 30
828.194359
 70
    64
  0
VERTEX
  5
73E
  8
TEAM-NET
 10
18.764381
 20
-290.059245
 30
817.499139
 70
    64
  0
VERTEX
  5
73F
  8
TEAM-NET
 10
24.79646
 20
-286.25543
 30
807.051271
 70
    64
  0
VERTEX
  5
740
  8
TEAM-NET
 10
30.639824
 20
-281.414629
 30
796.930268
 70
    64
  0
VERTEX
  5
741
  8
TEAM-NET
 10
36.25
 20
-275.573684
 30
787.213158
 70
    64
  0
VERTEX
  5
742
  8
TEAM-NET
 10
41.584292
 20
-268.777046
 30
777.973894
 70
    64
  0
VERTEX
  5
743
  8
TEAM-NET
 10
46.602102
 20
-261.076444
 30
769.282792
 70
    64
  0
VERTEX
  5
744
  8
TEAM-NET
 10
51.265242
 20
-252.530483
 30
761.205997
 70
    64
  0
VERTEX
  5
745
  8
TEAM-NET
 10
55.538222
 20
-243.204203
 30
753.804978
 70
    64
  0
VERTEX
  5
746
  8
TEAM-NET
 10
59.388523
 20
-233.168583
 30
747.13606
 70
    64
  0
VERTEX
  5
747
  8
TEAM-NET
 10
62.786842
 20
-222.5
 30
741.25
 70
    64
  0
VERTEX
  5
748
  8
TEAM-NET
 10
65.707315
 20
-211.279648
 30
736.191593
 70
    64
  0
VERTEX
  5
749
  8
TEAM-NET
 10
68.127715
 20
-199.592921
 30
731.999336
 70
    64
  0
VERTEX
  5
74A
  8
TEAM-NET
 10
70.029622
 20
-187.528762
 30
728.705136
 70
    64
  0
VERTEX
  5
74B
  8
TEAM-NET
 10
71.398562
 20
-175.178986
 30
726.334063
 70
    64
  0
VERTEX
  5
74C
  8
TEAM-NET
 10
72.224116
 20
-162.637583
 30
724.904162
 70
    64
  0
VERTEX
  5
74D
  8
TEAM-NET
 10
72.5
 20
-150.0
 30
724.426316
 70
    64
  0
VERTEX
  5
74E
  8
TEAM-NET
 10
72.224116
 20
-137.362417
 30
724.904162
 70
    64
  0
VERTEX
  5
74F
  8
TEAM-NET
 10
71.398562
 20
-124.821014
 30
726.334063
 70
    64
  0
VERTEX
  5
750
  8
TEAM-NET
 10
70.029622
 20
-112.471238
 30
728.705136
 70
    64
  0
VERTEX
  5
751
  8
TEAM-NET
 10
68.127715
 20
-100.407079
 30
731.999336
 70
    64
  0
VERTEX
  5
752
  8
TEAM-NET
 10
65.707315
 20
-88.720352
 30
736.191593
 70
    64
  0
VERTEX
  5
753
  8
TEAM-NET
 10
62.786842
 20
-77.5
 30
741.25
 70
    64
  0
VERTEX
  5
754
  8
TEAM-NET
 10
59.388523
 20
-66.831417
 30
747.13606
 70
    64
  0
VERTEX
  5
755
  8
TEAM-NET
 10
55.538222
 20
-56.795797
 30
753.804978
 70
    64
  0
VERTEX
  5
756
  8
TEAM-NET
 10
51.265242
 20
-47.469517
 30
761.205997
 70
    64
  0
VERTEX
  5
757
  8
TEAM-NET
 10
46.602102
 20
-38.923556
 30
769.282792
 70
    64
  0
VERTEX
  5
758
  8
TEAM-NET
 10
41.584292
 20
-31.222954
 30
777.973894
 70
    64
  0
VERTEX
  5
759
  8
TEAM-NET
 10
36.25
 20
-24.426316
 30
787.213158
 70
    64
  0
VERTEX
  5
75A
  8
TEAM-NET
 10
30.639824
 20
-18.585371
 30
796.930268
 70
    64
  0
VERTEX
  5
75B
  8
TEAM-NET
 10
24.79646
 20
-13.74457
 30
807.051271
 70
    64
  0
VERTEX
  5
75C
  8
TEAM-NET
 10
18.764381
 20
-9.940755
 30
817.499139
 70
    64
  0
VERTEX
  5
75D
  8
TEAM-NET
 10
12.589493
 20
-7.202876
 30
828.194359
 70
    64
  0
VERTEX
  5
75E
  8
TEAM-NET
 10
6.318791
 20
-5.551769
 30
839.055532
 70
    64
  0
VERTEX
  5
75F
  8
TEAM-NET
 10
0.0
 20
-5.0
 30
850.0
 70
    64
  0
VERTEX
  5
760
  8
TEAM-NET
 10
0.0
 20
-295.0
 30
850.0
 70
    64
  0
VERTEX
  5
761
  8
TEAM-NET
 10
5.340873
 20
-294.448231
 30
838.54646
 70
    64
  0
VERTEX
  5
762
  8
TEAM-NET
 10
10.641099
 20
-292.797124
 30
827.180089
 70
    64
  0
VERTEX
  5
763
  8
TEAM-NET
 10
15.86034
 20
-290.059245
 30
815.987391
 70
    64
  0
VERTEX
  5
764
  8
TEAM-NET
 10
20.958874
 20
-286.25543
 30
805.05355
 70
    64
  0
VERTEX
  5
765
  8
TEAM-NET
 10
25.897898
 20
-281.414629
 30
794.461778
 70
    64
  0
VERTEX
  5
766
  8
TEAM-NET
 10
30.639824
 20
-275.573684
 30
784.292685
 70
    64
  0
VERTEX
  5
767
  8
TEAM-NET
 10
35.148562
 20
-268.777046
 30
774.623665
 70
    64
  0
VERTEX
  5
768
  8
TEAM-NET
 10
39.389798
 20
-261.076444
 30
765.528305
 70
    64
  0
VERTEX
  5
769
  8
TEAM-NET
 10
43.331255
 20
-252.530483
 30
757.075825
 70
    64
  0
VERTEX
  5
76A
  8
TEAM-NET
 10
46.942934
 20
-243.204203
 30
749.330554
 70
    64
  0
VERTEX
  5
76B
  8
TEAM-NET
 10
50.197349
 20
-233.168583
 30
742.351438
 70
    64
  0
VERTEX
  5
76C
  8
TEAM-NET
 10
53.069732
 20
-222.5
 30
736.191593
 70
    64
  0
VERTEX
  5
76D
  8
TEAM-NET
 10
55.538222
 20
-211.279648
 30
730.897898
 70
    64
  0
VERTEX
  5
76E
  8
TEAM-NET
 10
57.584033
 20
-199.592921
 30
726.510643
 70
    64
  0
VERTEX
  5
76F
  8
TEAM-NET
 10
59.191595
 20
-187.528762
 30
723.063216
 70
    64
  0
VERTEX
  5
770
  8
TEAM-NET
 10
60.348672
 20
-175.178986
 30
720.581854
 70
    64
  0
VERTEX
  5
771
  8
TEAM-NET
 10
61.04646
 20
-162.637583
 30
719.085443
 70
    64
  0
VERTEX
  5
772
  8
TEAM-NET
 10
61.279648
 20
-150.0
 30
718.585371
 70
    64
  0
VERTEX
  5
773
  8
TEAM-NET
 10
61.04646
 20
-137.362417
 30
719.085443
 70
    64
  0
VERTEX
  5
774
  8
TEAM-NET
 10
60.348672
 20
-124.821014
 30
720.581854
 70
    64
  0
VERTEX
  5
775
  8
TEAM-NET
 10
59.191595
 20
-112.471238
 30
723.063216
 70
    64
  0
VERTEX
  5
776
  8
TEAM-NET
 10
57.584033
 20
-100.407079
 30
726.510643
 70
    64
  0
VERTEX
  5
777
  8
TEAM-NET
 10
55.538222
 20
-88.720352
 30
730.897898
 70
    64
  0
VERTEX
  5
778
  8
TEAM-NET
 10
53.069732
 20
-77.5
 30
736.191593
 70
    64
  0
VERTEX
  5
779
  8
TEAM-NET
 10
50.197349
 20
-66.831417
 30
742.351438
 70
    64
  0
VERTEX
  5
77A
  8
TEAM-NET
 10
46.942934
 20
-56.795797
 30
749.330554
 70
    64
  0
VERTEX
  5
77B
  8
TEAM-NET
 10
43.331255
 20
-47.469517
 30
757.075825
 70
    64
  0
VERTEX
  5
77C
  8
TEAM-NET
 10
39.389798
 20
-38.923556
 30
765.528305
 70
    64
  0
VERTEX
  5
77D
  8
TEAM-NET
 10
35.148562
 20
-31.222954
 30
774.623665
 70
    64
  0
VERTEX
  5
77E
  8
TEAM-NET
 10
30.639824
 20
-24.426316
 30
784.292685
 70
    64
  0
VERTEX
  5
77F
  8
TEAM-NET
 10
25.897898
 20
-18.585371
 30
794.461778
 70
    64
  0
VERTEX
  5
780
  8
TEAM-NET
 10
20.958874
 20
-13.74457
 30
805.05355
 70
    64
  0
VERTEX
  5
781
  8
TEAM-NET
 10
15.86034
 20
-9.940755
 30
815.987391
 70
    64
  0
VERTEX
  5
782
  8
TEAM-NET
 10
10.641099
 20
-7.202876
 30
827.180089
 70
    64
  0
VERTEX
  5
783
  8
TEAM-NET
 10
5.340873
 20
-5.551769
 30
838.54646
 70
    64
  0
VERTEX
  5
784
  8
TEAM-NET
 10
0.0
 20
-5.0
 30
850.0
 70
    64
  0
VERTEX
  5
785
  8
TEAM-NET
 10
0.0
 20
-295.0
 30
850.0
 70
    64
  0
VERTEX
  5
786
  8
TEAM-NET
 10
4.322308
 20
-294.448231
 30
838.124557
 70
    64
  0
VERTEX
  5
787
  8
TEAM-NET
 10
8.61172
 20
-292.797124
 30
826.339493
 70
    64
  0
VERTEX
  5
788
  8
TEAM-NET
 10
12.835592
 20
-290.059245
 30
814.7345
 70
    64
  0
VERTEX
  5
789
  8
TEAM-NET
 10
16.961778
 20
-286.25543
 30
803.397898
 70
    64
  0
VERTEX
  5
78A
  8
TEAM-NET
 10
20.958874
 20
-281.414629
 30
792.415967
 70
    64
  0
VERTEX
  5
78B
  8
TEAM-NET
 10
24.79646
 20
-275.573684
 30
781.872285
 70
    64
  0
VERTEX
  5
78C
  8
TEAM-NET
 10
28.445331
 20
-268.777046
 30
771.847096
 70
    64
  0
VERTEX
  5
78D
  8
TEAM-NET
 10
31.877715
 20
-261.076444
 30
762.416698
 70
    64
  0
VERTEX
  5
78E
  8
TEAM-NET
 10
35.067491
 20
-252.530483
 30
753.652861
 70
    64
  0
VERTEX
  5
78F
  8
TEAM-NET
 10
37.990381
 20
-243.204203
 30
745.622285
 70
    64
  0
VERTEX
  5
790
  8
TEAM-NET
 10
40.624142
 20
-233.168583
 30
738.386086
 70
    64
  0
VERTEX
  5
791
  8
TEAM-NET
 10
42.948729
 20
-222.5
 30
731.999336
 70
    64
  0
VERTEX
  5
792
  8
TEAM-NET
 10
44.94645
 20
-211.279648
 30
726.510643
 70
    64
  0
VERTEX
  5
793
  8
TEAM-NET
 10
46.602102
 20
-199.592921
 30
721.961778
 70
    64
  0
VERTEX
  5
794
  8
TEAM-NET
 10
47.903083
 20
-187.528762
 30
718.387361
 70
    64
  0
VERTEX
  5
795
  8
TEAM-NET
 10
48.839493
 20
-175.178986
 30
715.814596
 70
    64
  0
VERTEX
  5
796
  8
TEAM-NET
 10
49.404205
 20
-162.637583
 30
714.263063
 70
    64
  0
VERTEX
  5
797
  8
TEAM-NET
 10
49.592921
 20
-150.0
 30
713.74457
 70
    64
  0
VERTEX
  5
798
  8
TEAM-NET
 10
49.404205
 20
-137.362417
 30
714.263063
 70
    64
  0
VERTEX
  5
799
  8
TEAM-NET
 10
48.839493
 20
-124.821014
 30
715.814596
 70
    64
  0
VERTEX
  5
79A
  8
TEAM-NET
 10
47.903083
 20
-112.471238
 30
718.387361
 70
    64
  0
VERTEX
  5
79B
  8
TEAM-NET
 10
46.602102
 20
-100.407079
 30
721.961778
 70
    64
  0
VERTEX
  5
79C
  8
TEAM-NET
 10
44.94645
 20
-88.720352
 30
726.510643
 70
    64
  0
VERTEX
  5
79D
  8
TEAM-NET
 10
42.948729
 20
-77.5
 30
731.999336
 70
    64
  0
VERTEX
  5
79E
  8
TEAM-NET
 10
40.624142
 20
-66.831417
 30
738.386086
 70
    64
  0
VERTEX
  5
79F
  8
TEAM-NET
 10
37.990381
 20
-56.795797
 30
745.622285
 70
    64
  0
VERTEX
  5
7A0
  8
TEAM-NET
 10
35.067491
 20
-47.469517
 30
753.652861
 70
    64
  0
VERTEX
  5
7A1
  8
TEAM-NET
 10
31.877715
 20
-38.923556
 30
762.416698
 70
    64
  0
VERTEX
  5
7A2
  8
TEAM-NET
 10
28.445331
 20
-31.222954
 30
771.847096
 70
    64
  0
VERTEX
  5
7A3
  8
TEAM-NET
 10
24.79646
 20
-24.426316
 30
781.872285
 70
    64
  0
VERTEX
  5
7A4
  8
TEAM-NET
 10
20.958874
 20
-18.585371
 30
792.415967
 70
    64
  0
VERTEX
  5
7A5
  8
TEAM-NET
 10
16.961778
 20
-13.74457
 30
803.397898
 70
    64
  0
VERTEX
  5
7A6
  8
TEAM-NET
 10
12.835592
 20
-9.940755
 30
814.7345
 70
    64
  0
VERTEX
  5
7A7
  8
TEAM-NET
 10
8.61172
 20
-7.202876
 30
826.339493
 70
    64
  0
VERTEX
  5
7A8
  8
TEAM-NET
 10
4.322308
 20
-5.551769
 30
838.124557
 70
    64
  0
VERTEX
  5
7A9
  8
TEAM-NET
 10
0.0
 20
-5.0
 30
850.0
 70
    64
  0
VERTEX
  5
7AA
  8
TEAM-NET
 10
0.0
 20
-295.0
 30
850.0
 70
    64
  0
VERTEX
  5
7AB
  8
TEAM-NET
 10
3.270847
 20
-294.448231
 30
837.793032
 70
    64
  0
VERTEX
  5
7AC
  8
TEAM-NET
 10
6.516801
 20
-292.797124
 30
825.678967
 70
    64
  0
VERTEX
  5
7AD
  8
TEAM-NET
 10
9.713158
 20
-290.059245
 30
813.75
 70
    64
  0
VERTEX
  5
7AE
  8
TEAM-NET
 10
12.835592
 20
-286.25543
 30
802.096917
 70
    64
  0
VERTEX
  5
7AF
  8
TEAM-NET
 10
15.86034
 20
-281.414629
 30
790.808405
 70
    64
  0
VERTEX
  5
7B0
  8
TEAM-NET
 10
18.764381
 20
-275.573684
 30
779.970378
 70
    64
  0
VERTEX
  5
7B1
  8
TEAM-NET
 10
21.525613
 20
-268.777046
 30
769.665317
 70
    64
  0
VERTEX
  5
7B2
  8
TEAM-NET
 10
24.123023
 20
-261.076444
 30
759.971653
 70
    64
  0
VERTEX
  5
7B3
  8
TEAM-NET
 10
26.536842
 20
-252.530483
 30
750.963158
 70
    64
  0
VERTEX
  5
7B4
  8
TEAM-NET
 10
28.748699
 20
-243.204203
 30
742.708394
 70
    64
  0
VERTEX
  5
7B5
  8
TEAM-NET
 10
30.741762
 20
-233.168583
 30
735.270183
 70
    64
  0
VERTEX
  5
7B6
  8
TEAM-NET
 10
32.500861
 20
-222.5
 30
728.705136
 70
    64
  0
VERTEX
  5
7B7
  8
TEAM-NET
 10
34.012609
 20
-211.279648
 30
723.063216
 70
    64
  0
VERTEX
  5
7B8
  8
TEAM-NET
 10
35.2655
 20
-199.592921
 30
718.387361
 70
    64
  0
VERTEX
  5
7B9
  8
TEAM-NET
 10
36.25
 20
-187.528762
 30
714.713158
 70
    64
  0
VERTEX
  5
7BA
  8
TEAM-NET
 10
36.958615
 20
-175.178986
 30
712.06857
 70
    64
  0
VERTEX
  5
7BB
  8
TEAM-NET
 10
37.385953
 20
-162.637583
 30
710.473723
 70
    64
  0
VERTEX
  5
7BC
  8
TEAM-NET
 10
37.528762
 20
-150.0
 30
709.940755
 70
    64
  0
VERTEX
  5
7BD
  8
TEAM-NET
 10
37.385953
 20
-137.362417
 30
710.473723
 70
    64
  0
VERTEX
  5
7BE
  8
TEAM-NET
 10
36.958615
 20
-124.821014
 30
712.06857
 70
    64
  0
VERTEX
  5
7BF
  8
TEAM-NET
 10
36.25
 20
-112.471238
 30
714.713158
 70
    64
  0
VERTEX
  5
7C0
  8
TEAM-NET
 10
35.2655
 20
-100.407079
 30
718.387361
 70
    64
  0
VERTEX
  5
7C1
  8
TEAM-NET
 10
34.012609
 20
-88.720352
 30
723.063216
 70
    64
  0
VERTEX
  5
7C2
  8
TEAM-NET
 10
32.500861
 20
-77.5
 30
728.705136
 70
    64
  0
VERTEX
  5
7C3
  8
TEAM-NET
 10
30.741762
 20
-66.831417
 30
735.270183
 70
    64
  0
VERTEX
  5
7C4
  8
TEAM-NET
 10
28.748699
 20
-56.795797
 30
742.708394
 70
    64
  0
VERTEX
  5
7C5
  8
TEAM-NET
 10
26.536842
 20
-47.469517
 30
750.963158
 70
    64
  0
VERTEX
  5
7C6
  8
TEAM-NET
 10
24.123023
 20
-38.923556
 30
759.971653
 70
    64
  0
VERTEX
  5
7C7
  8
TEAM-NET
 10
21.525613
 20
-31.222954
 30
769.665317
 70
    64
  0
VERTEX
  5
7C8
  8
TEAM-NET
 10
18.764381
 20
-24.426316
 30
779.970378
 70
    64
  0
VERTEX
  5
7C9
  8
TEAM-NET
 10
15.86034
 20
-18.585371
 30
790.808405
 70
    64
  0
VERTEX
  5
7CA
  8
TEAM-NET
 10
12.835592
 20
-13.74457
 30
802.096917
 70
    64
  0
VERTEX
  5
7CB
  8
TEAM-NET
 10
9.713158
 20
-9.940755
 30
813.75
 70
    64
  0
VERTEX
  5
7CC
  8
TEAM-NET
 10
6.516801
 20
-7.202876
 30
825.678967
 70
    64
  0
VERTEX
  5
7CD
  8
TEAM-NET
 10
3.270847
 20
-5.551769
 30
837.793032
 70
    64
  0
VERTEX
  5
7CE
  8
TEAM-NET
 10
0.0
 20
-5.0
 30
850.0
 70
    64
  0
VERTEX
  5
7CF
  8
TEAM-NET
 10
0.0
 20
-295.0
 30
850.0
 70
    64
  0
VERTEX
  5
7D0
  8
TEAM-NET
 10
2.194493
 20
-294.448231
 30
837.554411
 70
    64
  0
VERTEX
  5
7D1
  8
TEAM-NET
 10
4.372285
 20
-292.797124
 30
825.20354
 70
    64
  0
VERTEX
  5
7D2
  8
TEAM-NET
 10
6.516801
 20
-290.059245
 30
813.041385
 70
    64
  0
VERTEX
  5
7D3
  8
TEAM-NET
 10
8.61172
 20
-286.25543
 30
801.160507
 70
    64
  0
VERTEX
  5
7D4
  8
TEAM-NET
 10
10.641099
 20
-281.414629
 30
789.651328
 70
    64
  0
VERTEX
  5
7D5
  8
TEAM-NET
 10
12.589493
 20
-275.573684
 30
778.601438
 70
    64
  0
VERTEX
  5
7D6
  8
TEAM-NET
 10
14.442073
 20
-268.777046
 30
768.094934
 70
    64
  0
VERTEX
  5
7D7
  8
TEAM-NET
 10
16.18474
 20
-261.076444
 30
758.211778
 70
    64
  0
VERTEX
  5
7D8
  8
TEAM-NET
 10
17.804232
 20
-252.530483
 30
749.027185
 70
    64
  0
VERTEX
  5
7D9
  8
TEAM-NET
 10
19.288222
 20
-243.204203
 30
740.611057
 70
    64
  0
VERTEX
  5
7DA
  8
TEAM-NET
 10
20.625418
 20
-233.168583
 30
733.027444
 70
    64
  0
VERTEX
  5
7DB
  8
TEAM-NET
 10
21.805641
 20
-222.5
 30
726.334063
 70
    64
  0
VERTEX
  5
7DC
  8
TEAM-NET
 10
22.819911
 20
-211.279648
 30
720.581854
 70
    64
  0
VERTEX
  5
7DD
  8
TEAM-NET
 10
23.660507
 20
-199.592921
 30
715.814596
 70
    64
  0
VERTEX
  5
7DE
  8
TEAM-NET
 10
24.321033
 20
-187.528762
 30
712.06857
 70
    64
  0
VERTEX
  5
7DF
  8
TEAM-NET
 10
24.79646
 20
-175.178986
 30
709.372285
 70
    64
  0
VERTEX
  5
7E0
  8
TEAM-NET
 10
25.083172
 20
-162.637583
 30
707.746262
 70
    64
  0
VERTEX
  5
7E1
  8
TEAM-NET
 10
25.178986
 20
-150.0
 30
707.202876
 70
    64
  0
VERTEX
  5
7E2
  8
TEAM-NET
 10
25.083172
 20
-137.362417
 30
707.746262
 70
    64
  0
VERTEX
  5
7E3
  8
TEAM-NET
 10
24.79646
 20
-124.821014
 30
709.372285
 70
    64
  0
VERTEX
  5
7E4
  8
TEAM-NET
 10
24.321033
 20
-112.471238
 30
712.06857
 70
    64
  0
VERTEX
  5
7E5
  8
TEAM-NET
 10
23.660507
 20
-100.407079
 30
715.814596
 70
    64
  0
VERTEX
  5
7E6
  8
TEAM-NET
 10
22.819911
 20
-88.720352
 30
720.581854
 70
    64
  0
VERTEX
  5
7E7
  8
TEAM-NET
 10
21.805641
 20
-77.5
 30
726.334063
 70
    64
  0
VERTEX
  5
7E8
  8
TEAM-NET
 10
20.625418
 20
-66.831417
 30
733.027444
 70
    64
  0
VERTEX
  5
7E9
  8
TEAM-NET
 10
19.288222
 20
-56.795797
 30
740.611057
 70
    64
  0
VERTEX
  5
7EA
  8
TEAM-NET
 10
17.804232
 20
-47.469517
 30
749.027185
 70
    64
  0
VERTEX
  5
7EB
  8
TEAM-NET
 10
16.18474
 20
-38.923556
 30
758.211778
 70
    64
  0
VERTEX
  5
7EC
  8
TEAM-NET
 10
14.442073
 20
-31.222954
 30
768.094934
 70
    64
  0
VERTEX
  5
7ED
  8
TEAM-NET
 10
12.589493
 20
-24.426316
 30
778.601438
 70
    64
  0
VERTEX
  5
7EE
  8
TEAM-NET
 10
10.641099
 20
-18.585371
 30
789.651328
 70
    64
  0
VERTEX
  5
7EF
  8
TEAM-NET
 10
8.61172
 20
-13.74457
 30
801.160507
 70
    64
  0
VERTEX
  5
7F0
  8
TEAM-NET
 10
6.516801
 20
-9.940755
 30
813.041385
 70
    64
  0
VERTEX
  5
7F1
  8
TEAM-NET
 10
4.372285
 20
-7.202876
 30
825.20354
 70
    64
  0
VERTEX
  5
7F2
  8
TEAM-NET
 10
2.194493
 20
-5.551769
 30
837.554411
 70
    64
  0
VERTEX
  5
7F3
  8
TEAM-NET
 10
0.0
 20
-5.0
 30
850.0
 70
    64
  0
VERTEX
  5
7F4
  8
TEAM-NET
 10
0.0
 20
-295.0
 30
850.0
 70
    64
  0
VERTEX
  5
7F5
  8
TEAM-NET
 10
1.101438
 20
-294.448231
 30
837.410507
 70
    64
  0
VERTEX
  5
7F6
  8
TEAM-NET
 10
2.194493
 20
-292.797124
 30
824.916828
 70
    64
  0
VERTEX
  5
7F7
  8
TEAM-NET
 10
3.270847
 20
-290.059245
 30
812.614047
 70
    64
  0
VERTEX
  5
7F8
  8
TEAM-NET
 10
4.322308
 20
-286.25543
 30
800.595795
 70
    64
  0
VERTEX
  5
7F9
  8
TEAM-NET
 10
5.340873
 20
-281.414629
 30
788.95354
 70
    64
  0
VERTEX
  5
7FA
  8
TEAM-NET
 10
6.318791
 20
-275.573684
 30
777.775884
 70
    64
  0
VERTEX
  5
7FB
  8
TEAM-NET
 10
7.24862
 20
-268.777046
 30
767.147898
 70
    64
  0
VERTEX
  5
7FC
  8
TEAM-NET
 10
8.123282
 20
-261.076444
 30
757.150467
 70
    64
  0
VERTEX
  5
7FD
  8
TEAM-NET
 10
8.93612
 20
-252.530483
 30
747.859676
 70
    64
  0
VERTEX
  5
7FE
  8
TEAM-NET
 10
9.68095
 20
-243.204203
 30
739.346235
 70
    64
  0
VERTEX
  5
7FF
  8
TEAM-NET
 10
10.352102
 20
-233.168583
 30
731.674936
 70
    64
  0
VERTEX
  5
800
  8
TEAM-NET
 10
10.944468
 20
-222.5
 30
724.904162
 70
    64
  0
VERTEX
  5
801
  8
TEAM-NET
 10
11.45354
 20
-211.279648
 30
719.085443
 70
    64
  0
VERTEX
  5
802
  8
TEAM-NET
 10
11.875443
 20
-199.592921
 30
714.263063
 70
    64
  0
VERTEX
  5
803
  8
TEAM-NET
 10
12.206968
 20
-187.528762
 30
710.473723
 70
    64
  0
VERTEX
  5
804
  8
TEAM-NET
 10
12.445589
 20
-175.178986
 30
707.746262
 70
    64
  0
VERTEX
  5
805
  8
TEAM-NET
 10
12.589493
 20
-162.637583
 30
706.101438
 70
    64
  0
VERTEX
  5
806
  8
TEAM-NET
 10
12.637583
 20
-150.0
 30
705.551769
 70
    64
  0
VERTEX
  5
807
  8
TEAM-NET
 10
12.589493
 20
-137.362417
 30
706.101438
 70
    64
  0
VERTEX
  5
808
  8
TEAM-NET
 10
12.445589
 20
-124.821014
 30
707.746262
 70
    64
  0
VERTEX
  5
809
  8
TEAM-NET
 10
12.206968
 20
-112.471238
 30
710.473723
 70
    64
  0
VERTEX
  5
80A
  8
TEAM-NET
 10
11.875443
 20
-100.407079
 30
714.263063
 70
    64
  0
VERTEX
  5
80B
  8
TEAM-NET
 10
11.45354
 20
-88.720352
 30
719.085443
 70
    64
  0
VERTEX
  5
80C
  8
TEAM-NET
 10
10.944468
 20
-77.5
 30
724.904162
 70
    64
  0
VERTEX
  5
80D
  8
TEAM-NET
 10
10.352102
 20
-66.831417
 30
731.674936
 70
    64
  0
VERTEX
  5
80E
  8
TEAM-NET
 10
9.68095
 20
-56.795797
 30
739.346235
 70
    64
  0
VERTEX
  5
80F
  8
TEAM-NET
 10
8.93612
 20
-47.469517
 30
747.859676
 70
    64
  0
VERTEX
  5
810
  8
TEAM-NET
 10
8.123282
 20
-38.923556
 30
757.150467
 70
    64
  0
VERTEX
  5
811
  8
TEAM-NET
 10
7.24862
 20
-31.222954
 30
767.147898
 70
    64
  0
VERTEX
  5
812
  8
TEAM-NET
 10
6.318791
 20
-24.426316
 30
777.775884
 70
    64
  0
VERTEX
  5
813
  8
TEAM-NET
 10
5.340873
 20
-18.585371
 30
788.95354
 70
    64
  0
VERTEX
  5
814
  8
TEAM-NET
 10
4.322308
 20
-13.74457
 30
800.595795
 70
    64
  0
VERTEX
  5
815
  8
TEAM-NET
 10
3.270847
 20
-9.940755
 30
812.614047
 70
    64
  0
VERTEX
  5
816
  8
TEAM-NET
 10
2.194493
 20
-7.202876
 30
824.916828
 70
    64
  0
VERTEX
  5
817
  8
TEAM-NET
 10
1.101438
 20
-5.551769
 30
837.410507
 70
    64
  0
VERTEX
  5
818
  8
TEAM-NET
 10
0.0
 20
-5.0
 30
850.0
 70
    64
  0
VERTEX
  5
819
  8
TEAM-NET
 10
0.0
 20
-295.0
 30
850.0
 70
    64
  0
VERTEX
  5
81A
  8
TEAM-NET
 10
0.0
 20
-294.448231
 30
837.362417
 70
    64
  0
VERTEX
  5
81B
  8
TEAM-NET
 10
0.0
 20
-292.797124
 30
824.821014
 70
    64
  0
VERTEX
  5
81C
  8
TEAM-NET
 10
0.0
 20
-290.059245
 30
812.471238
 70
    64
  0
VERTEX
  5
81D
  8
TEAM-NET
 10
0.0
 20
-286.25543
 30
800.407079
 70
    64
  0
VERTEX
  5
81E
  8
TEAM-NET
 10
0.0
 20
-281.414629
 30
788.720352
 70
    64
  0
VERTEX
  5
81F
  8
TEAM-NET
 10
0.0
 20
-275.573684
 30
777.5
 70
    64
  0
VERTEX
  5
820
  8
TEAM-NET
 10
0.0
 20
-268.777046
 30
766.831417
 70
    64
  0
VERTEX
  5
821
  8
TEAM-NET
 10
0.0
 20
-261.076444
 30
756.795797
 70
    64
  0
VERTEX
  5
822
  8
TEAM-NET
 10
0.0
 20
-252.530483
 30
747.469517
 70
    64
  0
VERTEX
  5
823
  8
TEAM-NET
 10
0.0
 20
-243.204203
 30
738.923556
 70
    64
  0
VERTEX
  5
824
  8
TEAM-NET
 10
0.0
 20
-233.168583
 30
731.222954
 70
    64
  0
VERTEX
  5
825
  8
TEAM-NET
 10
0.0
 20
-222.5
 30
724.426316
 70
    64
  0
VERTEX
  5
826
  8
TEAM-NET
 10
0.0
 20
-211.279648
 30
718.585371
 70
    64
  0
VERTEX
  5
827
  8
TEAM-NET
 10
0.0
 20
-199.592921
 30
713.74457
 70
    64
  0
VERTEX
  5
828
  8
TEAM-NET
 10
0.0
 20
-187.528762
 30
709.940755
 70
    64
  0
VERTEX
  5
829
  8
TEAM-NET
 10
0.0
 20
-175.178986
 30
707.202876
 70
    64
  0
VERTEX
  5
82A
  8
TEAM-NET
 10
0.0
 20
-162.637583
 30
705.551769
 70
    64
  0
VERTEX
  5
82B
  8
TEAM-NET
 10
0.0
 20
-150.0
 30
705.0
 70
    64
  0
VERTEX
  5
82C
  8
TEAM-NET
 10
0.0
 20
-137.362417
 30
705.551769
 70
    64
  0
VERTEX
  5
82D
  8
TEAM-NET
 10
0.0
 20
-124.821014
 30
707.202876
 70
    64
  0
VERTEX
  5
82E
  8
TEAM-NET
 10
0.0
 20
-112.471238
 30
709.940755
 70
    64
  0
VERTEX
  5
82F
  8
TEAM-NET
 10
0.0
 20
-100.407079
 30
713.74457
 70
    64
  0
VERTEX
  5
830
  8
TEAM-NET
 10
0.0
 20
-88.720352
 30
718.585371
 70
    64
  0
VERTEX
  5
831
  8
TEAM-NET
 10
0.0
 20
-77.5
 30
724.426316
 70
    64
  0
VERTEX
  5
832
  8
TEAM-NET
 10
0.0
 20
-66.831417
 30
731.222954
 70
    64
  0
VERTEX
  5
833
  8
TEAM-NET
 10
0.0
 20
-56.795797
 30
738.923556
 70
    64
  0
VERTEX
  5
834
  8
TEAM-NET
 10
0.0
 20
-47.469517
 30
747.469517
 70
    64
  0
VERTEX
  5
835
  8
TEAM-NET
 10
0.0
 20
-38.923556
 30
756.795797
 70
    64
  0
VERTEX
  5
836
  8
TEAM-NET
 10
0.0
 20
-31.222954
 30
766.831417
 70
    64
  0
VERTEX
  5
837
  8
TEAM-NET
 10
0.0
 20
-24.426316
 30
777.5
 70
    64
  0
VERTEX
  5
838
  8
TEAM-NET
 10
0.0
 20
-18.585371
 30
788.720352
 70
    64
  0
VERTEX
  5
839
  8
TEAM-NET
 10
0.0
 20
-13.74457
 30
800.407079
 70
    64
  0
VERTEX
  5
83A
  8
TEAM-NET
 10
0.0
 20
-9.940755
 30
812.471238
 70
    64
  0
VERTEX
  5
83B
  8
TEAM-NET
 10
0.0
 20
-7.202876
 30
824.821014
 70
    64
  0
VERTEX
  5
83C
  8
TEAM-NET
 10
0.0
 20
-5.551769
 30
837.362417
 70
    64
  0
VERTEX
  5
83D
  8
TEAM-NET
 10
0.0
 20
-5.0
 30
850.0
 70
    64
  0
VERTEX
  5
83E
  8
TEAM-NET
 10
0.0
 20
-295.0
 30
850.0
 70
    64
  0
VERTEX
  5
83F
  8
TEAM-NET
 10
-1.101438
 20
-294.448231
 30
837.410507
 70
    64
  0
VERTEX
  5
840
  8
TEAM-NET
 10
-2.194493
 20
-292.797124
 30
824.916828
 70
    64
  0
VERTEX
  5
841
  8
TEAM-NET
 10
-3.270847
 20
-290.059245
 30
812.614047
 70
    64
  0
VERTEX
  5
842
  8
TEAM-NET
 10
-4.322308
 20
-286.25543
 30
800.595795
 70
    64
  0
VERTEX
  5
843
  8
TEAM-NET
 10
-5.340873
 20
-281.414629
 30
788.95354
 70
    64
  0
VERTEX
  5
844
  8
TEAM-NET
 10
-6.318791
 20
-275.573684
 30
777.775884
 70
    64
  0
VERTEX
  5
845
  8
TEAM-NET
 10
-7.24862
 20
-268.777046
 30
767.147898
 70
    64
  0
VERTEX
  5
846
  8
TEAM-NET
 10
-8.123282
 20
-261.076444
 30
757.150467
 70
    64
  0
VERTEX
  5
847
  8
TEAM-NET
 10
-8.93612
 20
-252.530483
 30
747.859676
 70
    64
  0
VERTEX
  5
848
  8
TEAM-NET
 10
-9.68095
 20
-243.204203
 30
739.346235
 70
    64
  0
VERTEX
  5
849
  8
TEAM-NET
 10
-10.352102
 20
-233.168583
 30
731.674936
 70
    64
  0
VERTEX
  5
84A
  8
TEAM-NET
 10
-10.944468
 20
-222.5
 30
724.904162
 70
    64
  0
VERTEX
  5
84B
  8
TEAM-NET
 10
-11.45354
 20
-211.279648
 30
719.085443
 70
    64
  0
VERTEX
  5
84C
  8
TEAM-NET
 10
-11.875443
 20
-199.592921
 30
714.263063
 70
    64
  0
VERTEX
  5
84D
  8
TEAM-NET
 10
-12.206968
 20
-187.528762
 30
710.473723
 70
    64
  0
VERTEX
  5
84E
  8
TEAM-NET
 10
-12.445589
 20
-175.178986
 30
707.746262
 70
    64
  0
VERTEX
  5
84F
  8
TEAM-NET
 10
-12.589493
 20
-162.637583
 30
706.101438
 70
    64
  0
VERTEX
  5
850
  8
TEAM-NET
 10
-12.637583
 20
-150.0
 30
705.551769
 70
    64
  0
VERTEX
  5
851
  8
TEAM-NET
 10
-12.589493
 20
-137.362417
 30
706.101438
 70
    64
  0
VERTEX
  5
852
  8
TEAM-NET
 10
-12.445589
 20
-124.821014
 30
707.746262
 70
    64
  0
VERTEX
  5
853
  8
TEAM-NET
 10
-12.206968
 20
-112.471238
 30
710.473723
 70
    64
  0
VERTEX
  5
854
  8
TEAM-NET
 10
-11.875443
 20
-100.407079
 30
714.263063
 70
    64
  0
VERTEX
  5
855
  8
TEAM-NET
 10
-11.45354
 20
-88.720352
 30
719.085443
 70
    64
  0
VERTEX
  5
856
  8
TEAM-NET
 10
-10.944468
 20
-77.5
 30
724.904162
 70
    64
  0
VERTEX
  5
857
  8
TEAM-NET
 10
-10.352102
 20
-66.831417
 30
731.674936
 70
    64
  0
VERTEX
  5
858
  8
TEAM-NET
 10
-9.68095
 20
-56.795797
 30
739.346235
 70
    64
  0
VERTEX
  5
859
  8
TEAM-NET
 10
-8.93612
 20
-47.469517
 30
747.859676
 70
    64
  0
VERTEX
  5
85A
  8
TEAM-NET
 10
-8.123282
 20
-38.923556
 30
757.150467
 70
    64
  0
VERTEX
  5
85B
  8
TEAM-NET
 10
-7.24862
 20
-31.222954
 30
767.147898
 70
    64
  0
VERTEX
  5
85C
  8
TEAM-NET
 10
-6.318791
 20
-24.426316
 30
777.775884
 70
    64
  0
VERTEX
  5
85D
  8
TEAM-NET
 10
-5.340873
 20
-18.585371
 30
788.95354
 70
    64
  0
VERTEX
  5
85E
  8
TEAM-NET
 10
-4.322308
 20
-13.74457
 30
800.595795
 70
    64
  0
VERTEX
  5
85F
  8
TEAM-NET
 10
-3.270847
 20
-9.940755
 30
812.614047
 70
    64
  0
VERTEX
  5
860
  8
TEAM-NET
 10
-2.194493
 20
-7.202876
 30
824.916828
 70
    64
  0
VERTEX
  5
861
  8
TEAM-NET
 10
-1.101438
 20
-5.551769
 30
837.410507
 70
    64
  0
VERTEX
  5
862
  8
TEAM-NET
 10
0.0
 20
-5.0
 30
850.0
 70
    64
  0
VERTEX
  5
863
  8
TEAM-NET
 10
0.0
 20
-295.0
 30
850.0
 70
    64
  0
VERTEX
  5
864
  8
TEAM-NET
 10
-2.194493
 20
-294.448231
 30
837.554411
 70
    64
  0
VERTEX
  5
865
  8
TEAM-NET
 10
-4.372285
 20
-292.797124
 30
825.20354
 70
    64
  0
VERTEX
  5
866
  8
TEAM-NET
 10
-6.516801
 20
-290.059245
 30
813.041385
 70
    64
  0
VERTEX
  5
867
  8
TEAM-NET
 10
-8.61172
 20
-286.25543
 30
801.160507
 70
    64
  0
VERTEX
  5
868
  8
TEAM-NET
 10
-10.641099
 20
-281.414629
 30
789.651328
 70
    64
  0
VERTEX
  5
869
  8
TEAM-NET
 10
-12.589493
 20
-275.573684
 30
778.601438
 70
    64
  0
VERTEX
  5
86A
  8
TEAM-NET
 10
-14.442073
 20
-268.777046
 30
768.094934
 70
    64
  0
VERTEX
  5
86B
  8
TEAM-NET
 10
-16.18474
 20
-261.076444
 30
758.211778
 70
    64
  0
VERTEX
  5
86C
  8
TEAM-NET
 10
-17.804232
 20
-252.530483
 30
749.027185
 70
    64
  0
VERTEX
  5
86D
  8
TEAM-NET
 10
-19.288222
 20
-243.204203
 30
740.611057
 70
    64
  0
VERTEX
  5
86E
  8
TEAM-NET
 10
-20.625418
 20
-233.168583
 30
733.027444
 70
    64
  0
VERTEX
  5
86F
  8
TEAM-NET
 10
-21.805641
 20
-222.5
 30
726.334063
 70
    64
  0
VERTEX
  5
870
  8
TEAM-NET
 10
-22.819911
 20
-211.279648
 30
720.581854
 70
    64
  0
VERTEX
  5
871
  8
TEAM-NET
 10
-23.660507
 20
-199.592921
 30
715.814596
 70
    64
  0
VERTEX
  5
872
  8
TEAM-NET
 10
-24.321033
 20
-187.528762
 30
712.06857
 70
    64
  0
VERTEX
  5
873
  8
TEAM-NET
 10
-24.79646
 20
-175.178986
 30
709.372285
 70
    64
  0
VERTEX
  5
874
  8
TEAM-NET
 10
-25.083172
 20
-162.637583
 30
707.746262
 70
    64
  0
VERTEX
  5
875
  8
TEAM-NET
 10
-25.178986
 20
-150.0
 30
707.202876
 70
    64
  0
VERTEX
  5
876
  8
TEAM-NET
 10
-25.083172
 20
-137.362417
 30
707.746262
 70
    64
  0
VERTEX
  5
877
  8
TEAM-NET
 10
-24.79646
 20
-124.821014
 30
709.372285
 70
    64
  0
VERTEX
  5
878
  8
TEAM-NET
 10
-24.321033
 20
-112.471238
 30
712.06857
 70
    64
  0
VERTEX
  5
879
  8
TEAM-NET
 10
-23.660507
 20
-100.407079
 30
715.814596
 70
    64
  0
VERTEX
  5
87A
  8
TEAM-NET
 10
-22.819911
 20
-88.720352
 30
720.581854
 70
    64
  0
VERTEX
  5
87B
  8
TEAM-NET
 10
-21.805641
 20
-77.5
 30
726.334063
 70
    64
  0
VERTEX
  5
87C
  8
TEAM-NET
 10
-20.625418
 20
-66.831417
 30
733.027444
 70
    64
  0
VERTEX
  5
87D
  8
TEAM-NET
 10
-19.288222
 20
-56.795797
 30
740.611057
 70
    64
  0
VERTEX
  5
87E
  8
TEAM-NET
 10
-17.804232
 20
-47.469517
 30
749.027185
 70
    64
  0
VERTEX
  5
87F
  8
TEAM-NET
 10
-16.18474
 20
-38.923556
 30
758.211778
 70
    64
  0
VERTEX
  5
880
  8
TEAM-NET
 10
-14.442073
 20
-31.222954
 30
768.094934
 70
    64
  0
VERTEX
  5
881
  8
TEAM-NET
 10
-12.589493
 20
-24.426316
 30
778.601438
 70
    64
  0
VERTEX
  5
882
  8
TEAM-NET
 10
-10.641099
 20
-18.585371
 30
789.651328
 70
    64
  0
VERTEX
  5
883
  8
TEAM-NET
 10
-8.61172
 20
-13.74457
 30
801.160507
 70
    64
  0
VERTEX
  5
884
  8
TEAM-NET
 10
-6.516801
 20
-9.940755
 30
813.041385
 70
    64
  0
VERTEX
  5
885
  8
TEAM-NET
 10
-4.372285
 20
-7.202876
 30
825.20354
 70
    64
  0
VERTEX
  5
886
  8
TEAM-NET
 10
-2.194493
 20
-5.551769
 30
837.554411
 70
    64
  0
VERTEX
  5
887
  8
TEAM-NET
 10
0.0
 20
-5.0
 30
850.0
 70
    64
  0
VERTEX
  5
888
  8
TEAM-NET
 10
0.0
 20
-295.0
 30
850.0
 70
    64
  0
VERTEX
  5
889
  8
TEAM-NET
 10
-3.270847
 20
-294.448231
 30
837.793032
 70
    64
  0
VERTEX
  5
88A
  8
TEAM-NET
 10
-6.516801
 20
-292.797124
 30
825.678967
 70
    64
  0
VERTEX
  5
88B
  8
TEAM-NET
 10
-9.713158
 20
-290.059245
 30
813.75
 70
    64
  0
VERTEX
  5
88C
  8
TEAM-NET
 10
-12.835592
 20
-286.25543
 30
802.096917
 70
    64
  0
VERTEX
  5
88D
  8
TEAM-NET
 10
-15.86034
 20
-281.414629
 30
790.808405
 70
    64
  0
VERTEX
  5
88E
  8
TEAM-NET
 10
-18.764381
 20
-275.573684
 30
779.970378
 70
    64
  0
VERTEX
  5
88F
  8
TEAM-NET
 10
-21.525613
 20
-268.777046
 30
769.665317
 70
    64
  0
VERTEX
  5
890
  8
TEAM-NET
 10
-24.123023
 20
-261.076444
 30
759.971653
 70
    64
  0
VERTEX
  5
891
  8
TEAM-NET
 10
-26.536842
 20
-252.530483
 30
750.963158
 70
    64
  0
VERTEX
  5
892
  8
TEAM-NET
 10
-28.748699
 20
-243.204203
 30
742.708394
 70
    64
  0
VERTEX
  5
893
  8
TEAM-NET
 10
-30.741762
 20
-233.168583
 30
735.270183
 70
    64
  0
VERTEX
  5
894
  8
TEAM-NET
 10
-32.500861
 20
-222.5
 30
728.705136
 70
    64
  0
VERTEX
  5
895
  8
TEAM-NET
 10
-34.012609
 20
-211.279648
 30
723.063216
 70
    64
  0
VERTEX
  5
896
  8
TEAM-NET
 10
-35.2655
 20
-199.592921
 30
718.387361
 70
    64
  0
VERTEX
  5
897
  8
TEAM-NET
 10
-36.25
 20
-187.528762
 30
714.713158
 70
    64
  0
VERTEX
  5
898
  8
TEAM-NET
 10
-36.958615
 20
-175.178986
 30
712.06857
 70
    64
  0
VERTEX
  5
899
  8
TEAM-NET
 10
-37.385953
 20
-162.637583
 30
710.473723
 70
    64
  0
VERTEX
  5
89A
  8
TEAM-NET
 10
-37.528762
 20
-150.0
 30
709.940755
 70
    64
  0
VERTEX
  5
89B
  8
TEAM-NET
 10
-37.385953
 20
-137.362417
 30
710.473723
 70
    64
  0
VERTEX
  5
89C
  8
TEAM-NET
 10
-36.958615
 20
-124.821014
 30
712.06857
 70
    64
  0
VERTEX
  5
89D
  8
TEAM-NET
 10
-36.25
 20
-112.471238
 30
714.713158
 70
    64
  0
VERTEX
  5
89E
  8
TEAM-NET
 10
-35.2655
 20
-100.407079
 30
718.387361
 70
    64
  0
VERTEX
  5
89F
  8
TEAM-NET
 10
-34.012609
 20
-88.720352
 30
723.063216
 70
    64
  0
VERTEX
  5
8A0
  8
TEAM-NET
 10
-32.500861
 20
-77.5
 30
728.705136
 70
    64
  0
VERTEX
  5
8A1
  8
TEAM-NET
 10
-30.741762
 20
-66.831417
 30
735.270183
 70
    64
  0
VERTEX
  5
8A2
  8
TEAM-NET
 10
-28.748699
 20
-56.795797
 30
742.708394
 70
    64
  0
VERTEX
  5
8A3
  8
TEAM-NET
 10
-26.536842
 20
-47.469517
 30
750.963158
 70
    64
  0
VERTEX
  5
8A4
  8
TEAM-NET
 10
-24.123023
 20
-38.923556
 30
759.971653
 70
    64
  0
VERTEX
  5
8A5
  8
TEAM-NET
 10
-21.525613
 20
-31.222954
 30
769.665317
 70
    64
  0
VERTEX
  5
8A6
  8
TEAM-NET
 10
-18.764381
 20
-24.426316
 30
779.970378
 70
    64
  0
VERTEX
  5
8A7
  8
TEAM-NET
 10
-15.86034
 20
-18.585371
 30
790.808405
 70
    64
  0
VERTEX
  5
8A8
  8
TEAM-NET
 10
-12.835592
 20
-13.74457
 30
802.096917
 70
    64
  0
VERTEX
  5
8A9
  8
TEAM-NET
 10
-9.713158
 20
-9.940755
 30
813.75
 70
    64
  0
VERTEX
  5
8AA
  8
TEAM-NET
 10
-6.516801
 20
-7.202876
 30
825.678967
 70
    64
  0
VERTEX
  5
8AB
  8
TEAM-NET
 10
-3.270847
 20
-5.551769
 30
837.793032
 70
    64
  0
VERTEX
  5
8AC
  8
TEAM-NET
 10
0.0
 20
-5.0
 30
850.0
 70
    64
  0
VERTEX
  5
8AD
  8
TEAM-NET
 10
0.0
 20
-295.0
 30
850.0
 70
    64
  0
VERTEX
  5
8AE
  8
TEAM-NET
 10
-4.322308
 20
-294.448231
 30
838.124557
 70
    64
  0
VERTEX
  5
8AF
  8
TEAM-NET
 10
-8.61172
 20
-292.797124
 30
826.339493
 70
    64
  0
VERTEX
  5
8B0
  8
TEAM-NET
 10
-12.835592
 20
-290.059245
 30
814.7345
 70
    64
  0
VERTEX
  5
8B1
  8
TEAM-NET
 10
-16.961778
 20
-286.25543
 30
803.397898
 70
    64
  0
VERTEX
  5
8B2
  8
TEAM-NET
 10
-20.958874
 20
-281.414629
 30
792.415967
 70
    64
  0
VERTEX
  5
8B3
  8
TEAM-NET
 10
-24.79646
 20
-275.573684
 30
781.872285
 70
    64
  0
VERTEX
  5
8B4
  8
TEAM-NET
 10
-28.445331
 20
-268.777046
 30
771.847096
 70
    64
  0
VERTEX
  5
8B5
  8
TEAM-NET
 10
-31.877715
 20
-261.076444
 30
762.416698
 70
    64
  0
VERTEX
  5
8B6
  8
TEAM-NET
 10
-35.067491
 20
-252.530483
 30
753.652861
 70
    64
  0
VERTEX
  5
8B7
  8
TEAM-NET
 10
-37.990381
 20
-243.204203
 30
745.622285
 70
    64
  0
VERTEX
  5
8B8
  8
TEAM-NET
 10
-40.624142
 20
-233.168583
 30
738.386086
 70
    64
  0
VERTEX
  5
8B9
  8
TEAM-NET
 10
-42.948729
 20
-222.5
 30
731.999336
 70
    64
  0
VERTEX
  5
8BA
  8
TEAM-NET
 10
-44.94645
 20
-211.279648
 30
726.510643
 70
    64
  0
VERTEX
  5
8BB
  8
TEAM-NET
 10
-46.602102
 20
-199.592921
 30
721.961778
 70
    64
  0
VERTEX
  5
8BC
  8
TEAM-NET
 10
-47.903083
 20
-187.528762
 30
718.387361
 70
    64
  0
VERTEX
  5
8BD
  8
TEAM-NET
 10
-48.839493
 20
-175.178986
 30
715.814596
 70
    64
  0
VERTEX
  5
8BE
  8
TEAM-NET
 10
-49.404205
 20
-162.637583
 30
714.263063
 70
    64
  0
VERTEX
  5
8BF
  8
TEAM-NET
 10
-49.592921
 20
-150.0
 30
713.74457
 70
    64
  0
VERTEX
  5
8C0
  8
TEAM-NET
 10
-49.404205
 20
-137.362417
 30
714.263063
 70
    64
  0
VERTEX
  5
8C1
  8
TEAM-NET
 10
-48.839493
 20
-124.821014
 30
715.814596
 70
    64
  0
VERTEX
  5
8C2
  8
TEAM-NET
 10
-47.903083
 20
-112.471238
 30
718.387361
 70
    64
  0
VERTEX
  5
8C3
  8
TEAM-NET
 10
-46.602102
 20
-100.407079
 30
721.961778
 70
    64
  0
VERTEX
  5
8C4
  8
TEAM-NET
 10
-44.94645
 20
-88.720352
 30
726.510643
 70
    64
  0
VERTEX
  5
8C5
  8
TEAM-NET
 10
-42.948729
 20
-77.5
 30
731.999336
 70
    64
  0
VERTEX
  5
8C6
  8
TEAM-NET
 10
-40.624142
 20
-66.831417
 30
738.386086
 70
    64
  0
VERTEX
  5
8C7
  8
TEAM-NET
 10
-37.990381
 20
-56.795797
 30
745.622285
 70
    64
  0
VERTEX
  5
8C8
  8
TEAM-NET
 10
-35.067491
 20
-47.469517
 30
753.652861
 70
    64
  0
VERTEX
  5
8C9
  8
TEAM-NET
 10
-31.877715
 20
-38.923556
 30
762.416698
 70
    64
  0
VERTEX
  5
8CA
  8
TEAM-NET
 10
-28.445331
 20
-31.222954
 30
771.847096
 70
    64
  0
VERTEX
  5
8CB
  8
TEAM-NET
 10
-24.79646
 20
-24.426316
 30
781.872285
 70
    64
  0
VERTEX
  5
8CC
  8
TEAM-NET
 10
-20.958874
 20
-18.585371
 30
792.415967
 70
    64
  0
VERTEX
  5
8CD
  8
TEAM-NET
 10
-16.961778
 20
-13.74457
 30
803.397898
 70
    64
  0
VERTEX
  5
8CE
  8
TEAM-NET
 10
-12.835592
 20
-9.940755
 30
814.7345
 70
    64
  0
VERTEX
  5
8CF
  8
TEAM-NET
 10
-8.61172
 20
-7.202876
 30
826.339493
 70
    64
  0
VERTEX
  5
8D0
  8
TEAM-NET
 10
-4.322308
 20
-5.551769
 30
838.124557
 70
    64
  0
VERTEX
  5
8D1
  8
TEAM-NET
 10
0.0
 20
-5.0
 30
850.0
 70
    64
  0
VERTEX
  5
8D2
  8
TEAM-NET
 10
0.0
 20
-295.0
 30
850.0
 70
    64
  0
VERTEX
  5
8D3
  8
TEAM-NET
 10
-5.340873
 20
-294.448231
 30
838.54646
 70
    64
  0
VERTEX
  5
8D4
  8
TEAM-NET
 10
-10.641099
 20
-292.797124
 30
827.180089
 70
    64
  0
VERTEX
  5
8D5
  8
TEAM-NET
 10
-15.86034
 20
-290.059245
 30
815.987391
 70
    64
  0
VERTEX
  5
8D6
  8
TEAM-NET
 10
-20.958874
 20
-286.25543
 30
805.05355
 70
    64
  0
VERTEX
  5
8D7
  8
TEAM-NET
 10
-25.897898
 20
-281.414629
 30
794.461778
 70
    64
  0
VERTEX
  5
8D8
  8
TEAM-NET
 10
-30.639824
 20
-275.573684
 30
784.292685
 70
    64
  0
VERTEX
  5
8D9
  8
TEAM-NET
 10
-35.148562
 20
-268.777046
 30
774.623665
 70
    64
  0
VERTEX
  5
8DA
  8
TEAM-NET
 10
-39.389798
 20
-261.076444
 30
765.528305
 70
    64
  0
VERTEX
  5
8DB
  8
TEAM-NET
 10
-43.331255
 20
-252.530483
 30
757.075825
 70
    64
  0
VERTEX
  5
8DC
  8
TEAM-NET
 10
-46.942934
 20
-243.204203
 30
749.330554
 70
    64
  0
VERTEX
  5
8DD
  8
TEAM-NET
 10
-50.197349
 20
-233.168583
 30
742.351438
 70
    64
  0
VERTEX
  5
8DE
  8
TEAM-NET
 10
-53.069732
 20
-222.5
 30
736.191593
 70
    64
  0
VERTEX
  5
8DF
  8
TEAM-NET
 10
-55.538222
 20
-211.279648
 30
730.897898
 70
    64
  0
VERTEX
  5
8E0
  8
TEAM-NET
 10
-57.584033
 20
-199.592921
 30
726.510643
 70
    64
  0
VERTEX
  5
8E1
  8
TEAM-NET
 10
-59.191595
 20
-187.528762
 30
723.063216
 70
    64
  0
VERTEX
  5
8E2
  8
TEAM-NET
 10
-60.348672
 20
-175.178986
 30
720.581854
 70
    64
  0
VERTEX
  5
8E3
  8
TEAM-NET
 10
-61.04646
 20
-162.637583
 30
719.085443
 70
    64
  0
VERTEX
  5
8E4
  8
TEAM-NET
 10
-61.279648
 20
-150.0
 30
718.585371
 70
    64
  0
VERTEX
  5
8E5
  8
TEAM-NET
 10
-61.04646
 20
-137.362417
 30
719.085443
 70
    64
  0
VERTEX
  5
8E6
  8
TEAM-NET
 10
-60.348672
 20
-124.821014
 30
720.581854
 70
    64
  0
VERTEX
  5
8E7
  8
TEAM-NET
 10
-59.191595
 20
-112.471238
 30
723.063216
 70
    64
  0
VERTEX
  5
8E8
  8
TEAM-NET
 10
-57.584033
 20
-100.407079
 30
726.510643
 70
    64
  0
VERTEX
  5
8E9
  8
TEAM-NET
 10
-55.538222
 20
-88.720352
 30
730.897898
 70
    64
  0
VERTEX
  5
8EA
  8
TEAM-NET
 10
-53.069732
 20
-77.5
 30
736.191593
 70
    64
  0
VERTEX
  5
8EB
  8
TEAM-NET
 10
-50.197349
 20
-66.831417
 30
742.351438
 70
    64
  0
VERTEX
  5
8EC
  8
TEAM-NET
 10
-46.942934
 20
-56.795797
 30
749.330554
 70
    64
  0
VERTEX
  5
8ED
  8
TEAM-NET
 10
-43.331255
 20
-47.469517
 30
757.075825
 70
    64
  0
VERTEX
  5
8EE
  8
TEAM-NET
 10
-39.389798
 20
-38.923556
 30
765.528305
 70
    64
  0
VERTEX
  5
8EF
  8
TEAM-NET
 10
-35.148562
 20
-31.222954
 30
774.623665
 70
    64
  0
VERTEX
  5
8F0
  8
TEAM-NET
 10
-30.639824
 20
-24.426316
 30
784.292685
 70
    64
  0
VERTEX
  5
8F1
  8
TEAM-NET
 10
-25.897898
 20
-18.585371
 30
794.461778
 70
    64
  0
VERTEX
  5
8F2
  8
TEAM-NET
 10
-20.958874
 20
-13.74457
 30
805.05355
 70
    64
  0
VERTEX
  5
8F3
  8
TEAM-NET
 10
-15.86034
 20
-9.940755
 30
815.987391
 70
    64
  0
VERTEX
  5
8F4
  8
TEAM-NET
 10
-10.641099
 20
-7.202876
 30
827.180089
 70
    64
  0
VERTEX
  5
8F5
  8
TEAM-NET
 10
-5.340873
 20
-5.551769
 30
838.54646
 70
    64
  0
VERTEX
  5
8F6
  8
TEAM-NET
 10
0.0
 20
-5.0
 30
850.0
 70
    64
  0
VERTEX
  5
8F7
  8
TEAM-NET
 10
0.0
 20
-295.0
 30
850.0
 70
    64
  0
VERTEX
  5
8F8
  8
TEAM-NET
 10
-6.318791
 20
-294.448231
 30
839.055532
 70
    64
  0
VERTEX
  5
8F9
  8
TEAM-NET
 10
-12.589493
 20
-292.797124
 30
828.194359
 70
    64
  0
VERTEX
  5
8FA
  8
TEAM-NET
 10
-18.764381
 20
-290.059245
 30
817.499139
 70
    64
  0
VERTEX
  5
8FB
  8
TEAM-NET
 10
-24.79646
 20
-286.25543
 30
807.051271
 70
    64
  0
VERTEX
  5
8FC
  8
TEAM-NET
 10
-30.639824
 20
-281.414629
 30
796.930268
 70
    64
  0
VERTEX
  5
8FD
  8
TEAM-NET
 10
-36.25
 20
-275.573684
 30
787.213158
 70
    64
  0
VERTEX
  5
8FE
  8
TEAM-NET
 10
-41.584292
 20
-268.777046
 30
777.973894
 70
    64
  0
VERTEX
  5
8FF
  8
TEAM-NET
 10
-46.602102
 20
-261.076444
 30
769.282792
 70
    64
  0
VERTEX
  5
900
  8
TEAM-NET
 10
-51.265242
 20
-252.530483
 30
761.205997
 70
    64
  0
VERTEX
  5
901
  8
TEAM-NET
 10
-55.538222
 20
-243.204203
 30
753.804978
 70
    64
  0
VERTEX
  5
902
  8
TEAM-NET
 10
-59.388523
 20
-233.168583
 30
747.13606
 70
    64
  0
VERTEX
  5
903
  8
TEAM-NET
 10
-62.786842
 20
-222.5
 30
741.25
 70
    64
  0
VERTEX
  5
904
  8
TEAM-NET
 10
-65.707315
 20
-211.279648
 30
736.191593
 70
    64
  0
VERTEX
  5
905
  8
TEAM-NET
 10
-68.127715
 20
-199.592921
 30
731.999336
 70
    64
  0
VERTEX
  5
906
  8
TEAM-NET
 10
-70.029622
 20
-187.528762
 30
728.705136
 70
    64
  0
VERTEX
  5
907
  8
TEAM-NET
 10
-71.398562
 20
-175.178986
 30
726.334063
 70
    64
  0
VERTEX
  5
908
  8
TEAM-NET
 10
-72.224116
 20
-162.637583
 30
724.904162
 70
    64
  0
VERTEX
  5
909
  8
TEAM-NET
 10
-72.5
 20
-150.0
 30
724.426316
 70
    64
  0
VERTEX
  5
90A
  8
TEAM-NET
 10
-72.224116
 20
-137.362417
 30
724.904162
 70
    64
  0
VERTEX
  5
90B
  8
TEAM-NET
 10
-71.398562
 20
-124.821014
 30
726.334063
 70
    64
  0
VERTEX
  5
90C
  8
TEAM-NET
 10
-70.029622
 20
-112.471238
 30
728.705136
 70
    64
  0
VERTEX
  5
90D
  8
TEAM-NET
 10
-68.127715
 20
-100.407079
 30
731.999336
 70
    64
  0
VERTEX
  5
90E
  8
TEAM-NET
 10
-65.707315
 20
-88.720352
 30
736.191593
 70
    64
  0
VERTEX
  5
90F
  8
TEAM-NET
 10
-62.786842
 20
-77.5
 30
741.25
 70
    64
  0
VERTEX
  5
910
  8
TEAM-NET
 10
-59.388523
 20
-66.831417
 30
747.13606
 70
    64
  0
VERTEX
  5
911
  8
TEAM-NET
 10
-55.538222
 20
-56.795797
 30
753.804978
 70
    64
  0
VERTEX
  5
912
  8
TEAM-NET
 10
-51.265242
 20
-47.469517
 30
761.205997
 70
    64
  0
VERTEX
  5
913
  8
TEAM-NET
 10
-46.602102
 20
-38.923556
 30
769.282792
 70
    64
  0
VERTEX
  5
914
  8
TEAM-NET
 10
-41.584292
 20
-31.222954
 30
777.973894
 70
    64
  0
VERTEX
  5
915
  8
TEAM-NET
 10
-36.25
 20
-24.426316
 30
787.213158
 70
    64
  0
VERTEX
  5
916
  8
TEAM-NET
 10
-30.639824
 20
-18.585371
 30
796.930268
 70
    64
  0
VERTEX
  5
917
  8
TEAM-NET
 10
-24.79646
 20
-13.74457
 30
807.051271
 70
    64
  0
VERTEX
  5
918
  8
TEAM-NET
 10
-18.764381
 20
-9.940755
 30
817.499139
 70
    64
  0
VERTEX
  5
919
  8
TEAM-NET
 10
-12.589493
 20
-7.202876
 30
828.194359
 70
    64
  0
VERTEX
  5
91A
  8
TEAM-NET
 10
-6.318791
 20
-5.551769
 30
839.055532
 70
    64
  0
VERTEX
  5
91B
  8
TEAM-NET
 10
0.0
 20
-5.0
 30
850.0
 70
    64
  0
VERTEX
  5
91C
  8
TEAM-NET
 10
0.0
 20
-295.0
 30
850.0
 70
    64
  0
VERTEX
  5
91D
  8
TEAM-NET
 10
-7.24862
 20
-294.448231
 30
839.647898
 70
    64
  0
VERTEX
  5
91E
  8
TEAM-NET
 10
-14.442073
 20
-292.797124
 30
829.374582
 70
    64
  0
VERTEX
  5
91F
  8
TEAM-NET
 10
-21.525613
 20
-290.059245
 30
819.258238
 70
    64
  0
VERTEX
  5
920
  8
TEAM-NET
 10
-28.445331
 20
-286.25543
 30
809.375858
 70
    64
  0
VERTEX
  5
921
  8
TEAM-NET
 10
-35.148562
 20
-281.414629
 30
799.802651
 70
    64
  0
VERTEX
  5
922
  8
TEAM-NET
 10
-41.584292
 20
-275.573684
 30
790.611477
 70
    64
  0
VERTEX
  5
923
  8
TEAM-NET
 10
-47.70354
 20
-268.777046
 30
781.872285
 70
    64
  0
VERTEX
  5
924
  8
TEAM-NET
 10
-53.459735
 20
-261.076444
 30
773.651586
 70
    64
  0
VERTEX
  5
925
  8
TEAM-NET
 10
-58.809069
 20
-252.530483
 30
766.011945
 70
    64
  0
VERTEX
  5
926
  8
TEAM-NET
 10
-63.710831
 20
-243.204203
 30
759.011504
 70
    64
  0
VERTEX
  5
927
  8
TEAM-NET
 10
-68.127715
 20
-233.168583
 30
752.70354
 70
    64
  0
VERTEX
  5
928
  8
TEAM-NET
 10
-72.026106
 20
-222.5
 30
747.13606
 70
    64
  0
VERTEX
  5
929
  8
TEAM-NET
 10
-75.376335
 20
-211.279648
 30
742.351438
 70
    64
  0
VERTEX
  5
92A
  8
TEAM-NET
 10
-78.152904
 20
-199.592921
 30
738.386086
 70
    64
  0
VERTEX
  5
92B
  8
TEAM-NET
 10
-80.334683
 20
-187.528762
 30
735.270183
 70
    64
  0
VERTEX
  5
92C
  8
TEAM-NET
 10
-81.905066
 20
-175.178986
 30
733.027444
 70
    64
  0
VERTEX
  5
92D
  8
TEAM-NET
 10
-82.852102
 20
-162.637583
 30
731.674936
 70
    64
  0
VERTEX
  5
92E
  8
TEAM-NET
 10
-83.168583
 20
-150.0
 30
731.222954
 70
    64
  0
VERTEX
  5
92F
  8
TEAM-NET
 10
-82.852102
 20
-137.362417
 30
731.674936
 70
    64
  0
VERTEX
  5
930
  8
TEAM-NET
 10
-81.905066
 20
-124.821014
 30
733.027444
 70
    64
  0
VERTEX
  5
931
  8
TEAM-NET
 10
-80.334683
 20
-112.471238
 30
735.270183
 70
    64
  0
VERTEX
  5
932
  8
TEAM-NET
 10
-78.152904
 20
-100.407079
 30
738.386086
 70
    64
  0
VERTEX
  5
933
  8
TEAM-NET
 10
-75.376335
 20
-88.720352
 30
742.351438
 70
    64
  0
VERTEX
  5
934
  8
TEAM-NET
 10
-72.026106
 20
-77.5
 30
747.13606
 70
    64
  0
VERTEX
  5
935
  8
TEAM-NET
 10
-68.127715
 20
-66.831417
 30
752.70354
 70
    64
  0
VERTEX
  5
936
  8
TEAM-NET
 10
-63.710831
 20
-56.795797
 30
759.011504
 70
    64
  0
VERTEX
  5
937
  8
TEAM-NET
 10
-58.809069
 20
-47.469517
 30
766.011945
 70
    64
  0
VERTEX
  5
938
  8
TEAM-NET
 10
-53.459735
 20
-38.923556
 30
773.651586
 70
    64
  0
VERTEX
  5
939
  8
TEAM-NET
 10
-47.70354
 20
-31.222954
 30
781.872285
 70
    64
  0
VERTEX
  5
93A
  8
TEAM-NET
 10
-41.584292
 20
-24.426316
 30
790.611477
 70
    64
  0
VERTEX
  5
93B
  8
TEAM-NET
 10
-35.148562
 20
-18.585371
 30
799.802651
 70
    64
  0
VERTEX
  5
93C
  8
TEAM-NET
 10
-28.445331
 20
-13.74457
 30
809.375858
 70
    64
  0
VERTEX
  5
93D
  8
TEAM-NET
 10
-21.525613
 20
-9.940755
 30
819.258238
 70
    64
  0
VERTEX
  5
93E
  8
TEAM-NET
 10
-14.442073
 20
-7.202876
 30
829.374582
 70
    64
  0
VERTEX
  5
93F
  8
TEAM-NET
 10
-7.24862
 20
-5.551769
 30
839.647898
 70
    64
  0
VERTEX
  5
940
  8
TEAM-NET
 10
0.0
 20
-5.0
 30
850.0
 70
    64
  0
VERTEX
  5
941
  8
TEAM-NET
 10
0.0
 20
-295.0
 30
850.0
 70
    64
  0
VERTEX
  5
942
  8
TEAM-NET
 10
-8.123282
 20
-294.448231
 30
840.31905
 70
    64
  0
VERTEX
  5
943
  8
TEAM-NET
 10
-16.18474
 20
-292.797124
 30
830.711778
 70
    64
  0
VERTEX
  5
944
  8
TEAM-NET
 10
-24.123023
 20
-290.059245
 30
821.251301
 70
    64
  0
VERTEX
  5
945
  8
TEAM-NET
 10
-31.877715
 20
-286.25543
 30
812.009619
 70
    64
  0
VERTEX
  5
946
  8
TEAM-NET
 10
-39.389798
 20
-281.414629
 30
803.057066
 70
    64
  0
VERTEX
  5
947
  8
TEAM-NET
 10
-46.602102
 20
-275.573684
 30
794.461778
 70
    64
  0
VERTEX
  5
948
  8
TEAM-NET
 10
-53.459735
 20
-268.777046
 30
786.289169
 70
    64
  0
VERTEX
  5
949
  8
TEAM-NET
 10
-59.910507
 20
-261.076444
 30
778.601438
 70
    64
  0
VERTEX
  5
94A
  8
TEAM-NET
 10
-65.905324
 20
-252.530483
 30
771.457093
 70
    64
  0
VERTEX
  5
94B
  8
TEAM-NET
 10
-71.398562
 20
-243.204203
 30
764.910507
 70
    64
  0
VERTEX
  5
94C
  8
TEAM-NET
 10
-76.348414
 20
-233.168583
 30
759.011504
 70
    64
  0
VERTEX
  5
94D
  8
TEAM-NET
 10
-80.717208
 20
-222.5
 30
753.804978
 70
    64
  0
VERTEX
  5
94E
  8
TEAM-NET
 10
-84.471695
 20
-211.279648
 30
749.330554
 70
    64
  0
VERTEX
  5
94F
  8
TEAM-NET
 10
-87.583302
 20
-199.592921
 30
745.622285
 70
    64
  0
VERTEX
  5
950
  8
TEAM-NET
 10
-90.028347
 20
-187.528762
 30
742.708394
 70
    64
  0
VERTEX
  5
951
  8
TEAM-NET
 10
-91.788222
 20
-175.178986
 30
740.611057
 70
    64
  0
VERTEX
  5
952
  8
TEAM-NET
 10
-92.849533
 20
-162.637583
 30
739.346235
 70
    64
  0
VERTEX
  5
953
  8
TEAM-NET
 10
-93.204203
 20
-150.0
 30
738.923556
 70
    64
  0
VERTEX
  5
954
  8
TEAM-NET
 10
-92.849533
 20
-137.362417
 30
739.346235
 70
    64
  0
VERTEX
  5
955
  8
TEAM-NET
 10
-91.788222
 20
-124.821014
 30
740.611057
 70
    64
  0
VERTEX
  5
956
  8
TEAM-NET
 10
-90.028347
 20
-112.471238
 30
742.708394
 70
    64
  0
VERTEX
  5
957
  8
TEAM-NET
 10
-87.583302
 20
-100.407079
 30
745.622285
 70
    64
  0
VERTEX
  5
958
  8
TEAM-NET
 10
-84.471695
 20
-88.720352
 30
749.330554
 70
    64
  0
VERTEX
  5
959
  8
TEAM-NET
 10
-80.717208
 20
-77.5
 30
753.804978
 70
    64
  0
VERTEX
  5
95A
  8
TEAM-NET
 10
-76.348414
 20
-66.831417
 30
759.011504
 70
    64
  0
VERTEX
  5
95B
  8
TEAM-NET
 10
-71.398562
 20
-56.795797
 30
764.910507
 70
    64
  0
VERTEX
  5
95C
  8
TEAM-NET
 10
-65.905324
 20
-47.469517
 30
771.457093
 70
    64
  0
VERTEX
  5
95D
  8
TEAM-NET
 10
-59.910507
 20
-38.923556
 30
778.601438
 70
    64
  0
VERTEX
  5
95E
  8
TEAM-NET
 10
-53.459735
 20
-31.222954
 30
786.289169
 70
    64
  0
VERTEX
  5
95F
  8
TEAM-NET
 10
-46.602102
 20
-24.426316
 30
794.461778
 70
    64
  0
VERTEX
  5
960
  8
TEAM-NET
 10
-39.389798
 20
-18.585371
 30
803.057066
 70
    64
  0
VERTEX
  5
961
  8
TEAM-NET
 10
-31.877715
 20
-13.74457
 30
812.009619
 70
    64
  0
VERTEX
  5
962
  8
TEAM-NET
 10
-24.123023
 20
-9.940755
 30
821.251301
 70
    64
  0
VERTEX
  5
963
  8
TEAM-NET
 10
-16.18474
 20
-7.202876
 30
830.711778
 70
    64
  0
VERTEX
  5
964
  8
TEAM-NET
 10
-8.123282
 20
-5.551769
 30
840.31905
 70
    64
  0
VERTEX
  5
965
  8
TEAM-NET
 10
0.0
 20
-5.0
 30
850.0
 70
    64
  0
VERTEX
  5
966
  8
TEAM-NET
 10
0.0
 20
-295.0
 30
850.0
 70
    64
  0
VERTEX
  5
967
  8
TEAM-NET
 10
-8.93612
 20
-294.448231
 30
841.06388
 70
    64
  0
VERTEX
  5
968
  8
TEAM-NET
 10
-17.804232
 20
-292.797124
 30
832.195768
 70
    64
  0
VERTEX
  5
969
  8
TEAM-NET
 10
-26.536842
 20
-290.059245
 30
823.463158
 70
    64
  0
VERTEX
  5
96A
  8
TEAM-NET
 10
-35.067491
 20
-286.25543
 30
814.932509
 70
    64
  0
VERTEX
  5
96B
  8
TEAM-NET
 10
-43.331255
 20
-281.414629
 30
806.668745
 70
    64
  0
VERTEX
  5
96C
  8
TEAM-NET
 10
-51.265242
 20
-275.573684
 30
798.734758
 70
    64
  0
VERTEX
  5
96D
  8
TEAM-NET
 10
-58.809069
 20
-268.777046
 30
791.190931
 70
    64
  0
VERTEX
  5
96E
  8
TEAM-NET
 10
-65.905324
 20
-261.076444
 30
784.094676
 70
    64
  0
VERTEX
  5
96F
  8
TEAM-NET
 10
-72.5
 20
-252.530483
 30
777.5
 70
    64
  0
VERTEX
  5
970
  8
TEAM-NET
 10
-78.542907
 20
-243.204203
 30
771.457093
 70
    64
  0
VERTEX
  5
971
  8
TEAM-NET
 10
-83.988055
 20
-233.168583
 30
766.011945
 70
    64
  0
VERTEX
  5
972
  8
TEAM-NET
 10
-88.794003
 20
-222.5
 30
761.205997
 70
    64
  0
VERTEX
  5
973
  8
TEAM-NET
 10
-92.924175
 20
-211.279648
 30
757.075825
 70
    64
  0
VERTEX
  5
974
  8
TEAM-NET
 10
-96.347139
 20
-199.592921
 30
753.652861
 70
    64
  0
VERTEX
  5
975
  8
TEAM-NET
 10
-99.036842
 20
-187.528762
 30
750.963158
 70
    64
  0
VERTEX
  5
976
  8
TEAM-NET
 10
-100.972815
 20
-175.178986
 30
749.027185
 70
    64
  0
VERTEX
  5
977
  8
TEAM-NET
 10
-102.140324
 20
-162.637583
 30
747.859676
 70
    64
  0
VERTEX
  5
978
  8
TEAM-NET
 10
-102.530483
 20
-150.0
 30
747.469517
 70
    64
  0
VERTEX
  5
979
  8
TEAM-NET
 10
-102.140324
 20
-137.362417
 30
747.859676
 70
    64
  0
VERTEX
  5
97A
  8
TEAM-NET
 10
-100.972815
 20
-124.821014
 30
749.027185
 70
    64
  0
VERTEX
  5
97B
  8
TEAM-NET
 10
-99.036842
 20
-112.471238
 30
750.963158
 70
    64
  0
VERTEX
  5
97C
  8
TEAM-NET
 10
-96.347139
 20
-100.407079
 30
753.652861
 70
    64
  0
VERTEX
  5
97D
  8
TEAM-NET
 10
-92.924175
 20
-88.720352
 30
757.075825
 70
    64
  0
VERTEX
  5
97E
  8
TEAM-NET
 10
-88.794003
 20
-77.5
 30
761.205997
 70
    64
  0
VERTEX
  5
97F
  8
TEAM-NET
 10
-83.988055
 20
-66.831417
 30
766.011945
 70
    64
  0
VERTEX
  5
980
  8
TEAM-NET
 10
-78.542907
 20
-56.795797
 30
771.457093
 70
    64
  0
VERTEX
  5
981
  8
TEAM-NET
 10
-72.5
 20
-47.469517
 30
777.5
 70
    64
  0
VERTEX
  5
982
  8
TEAM-NET
 10
-65.905324
 20
-38.923556
 30
784.094676
 70
    64
  0
VERTEX
  5
983
  8
TEAM-NET
 10
-58.809069
 20
-31.222954
 30
791.190931
 70
    64
  0
VERTEX
  5
984
  8
TEAM-NET
 10
-51.265242
 20
-24.426316
 30
798.734758
 70
    64
  0
VERTEX
  5
985
  8
TEAM-NET
 10
-43.331255
 20
-18.585371
 30
806.668745
 70
    64
  0
VERTEX
  5
986
  8
TEAM-NET
 10
-35.067491
 20
-13.74457
 30
814.932509
 70
    64
  0
VERTEX
  5
987
  8
TEAM-NET
 10
-26.536842
 20
-9.940755
 30
823.463158
 70
    64
  0
VERTEX
  5
988
  8
TEAM-NET
 10
-17.804232
 20
-7.202876
 30
832.195768
 70
    64
  0
VERTEX
  5
989
  8
TEAM-NET
 10
-8.93612
 20
-5.551769
 30
841.06388
 70
    64
  0
VERTEX
  5
98A
  8
TEAM-NET
 10
0.0
 20
-5.0
 30
850.0
 70
    64
  0
VERTEX
  5
98B
  8
TEAM-NET
 10
0.0
 20
-295.0
 30
850.0
 70
    64
  0
VERTEX
  5
98C
  8
TEAM-NET
 10
-9.68095
 20
-294.448231
 30
841.876718
 70
    64
  0
VERTEX
  5
98D
  8
TEAM-NET
 10
-19.288222
 20
-292.797124
 30
833.81526
 70
    64
  0
VERTEX
  5
98E
  8
TEAM-NET
 10
-28.748699
 20
-290.059245
 30
825.876977
 70
    64
  0
VERTEX
  5
98F
  8
TEAM-NET
 10
-37.990381
 20
-286.25543
 30
818.122285
 70
    64
  0
VERTEX
  5
990
  8
TEAM-NET
 10
-46.942934
 20
-281.414629
 30
810.610202
 70
    64
  0
VERTEX
  5
991
  8
TEAM-NET
 10
-55.538222
 20
-275.573684
 30
803.397898
 70
    64
  0
VERTEX
  5
992
  8
TEAM-NET
 10
-63.710831
 20
-268.777046
 30
796.540265
 70
    64
  0
VERTEX
  5
993
  8
TEAM-NET
 10
-71.398562
 20
-261.076444
 30
790.089493
 70
    64
  0
VERTEX
  5
994
  8
TEAM-NET
 10
-78.542907
 20
-252.530483
 30
784.094676
 70
    64
  0
VERTEX
  5
995
  8
TEAM-NET
 10
-85.089493
 20
-243.204203
 30
778.601438
 70
    64
  0
VERTEX
  5
996
  8
TEAM-NET
 10
-90.988496
 20
-233.168583
 30
773.651586
 70
    64
  0
VERTEX
  5
997
  8
TEAM-NET
 10
-96.195022
 20
-222.5
 30
769.282792
 70
    64
  0
VERTEX
  5
998
  8
TEAM-NET
 10
-100.669446
 20
-211.279648
 30
765.528305
 70
    64
  0
VERTEX
  5
999
  8
TEAM-NET
 10
-104.377715
 20
-199.592921
 30
762.416698
 70
    64
  0
VERTEX
  5
99A
  8
TEAM-NET
 10
-107.291606
 20
-187.528762
 30
759.971653
 70
    64
  0
VERTEX
  5
99B
  8
TEAM-NET
 10
-109.388943
 20
-175.178986
 30
758.211778
 70
    64
  0
VERTEX
  5
99C
  8
TEAM-NET
 10
-110.653765
 20
-162.637583
 30
757.150467
 70
    64
  0
VERTEX
  5
99D
  8
TEAM-NET
 10
-111.076444
 20
-150.0
 30
756.795797
 70
    64
  0
VERTEX
  5
99E
  8
TEAM-NET
 10
-110.653765
 20
-137.362417
 30
757.150467
 70
    64
  0
VERTEX
  5
99F
  8
TEAM-NET
 10
-109.388943
 20
-124.821014
 30
758.211778
 70
    64
  0
VERTEX
  5
9A0
  8
TEAM-NET
 10
-107.291606
 20
-112.471238
 30
759.971653
 70
    64
  0
VERTEX
  5
9A1
  8
TEAM-NET
 10
-104.377715
 20
-100.407079
 30
762.416698
 70
    64
  0
VERTEX
  5
9A2
  8
TEAM-NET
 10
-100.669446
 20
-88.720352
 30
765.528305
 70
    64
  0
VERTEX
  5
9A3
  8
TEAM-NET
 10
-96.195022
 20
-77.5
 30
769.282792
 70
    64
  0
VERTEX
  5
9A4
  8
TEAM-NET
 10
-90.988496
 20
-66.831417
 30
773.651586
 70
    64
  0
VERTEX
  5
9A5
  8
TEAM-NET
 10
-85.089493
 20
-56.795797
 30
778.601438
 70
    64
  0
VERTEX
  5
9A6
  8
TEAM-NET
 10
-78.542907
 20
-47.469517
 30
784.094676
 70
    64
  0
VERTEX
  5
9A7
  8
TEAM-NET
 10
-71.398562
 20
-38.923556
 30
790.089493
 70
    64
  0
VERTEX
  5
9A8
  8
TEAM-NET
 10
-63.710831
 20
-31.222954
 30
796.540265
 70
    64
  0
VERTEX
  5
9A9
  8
TEAM-NET
 10
-55.538222
 20
-24.426316
 30
803.397898
 70
    64
  0
VERTEX
  5
9AA
  8
TEAM-NET
 10
-46.942934
 20
-18.585371
 30
810.610202
 70
    64
  0
VERTEX
  5
9AB
  8
TEAM-NET
 10
-37.990381
 20
-13.74457
 30
818.122285
 70
    64
  0
VERTEX
  5
9AC
  8
TEAM-NET
 10
-28.748699
 20
-9.940755
 30
825.876977
 70
    64
  0
VERTEX
  5
9AD
  8
TEAM-NET
 10
-19.288222
 20
-7.202876
 30
833.81526
 70
    64
  0
VERTEX
  5
9AE
  8
TEAM-NET
 10
-9.68095
 20
-5.551769
 30
841.876718
 70
    64
  0
VERTEX
  5
9AF
  8
TEAM-NET
 10
0.0
 20
-5.0
 30
850.0
 70
    64
  0
VERTEX
  5
9B0
  8
TEAM-NET
 10
0.0
 20
-295.0
 30
850.0
 70
    64
  0
VERTEX
  5
9B1
  8
TEAM-NET
 10
-10.352102
 20
-294.448231
 30
842.75138
 70
    64
  0
VERTEX
  5
9B2
  8
TEAM-NET
 10
-20.625418
 20
-292.797124
 30
835.557927
 70
    64
  0
VERTEX
  5
9B3
  8
TEAM-NET
 10
-30.741762
 20
-290.059245
 30
828.474387
 70
    64
  0
VERTEX
  5
9B4
  8
TEAM-NET
 10
-40.624142
 20
-286.25543
 30
821.554669
 70
    64
  0
VERTEX
  5
9B5
  8
TEAM-NET
 10
-50.197349
 20
-281.414629
 30
814.851438
 70
    64
  0
VERTEX
  5
9B6
  8
TEAM-NET
 10
-59.388523
 20
-275.573684
 30
808.415708
 70
    64
  0
VERTEX
  5
9B7
  8
TEAM-NET
 10
-68.127715
 20
-268.777046
 30
802.29646
 70
    64
  0
VERTEX
  5
9B8
  8
TEAM-NET
 10
-76.348414
 20
-261.076444
 30
796.540265
 70
    64
  0
VERTEX
  5
9B9
  8
TEAM-NET
 10
-83.988055
 20
-252.530483
 30
791.190931
 70
    64
  0
VERTEX
  5
9BA
  8
TEAM-NET
 10
-90.988496
 20
-243.204203
 30
786.289169
 70
    64
  0
VERTEX
  5
9BB
  8
TEAM-NET
 10
-97.29646
 20
-233.168583
 30
781.872285
 70
    64
  0
VERTEX
  5
9BC
  8
TEAM-NET
 10
-102.86394
 20
-222.5
 30
777.973894
 70
    64
  0
VERTEX
  5
9BD
  8
TEAM-NET
 10
-107.648562
 20
-211.279648
 30
774.623665
 70
    64
  0
VERTEX
  5
9BE
  8
TEAM-NET
 10
-111.613914
 20
-199.592921
 30
771.847096
 70
    64
  0
VERTEX
  5
9BF
  8
TEAM-NET
 10
-114.729817
 20
-187.528762
 30
769.665317
 70
    64
  0
VERTEX
  5
9C0
  8
TEAM-NET
 10
-116.972556
 20
-175.178986
 30
768.094934
 70
    64
  0
VERTEX
  5
9C1
  8
TEAM-NET
 10
-118.325064
 20
-162.637583
 30
767.147898
 70
    64
  0
VERTEX
  5
9C2
  8
TEAM-NET
 10
-118.777046
 20
-150.0
 30
766.831417
 70
    64
  0
VERTEX
  5
9C3
  8
TEAM-NET
 10
-118.325064
 20
-137.362417
 30
767.147898
 70
    64
  0
VERTEX
  5
9C4
  8
TEAM-NET
 10
-116.972556
 20
-124.821014
 30
768.094934
 70
    64
  0
VERTEX
  5
9C5
  8
TEAM-NET
 10
-114.729817
 20
-112.471238
 30
769.665317
 70
    64
  0
VERTEX
  5
9C6
  8
TEAM-NET
 10
-111.613914
 20
-100.407079
 30
771.847096
 70
    64
  0
VERTEX
  5
9C7
  8
TEAM-NET
 10
-107.648562
 20
-88.720352
 30
774.623665
 70
    64
  0
VERTEX
  5
9C8
  8
TEAM-NET
 10
-102.86394
 20
-77.5
 30
777.973894
 70
    64
  0
VERTEX
  5
9C9
  8
TEAM-NET
 10
-97.29646
 20
-66.831417
 30
781.872285
 70
    64
  0
VERTEX
  5
9CA
  8
TEAM-NET
 10
-90.988496
 20
-56.795797
 30
786.289169
 70
    64
  0
VERTEX
  5
9CB
  8
TEAM-NET
 10
-83.988055
 20
-47.469517
 30
791.190931
 70
    64
  0
VERTEX
  5
9CC
  8
TEAM-NET
 10
-76.348414
 20
-38.923556
 30
796.540265
 70
    64
  0
VERTEX
  5
9CD
  8
TEAM-NET
 10
-68.127715
 20
-31.222954
 30
802.29646
 70
    64
  0
VERTEX
  5
9CE
  8
TEAM-NET
 10
-59.388523
 20
-24.426316
 30
808.415708
 70
    64
  0
VERTEX
  5
9CF
  8
TEAM-NET
 10
-50.197349
 20
-18.585371
 30
814.851438
 70
    64
  0
VERTEX
  5
9D0
  8
TEAM-NET
 10
-40.624142
 20
-13.74457
 30
821.554669
 70
    64
  0
VERTEX
  5
9D1
  8
TEAM-NET
 10
-30.741762
 20
-9.940755
 30
828.474387
 70
    64
  0
VERTEX
  5
9D2
  8
TEAM-NET
 10
-20.625418
 20
-7.202876
 30
835.557927
 70
    64
  0
VERTEX
  5
9D3
  8
TEAM-NET
 10
-10.352102
 20
-5.551769
 30
842.75138
 70
    64
  0
VERTEX
  5
9D4
  8
TEAM-NET
 10
0.0
 20
-5.0
 30
850.0
 70
    64
  0
VERTEX
  5
9D5
  8
TEAM-NET
 10
0.0
 20
-295.0
 30
850.0
 70
    64
  0
VERTEX
  5
9D6
  8
TEAM-NET
 10
-10.944468
 20
-294.448231
 30
843.681209
 70
    64
  0
VERTEX
  5
9D7
  8
TEAM-NET
 10
-21.805641
 20
-292.797124
 30
837.410507
 70
    64
  0
VERTEX
  5
9D8
  8
TEAM-NET
 10
-32.500861
 20
-290.059245
 30
831.235619
 70
    64
  0
VERTEX
  5
9D9
  8
TEAM-NET
 10
-42.948729
 20
-286.25543
 30
825.20354
 70
    64
  0
VERTEX
  5
9DA
  8
TEAM-NET
 10
-53.069732
 20
-281.414629
 30
819.360176
 70
    64
  0
VERTEX
  5
9DB
  8
TEAM-NET
 10
-62.786842
 20
-275.573684
 30
813.75
 70
    64
  0
VERTEX
  5
9DC
  8
TEAM-NET
 10
-72.026106
 20
-268.777046
 30
808.415708
 70
    64
  0
VERTEX
  5
9DD
  8
TEAM-NET
 10
-80.717208
 20
-261.076444
 30
803.397898
 70
    64
  0
VERTEX
  5
9DE
  8
TEAM-NET
 10
-88.794003
 20
-252.530483
 30
798.734758
 70
    64
  0
VERTEX
  5
9DF
  8
TEAM-NET
 10
-96.195022
 20
-243.204203
 30
794.461778
 70
    64
  0
VERTEX
  5
9E0
  8
TEAM-NET
 10
-102.86394
 20
-233.168583
 30
790.611477
 70
    64
  0
VERTEX
  5
9E1
  8
TEAM-NET
 10
-108.75
 20
-222.5
 30
787.213158
 70
    64
  0
VERTEX
  5
9E2
  8
TEAM-NET
 10
-113.808407
 20
-211.279648
 30
784.292685
 70
    64
  0
VERTEX
  5
9E3
  8
TEAM-NET
 10
-118.000664
 20
-199.592921
 30
781.872285
 70
    64
  0
VERTEX
  5
9E4
  8
TEAM-NET
 10
-121.294864
 20
-187.528762
 30
779.970378
 70
    64
  0
VERTEX
  5
9E5
  8
TEAM-NET
 10
-123.665937
 20
-175.178986
 30
778.601438
 70
    64
  0
VERTEX
  5
9E6
  8
TEAM-NET
 10
-125.095838
 20
-162.637583
 30
777.775884
 70
    64
  0
VERTEX
  5
9E7
  8
TEAM-NET
 10
-125.573684
 20
-150.0
 30
777.5
 70
    64
  0
VERTEX
  5
9E8
  8
TEAM-NET
 10
-125.095838
 20
-137.362417
 30
777.775884
 70
    64
  0
VERTEX
  5
9E9
  8
TEAM-NET
 10
-123.665937
 20
-124.821014
 30
778.601438
 70
    64
  0
VERTEX
  5
9EA
  8
TEAM-NET
 10
-121.294864
 20
-112.471238
 30
779.970378
 70
    64
  0
VERTEX
  5
9EB
  8
TEAM-NET
 10
-118.000664
 20
-100.407079
 30
781.872285
 70
    64
  0
VERTEX
  5
9EC
  8
TEAM-NET
 10
-113.808407
 20
-88.720352
 30
784.292685
 70
    64
  0
VERTEX
  5
9ED
  8
TEAM-NET
 10
-108.75
 20
-77.5
 30
787.213158
 70
    64
  0
VERTEX
  5
9EE
  8
TEAM-NET
 10
-102.86394
 20
-66.831417
 30
790.611477
 70
    64
  0
VERTEX
  5
9EF
  8
TEAM-NET
 10
-96.195022
 20
-56.795797
 30
794.461778
 70
    64
  0
VERTEX
  5
9F0
  8
TEAM-NET
 10
-88.794003
 20
-47.469517
 30
798.734758
 70
    64
  0
VERTEX
  5
9F1
  8
TEAM-NET
 10
-80.717208
 20
-38.923556
 30
803.397898
 70
    64
  0
VERTEX
  5
9F2
  8
TEAM-NET
 10
-72.026106
 20
-31.222954
 30
808.415708
 70
    64
  0
VERTEX
  5
9F3
  8
TEAM-NET
 10
-62.786842
 20
-24.426316
 30
813.75
 70
    64
  0
VERTEX
  5
9F4
  8
TEAM-NET
 10
-53.069732
 20
-18.585371
 30
819.360176
 70
    64
  0
VERTEX
  5
9F5
  8
TEAM-NET
 10
-42.948729
 20
-13.74457
 30
825.20354
 70
    64
  0
VERTEX
  5
9F6
  8
TEAM-NET
 10
-32.500861
 20
-9.940755
 30
831.235619
 70
    64
  0
VERTEX
  5
9F7
  8
TEAM-NET
 10
-21.805641
 20
-7.202876
 30
837.410507
 70
    64
  0
VERTEX
  5
9F8
  8
TEAM-NET
 10
-10.944468
 20
-5.551769
 30
843.681209
 70
    64
  0
VERTEX
  5
9F9
  8
TEAM-NET
 10
0.0
 20
-5.0
 30
850.0
 70
    64
  0
VERTEX
  5
9FA
  8
TEAM-NET
 10
0.0
 20
-295.0
 30
850.0
 70
    64
  0
VERTEX
  5
9FB
  8
TEAM-NET
 10
-11.45354
 20
-294.448231
 30
844.659127
 70
    64
  0
VERTEX
  5
9FC
  8
TEAM-NET
 10
-22.819911
 20
-292.797124
 30
839.358901
 70
    64
  0
VERTEX
  5
9FD
  8
TEAM-NET
 10
-34.012609
 20
-290.059245
 30
834.13966
 70
    64
  0
VERTEX
  5
9FE
  8
TEAM-NET
 10
-44.94645
 20
-286.25543
 30
829.041126
 70
    64
  0
VERTEX
  5
9FF
  8
TEAM-NET
 10
-55.538222
 20
-281.414629
 30
824.102102
 70
    64
  0
VERTEX
  5
A00
  8
TEAM-NET
 10
-65.707315
 20
-275.573684
 30
819.360176
 70
    64
  0
VERTEX
  5
A01
  8
TEAM-NET
 10
-75.376335
 20
-268.777046
 30
814.851438
 70
    64
  0
VERTEX
  5
A02
  8
TEAM-NET
 10
-84.471695
 20
-261.076444
 30
810.610202
 70
    64
  0
VERTEX
  5
A03
  8
TEAM-NET
 10
-92.924175
 20
-252.530483
 30
806.668745
 70
    64
  0
VERTEX
  5
A04
  8
TEAM-NET
 10
-100.669446
 20
-243.204203
 30
803.057066
 70
    64
  0
VERTEX
  5
A05
  8
TEAM-NET
 10
-107.648562
 20
-233.168583
 30
799.802651
 70
    64
  0
VERTEX
  5
A06
  8
TEAM-NET
 10
-113.808407
 20
-222.5
 30
796.930268
 70
    64
  0
VERTEX
  5
A07
  8
TEAM-NET
 10
-119.102102
 20
-211.279648
 30
794.461778
 70
    64
  0
VERTEX
  5
A08
  8
TEAM-NET
 10
-123.489357
 20
-199.592921
 30
792.415967
 70
    64
  0
VERTEX
  5
A09
  8
TEAM-NET
 10
-126.936784
 20
-187.528762
 30
790.808405
 70
    64
  0
VERTEX
  5
A0A
  8
TEAM-NET
 10
-129.418146
 20
-175.178986
 30
789.651328
 70
    64
  0
VERTEX
  5
A0B
  8
TEAM-NET
 10
-130.914557
 20
-162.637583
 30
788.95354
 70
    64
  0
VERTEX
  5
A0C
  8
TEAM-NET
 10
-131.414629
 20
-150.0
 30
788.720352
 70
    64
  0
VERTEX
  5
A0D
  8
TEAM-NET
 10
-130.914557
 20
-137.362417
 30
788.95354
 70
    64
  0
VERTEX
  5
A0E
  8
TEAM-NET
 10
-129.418146
 20
-124.821014
 30
789.651328
 70
    64
  0
VERTEX
  5
A0F
  8
TEAM-NET
 10
-126.936784
 20
-112.471238
 30
790.808405
 70
    64
  0
VERTEX
  5
A10
  8
TEAM-NET
 10
-123.489357
 20
-100.407079
 30
792.415967
 70
    64
  0
VERTEX
  5
A11
  8
TEAM-NET
 10
-119.102102
 20
-88.720352
 30
794.461778
 70
    64
  0
VERTEX
  5
A12
  8
TEAM-NET
 10
-113.808407
 20
-77.5
 30
796.930268
 70
    64
  0
VERTEX
  5
A13
  8
TEAM-NET
 10
-107.648562
 20
-66.831417
 30
799.802651
 70
    64
  0
VERTEX
  5
A14
  8
TEAM-NET
 10
-100.669446
 20
-56.795797
 30
803.057066
 70
    64
  0
VERTEX
  5
A15
  8
TEAM-NET
 10
-92.924175
 20
-47.469517
 30
806.668745
 70
    64
  0
VERTEX
  5
A16
  8
TEAM-NET
 10
-84.471695
 20
-38.923556
 30
810.610202
 70
    64
  0
VERTEX
  5
A17
  8
TEAM-NET
 10
-75.376335
 20
-31.222954
 30
814.851438
 70
    64
  0
VERTEX
  5
A18
  8
TEAM-NET
 10
-65.707315
 20
-24.426316
 30
819.360176
 70
    64
  0
VERTEX
  5
A19
  8
TEAM-NET
 10
-55.538222
 20
-18.585371
 30
824.102102
 70
    64
  0
VERTEX
  5
A1A
  8
TEAM-NET
 10
-44.94645
 20
-13.74457
 30
829.041126
 70
    64
  0
VERTEX
  5
A1B
  8
TEAM-NET
 10
-34.012609
 20
-9.940755
 30
834.13966
 70
    64
  0
VERTEX
  5
A1C
  8
TEAM-NET
 10
-22.819911
 20
-7.202876
 30
839.358901
 70
    64
  0
VERTEX
  5
A1D
  8
TEAM-NET
 10
-11.45354
 20
-5.551769
 30
844.659127
 70
    64
  0
VERTEX
  5
A1E
  8
TEAM-NET
 10
0.0
 20
-5.0
 30
850.0
 70
    64
  0
VERTEX
  5
A1F
  8
TEAM-NET
 10
0.0
 20
-295.0
 30
850.0
 70
    64
  0
VERTEX
  5
A20
  8
TEAM-NET
 10
-11.875443
 20
-294.448231
 30
845.677692
 70
    64
  0
VERTEX
  5
A21
  8
TEAM-NET
 10
-23.660507
 20
-292.797124
 30
841.38828
 70
    64
  0
VERTEX
  5
A22
  8
TEAM-NET
 10
-35.2655
 20
-290.059245
 30
837.164408
 70
    64
  0
VERTEX
  5
A23
  8
TEAM-NET
 10
-46.602102
 20
-286.25543
 30
833.038222
 70
    64
  0
VERTEX
  5
A24
  8
TEAM-NET
 10
-57.584033
 20
-281.414629
 30
829.041126
 70
    64
  0
VERTEX
  5
A25
  8
TEAM-NET
 10
-68.127715
 20
-275.573684
 30
825.20354
 70
    64
  0
VERTEX
  5
A26
  8
TEAM-NET
 10
-78.152904
 20
-268.777046
 30
821.554669
 70
    64
  0
VERTEX
  5
A27
  8
TEAM-NET
 10
-87.583302
 20
-261.076444
 30
818.122285
 70
    64
  0
VERTEX
  5
A28
  8
TEAM-NET
 10
-96.347139
 20
-252.530483
 30
814.932509
 70
    64
  0
VERTEX
  5
A29
  8
TEAM-NET
 10
-104.377715
 20
-243.204203
 30
812.009619
 70
    64
  0
VERTEX
  5
A2A
  8
TEAM-NET
 10
-111.613914
 20
-233.168583
 30
809.375858
 70
    64
  0
VERTEX
  5
A2B
  8
TEAM-NET
 10
-118.000664
 20
-222.5
 30
807.051271
 70
    64
  0
VERTEX
  5
A2C
  8
TEAM-NET
 10
-123.489357
 20
-211.279648
 30
805.05355
 70
    64
  0
VERTEX
  5
A2D
  8
TEAM-NET
 10
-128.038222
 20
-199.592921
 30
803.397898
 70
    64
  0
VERTEX
  5
A2E
  8
TEAM-NET
 10
-131.612639
 20
-187.528762
 30
802.096917
 70
    64
  0
VERTEX
  5
A2F
  8
TEAM-NET
 10
-134.185404
 20
-175.178986
 30
801.160507
 70
    64
  0
VERTEX
  5
A30
  8
TEAM-NET
 10
-135.736937
 20
-162.637583
 30
800.595795
 70
    64
  0
VERTEX
  5
A31
  8
TEAM-NET
 10
-136.25543
 20
-150.0
 30
800.407079
 70
    64
  0
VERTEX
  5
A32
  8
TEAM-NET
 10
-135.736937
 20
-137.362417
 30
800.595795
 70
    64
  0
VERTEX
  5
A33
  8
TEAM-NET
 10
-134.185404
 20
-124.821014
 30
801.160507
 70
    64
  0
VERTEX
  5
A34
  8
TEAM-NET
 10
-131.612639
 20
-112.471238
 30
802.096917
 70
    64
  0
VERTEX
  5
A35
  8
TEAM-NET
 10
-128.038222
 20
-100.407079
 30
803.397898
 70
    64
  0
VERTEX
  5
A36
  8
TEAM-NET
 10
-123.489357
 20
-88.720352
 30
805.05355
 70
    64
  0
VERTEX
  5
A37
  8
TEAM-NET
 10
-118.000664
 20
-77.5
 30
807.051271
 70
    64
  0
VERTEX
  5
A38
  8
TEAM-NET
 10
-111.613914
 20
-66.831417
 30
809.375858
 70
    64
  0
VERTEX
  5
A39
  8
TEAM-NET
 10
-104.377715
 20
-56.795797
 30
812.009619
 70
    64
  0
VERTEX
  5
A3A
  8
TEAM-NET
 10
-96.347139
 20
-47.469517
 30
814.932509
 70
    64
  0
VERTEX
  5
A3B
  8
TEAM-NET
 10
-87.583302
 20
-38.923556
 30
818.122285
 70
    64
  0
VERTEX
  5
A3C
  8
TEAM-NET
 10
-78.152904
 20
-31.222954
 30
821.554669
 70
    64
  0
VERTEX
  5
A3D
  8
TEAM-NET
 10
-68.127715
 20
-24.426316
 30
825.20354
 70
    64
  0
VERTEX
  5
A3E
  8
TEAM-NET
 10
-57.584033
 20
-18.585371
 30
829.041126
 70
    64
  0
VERTEX
  5
A3F
  8
TEAM-NET
 10
-46.602102
 20
-13.74457
 30
833.038222
 70
    64
  0
VERTEX
  5
A40
  8
TEAM-NET
 10
-35.2655
 20
-9.940755
 30
837.164408
 70
    64
  0
VERTEX
  5
A41
  8
TEAM-NET
 10
-23.660507
 20
-7.202876
 30
841.38828
 70
    64
  0
VERTEX
  5
A42
  8
TEAM-NET
 10
-11.875443
 20
-5.551769
 30
845.677692
 70
    64
  0
VERTEX
  5
A43
  8
TEAM-NET
 10
0.0
 20
-5.0
 30
850.0
 70
    64
  0
VERTEX
  5
A44
  8
TEAM-NET
 10
0.0
 20
-295.0
 30
850.0
 70
    64
  0
VERTEX
  5
A45
  8
TEAM-NET
 10
-12.206968
 20
-294.448231
 30
846.729153
 70
    64
  0
VERTEX
  5
A46
  8
TEAM-NET
 10
-24.321033
 20
-292.797124
 30
843.483199
 70
    64
  0
VERTEX
  5
A47
  8
TEAM-NET
 10
-36.25
 20
-290.059245
 30
840.286842
 70
    64
  0
VERTEX
  5
A48
  8
TEAM-NET
 10
-47.903083
 20
-286.25543
 30
837.164408
 70
    64
  0
VERTEX
  5
A49
  8
TEAM-NET
 10
-59.191595
 20
-281.414629
 30
834.13966
 70
    64
  0
VERTEX
  5
A4A
  8
TEAM-NET
 10
-70.029622
 20
-275.573684
 30
831.235619
 70
    64
  0
VERTEX
  5
A4B
  8
TEAM-NET
 10
-80.334683
 20
-268.777046
 30
828.474387
 70
    64
  0
VERTEX
  5
A4C
  8
TEAM-NET
 10
-90.028347
 20
-261.076444
 30
825.876977
 70
    64
  0
VERTEX
  5
A4D
  8
TEAM-NET
 10
-99.036842
 20
-252.530483
 30
823.463158
 70
    64
  0
VERTEX
  5
A4E
  8
TEAM-NET
 10
-107.291606
 20
-243.204203
 30
821.251301
 70
    64
  0
VERTEX
  5
A4F
  8
TEAM-NET
 10
-114.729817
 20
-233.168583
 30
819.258238
 70
    64
  0
VERTEX
  5
A50
  8
TEAM-NET
 10
-121.294864
 20
-222.5
 30
817.499139
 70
    64
  0
VERTEX
  5
A51
  8
TEAM-NET
 10
-126.936784
 20
-211.279648
 30
815.987391
 70
    64
  0
VERTEX
  5
A52
  8
TEAM-NET
 10
-131.612639
 20
-199.592921
 30
814.7345
 70
    64
  0
VERTEX
  5
A53
  8
TEAM-NET
 10
-135.286842
 20
-187.528762
 30
813.75
 70
    64
  0
VERTEX
  5
A54
  8
TEAM-NET
 10
-137.93143
 20
-175.178986
 30
813.041385
 70
    64
  0
VERTEX
  5
A55
  8
TEAM-NET
 10
-139.526277
 20
-162.637583
 30
812.614047
 70
    64
  0
VERTEX
  5
A56
  8
TEAM-NET
 10
-140.059245
 20
-150.0
 30
812.471238
 70
    64
  0
VERTEX
  5
A57
  8
TEAM-NET
 10
-139.526277
 20
-137.362417
 30
812.614047
 70
    64
  0
VERTEX
  5
A58
  8
TEAM-NET
 10
-137.93143
 20
-124.821014
 30
813.041385
 70
    64
  0
VERTEX
  5
A59
  8
TEAM-NET
 10
-135.286842
 20
-112.471238
 30
813.75
 70
    64
  0
VERTEX
  5
A5A
  8
TEAM-NET
 10
-131.612639
 20
-100.407079
 30
814.7345
 70
    64
  0
VERTEX
  5
A5B
  8
TEAM-NET
 10
-126.936784
 20
-88.720352
 30
815.987391
 70
    64
  0
VERTEX
  5
A5C
  8
TEAM-NET
 10
-121.294864
 20
-77.5
 30
817.499139
 70
    64
  0
VERTEX
  5
A5D
  8
TEAM-NET
 10
-114.729817
 20
-66.831417
 30
819.258238
 70
    64
  0
VERTEX
  5
A5E
  8
TEAM-NET
 10
-107.291606
 20
-56.795797
 30
821.251301
 70
    64
  0
VERTEX
  5
A5F
  8
TEAM-NET
 10
-99.036842
 20
-47.469517
 30
823.463158
 70
    64
  0
VERTEX
  5
A60
  8
TEAM-NET
 10
-90.028347
 20
-38.923556
 30
825.876977
 70
    64
  0
VERTEX
  5
A61
  8
TEAM-NET
 10
-80.334683
 20
-31.222954
 30
828.474387
 70
    64
  0
VERTEX
  5
A62
  8
TEAM-NET
 10
-70.029622
 20
-24.426316
 30
831.235619
 70
    64
  0
VERTEX
  5
A63
  8
TEAM-NET
 10
-59.191595
 20
-18.585371
 30
834.13966
 70
    64
  0
VERTEX
  5
A64
  8
TEAM-NET
 10
-47.903083
 20
-13.74457
 30
837.164408
 70
    64
  0
VERTEX
  5
A65
  8
TEAM-NET
 10
-36.25
 20
-9.940755
 30
840.286842
 70
    64
  0
VERTEX
  5
A66
  8
TEAM-NET
 10
-24.321033
 20
-7.202876
 30
843.483199
 70
    64
  0
VERTEX
  5
A67
  8
TEAM-NET
 10
-12.206968
 20
-5.551769
 30
846.729153
 70
    64
  0
VERTEX
  5
A68
  8
TEAM-NET
 10
0.0
 20
-5.0
 30
850.0
 70
    64
  0
VERTEX
  5
A69
  8
TEAM-NET
 10
0.0
 20
-295.0
 30
850.0
 70
    64
  0
VERTEX
  5
A6A
  8
TEAM-NET
 10
-12.445589
 20
-294.448231
 30
847.805507
 70
    64
  0
VERTEX
  5
A6B
  8
TEAM-NET
 10
-24.79646
 20
-292.797124
 30
845.627715
 70
    64
  0
VERTEX
  5
A6C
  8
TEAM-NET
 10
-36.958615
 20
-290.059245
 30
843.483199
 70
    64
  0
VERTEX
  5
A6D
  8
TEAM-NET
 10
-48.839493
 20
-286.25543
 30
841.38828
 70
    64
  0
VERTEX
  5
A6E
  8
TEAM-NET
 10
-60.348672
 20
-281.414629
 30
839.358901
 70
    64
  0
VERTEX
  5
A6F
  8
TEAM-NET
 10
-71.398562
 20
-275.573684
 30
837.410507
 70
    64
  0
VERTEX
  5
A70
  8
TEAM-NET
 10
-81.905066
 20
-268.777046
 30
835.557927
 70
    64
  0
VERTEX
  5
A71
  8
TEAM-NET
 10
-91.788222
 20
-261.076444
 30
833.81526
 70
    64
  0
VERTEX
  5
A72
  8
TEAM-NET
 10
-100.972815
 20
-252.530483
 30
832.195768
 70
    64
  0
VERTEX
  5
A73
  8
TEAM-NET
 10
-109.388943
 20
-243.204203
 30
830.711778
 70
    64
  0
VERTEX
  5
A74
  8
TEAM-NET
 10
-116.972556
 20
-233.168583
 30
829.374582
 70
    64
  0
VERTEX
  5
A75
  8
TEAM-NET
 10
-123.665937
 20
-222.5
 30
828.194359
 70
    64
  0
VERTEX
  5
A76
  8
TEAM-NET
 10
-129.418146
 20
-211.279648
 30
827.180089
 70
    64
  0
VERTEX
  5
A77
  8
TEAM-NET
 10
-134.185404
 20
-199.592921
 30
826.339493
 70
    64
  0
VERTEX
  5
A78
  8
TEAM-NET
 10
-137.93143
 20
-187.528762
 30
825.678967
 70
    64
  0
VERTEX
  5
A79
  8
TEAM-NET
 10
-140.627715
 20
-175.178986
 30
825.20354
 70
    64
  0
VERTEX
  5
A7A
  8
TEAM-NET
 10
-142.253738
 20
-162.637583
 30
824.916828
 70
    64
  0
VERTEX
  5
A7B
  8
TEAM-NET
 10
-142.797124
 20
-150.0
 30
824.821014
 70
    64
  0
VERTEX
  5
A7C
  8
TEAM-NET
 10
-142.253738
 20
-137.362417
 30
824.916828
 70
    64
  0
VERTEX
  5
A7D
  8
TEAM-NET
 10
-140.627715
 20
-124.821014
 30
825.20354
 70
    64
  0
VERTEX
  5
A7E
  8
TEAM-NET
 10
-137.93143
 20
-112.471238
 30
825.678967
 70
    64
  0
VERTEX
  5
A7F
  8
TEAM-NET
 10
-134.185404
 20
-100.407079
 30
826.339493
 70
    64
  0
VERTEX
  5
A80
  8
TEAM-NET
 10
-129.418146
 20
-88.720352
 30
827.180089
 70
    64
  0
VERTEX
  5
A81
  8
TEAM-NET
 10
-123.665937
 20
-77.5
 30
828.194359
 70
    64
  0
VERTEX
  5
A82
  8
TEAM-NET
 10
-116.972556
 20
-66.831417
 30
829.374582
 70
    64
  0
VERTEX
  5
A83
  8
TEAM-NET
 10
-109.388943
 20
-56.795797
 30
830.711778
 70
    64
  0
VERTEX
  5
A84
  8
TEAM-NET
 10
-100.972815
 20
-47.469517
 30
832.195768
 70
    64
  0
VERTEX
  5
A85
  8
TEAM-NET
 10
-91.788222
 20
-38.923556
 30
833.81526
 70
    64
  0
VERTEX
  5
A86
  8
TEAM-NET
 10
-81.905066
 20
-31.222954
 30
835.557927
 70
    64
  0
VERTEX
  5
A87
  8
TEAM-NET
 10
-71.398562
 20
-24.426316
 30
837.410507
 70
    64
  0
VERTEX
  5
A88
  8
TEAM-NET
 10
-60.348672
 20
-18.585371
 30
839.358901
 70
    64
  0
VERTEX
  5
A89
  8
TEAM-NET
 10
-48.839493
 20
-13.74457
 30
841.38828
 70
    64
  0
VERTEX
  5
A8A
  8
TEAM-NET
 10
-36.958615
 20
-9.940755
 30
843.483199
 70
    64
  0
VERTEX
  5
A8B
  8
TEAM-NET
 10
-24.79646
 20
-7.202876
 30
845.627715
 70
    64
  0
VERTEX
  5
A8C
  8
TEAM-NET
 10
-12.445589
 20
-5.551769
 30
847.805507
 70
    64
  0
VERTEX
  5
A8D
  8
TEAM-NET
 10
0.0
 20
-5.0
 30
850.0
 70
    64
  0
VERTEX
  5
A8E
  8
TEAM-NET
 10
0.0
 20
-295.0
 30
850.0
 70
    64
  0
VERTEX
  5
A8F
  8
TEAM-NET
 10
-12.589493
 20
-294.448231
 30
848.898562
 70
    64
  0
VERTEX
  5
A90
  8
TEAM-NET
 10
-25.083172
 20
-292.797124
 30
847.805507
 70
    64
  0
VERTEX
  5
A91
  8
TEAM-NET
 10
-37.385953
 20
-290.059245
 30
846.729153
 70
    64
  0
VERTEX
  5
A92
  8
TEAM-NET
 10
-49.404205
 20
-286.25543
 30
845.677692
 70
    64
  0
VERTEX
  5
A93
  8
TEAM-NET
 10
-61.04646
 20
-281.414629
 30
844.659127
 70
    64
  0
VERTEX
  5
A94
  8
TEAM-NET
 10
-72.224116
 20
-275.573684
 30
843.681209
 70
    64
  0
VERTEX
  5
A95
  8
TEAM-NET
 10
-82.852102
 20
-268.777046
 30
842.75138
 70
    64
  0
VERTEX
  5
A96
  8
TEAM-NET
 10
-92.849533
 20
-261.076444
 30
841.876718
 70
    64
  0
VERTEX
  5
A97
  8
TEAM-NET
 10
-102.140324
 20
-252.530483
 30
841.06388
 70
    64
  0
VERTEX
  5
A98
  8
TEAM-NET
 10
-110.653765
 20
-243.204203
 30
840.31905
 70
    64
  0
VERTEX
  5
A99
  8
TEAM-NET
 10
-118.325064
 20
-233.168583
 30
839.647898
 70
    64
  0
VERTEX
  5
A9A
  8
TEAM-NET
 10
-125.095838
 20
-222.5
 30
839.055532
 70
    64
  0
VERTEX
  5
A9B
  8
TEAM-NET
 10
-130.914557
 20
-211.279648
 30
838.54646
 70
    64
  0
VERTEX
  5
A9C
  8
TEAM-NET
 10
-135.736937
 20
-199.592921
 30
838.124557
 70
    64
  0
VERTEX
  5
A9D
  8
TEAM-NET
 10
-139.526277
 20
-187.528762
 30
837.793032
 70
    64
  0
VERTEX
  5
A9E
  8
TEAM-NET
 10
-142.253738
 20
-175.178986
 30
837.554411
 70
    64
  0
VERTEX
  5
A9F
  8
TEAM-NET
 10
-143.898562
 20
-162.637583
 30
837.410507
 70
    64
  0
VERTEX
  5
AA0
  8
TEAM-NET
 10
-144.448231
 20
-150.0
 30
837.362417
 70
    64
  0
VERTEX
  5
AA1
  8
TEAM-NET
 10
-143.898562
 20
-137.362417
 30
837.410507
 70
    64
  0
VERTEX
  5
AA2
  8
TEAM-NET
 10
-142.253738
 20
-124.821014
 30
837.554411
 70
    64
  0
VERTEX
  5
AA3
  8
TEAM-NET
 10
-139.526277
 20
-112.471238
 30
837.793032
 70
    64
  0
VERTEX
  5
AA4
  8
TEAM-NET
 10
-135.736937
 20
-100.407079
 30
838.124557
 70
    64
  0
VERTEX
  5
AA5
  8
TEAM-NET
 10
-130.914557
 20
-88.720352
 30
838.54646
 70
    64
  0
VERTEX
  5
AA6
  8
TEAM-NET
 10
-125.095838
 20
-77.5
 30
839.055532
 70
    64
  0
VERTEX
  5
AA7
  8
TEAM-NET
 10
-118.325064
 20
-66.831417
 30
839.647898
 70
    64
  0
VERTEX
  5
AA8
  8
TEAM-NET
 10
-110.653765
 20
-56.795797
 30
840.31905
 70
    64
  0
VERTEX
  5
AA9
  8
TEAM-NET
 10
-102.140324
 20
-47.469517
 30
841.06388
 70
    64
  0
VERTEX
  5
AAA
  8
TEAM-NET
 10
-92.849533
 20
-38.923556
 30
841.876718
 70
    64
  0
VERTEX
  5
AAB
  8
TEAM-NET
 10
-82.852102
 20
-31.222954
 30
842.75138
 70
    64
  0
VERTEX
  5
AAC
  8
TEAM-NET
 10
-72.224116
 20
-24.426316
 30
843.681209
 70
    64
  0
VERTEX
  5
AAD
  8
TEAM-NET
 10
-61.04646
 20
-18.585371
 30
844.659127
 70
    64
  0
VERTEX
  5
AAE
  8
TEAM-NET
 10
-49.404205
 20
-13.74457
 30
845.677692
 70
    64
  0
VERTEX
  5
AAF
  8
TEAM-NET
 10
-37.385953
 20
-9.940755
 30
846.729153
 70
    64
  0
VERTEX
  5
AB0
  8
TEAM-NET
 10
-25.083172
 20
-7.202876
 30
847.805507
 70
    64
  0
VERTEX
  5
AB1
  8
TEAM-NET
 10
-12.589493
 20
-5.551769
 30
848.898562
 70
    64
  0
VERTEX
  5
AB2
  8
TEAM-NET
 10
0.0
 20
-5.0
 30
850.0
 70
    64
  0
VERTEX
  5
AB3
  8
TEAM-NET
 10
0.0
 20
-295.0
 30
850.0
 70
    64
  0
VERTEX
  5
AB4
  8
TEAM-NET
 10
-12.637583
 20
-294.448231
 30
850.0
 70
    64
  0
VERTEX
  5
AB5
  8
TEAM-NET
 10
-25.178986
 20
-292.797124
 30
850.0
 70
    64
  0
VERTEX
  5
AB6
  8
TEAM-NET
 10
-37.528762
 20
-290.059245
 30
850.0
 70
    64
  0
VERTEX
  5
AB7
  8
TEAM-NET
 10
-49.592921
 20
-286.25543
 30
850.0
 70
    64
  0
VERTEX
  5
AB8
  8
TEAM-NET
 10
-61.279648
 20
-281.414629
 30
850.0
 70
    64
  0
VERTEX
  5
AB9
  8
TEAM-NET
 10
-72.5
 20
-275.573684
 30
850.0
 70
    64
  0
VERTEX
  5
ABA
  8
TEAM-NET
 10
-83.168583
 20
-268.777046
 30
850.0
 70
    64
  0
VERTEX
  5
ABB
  8
TEAM-NET
 10
-93.204203
 20
-261.076444
 30
850.0
 70
    64
  0
VERTEX
  5
ABC
  8
TEAM-NET
 10
-102.530483
 20
-252.530483
 30
850.0
 70
    64
  0
VERTEX
  5
ABD
  8
TEAM-NET
 10
-111.076444
 20
-243.204203
 30
850.0
 70
    64
  0
VERTEX
  5
ABE
  8
TEAM-NET
 10
-118.777046
 20
-233.168583
 30
850.0
 70
    64
  0
VERTEX
  5
ABF
  8
TEAM-NET
 10
-125.573684
 20
-222.5
 30
850.0
 70
    64
  0
VERTEX
  5
AC0
  8
TEAM-NET
 10
-131.414629
 20
-211.279648
 30
850.0
 70
    64
  0
VERTEX
  5
AC1
  8
TEAM-NET
 10
-136.25543
 20
-199.592921
 30
850.0
 70
    64
  0
VERTEX
  5
AC2
  8
TEAM-NET
 10
-140.059245
 20
-187.528762
 30
850.0
 70
    64
  0
VERTEX
  5
AC3
  8
TEAM-NET
 10
-142.797124
 20
-175.178986
 30
850.0
 70
    64
  0
VERTEX
  5
AC4
  8
TEAM-NET
 10
-144.448231
 20
-162.637583
 30
850.0
 70
    64
  0
VERTEX
  5
AC5
  8
TEAM-NET
 10
-145.0
 20
-150.0
 30
850.0
 70
    64
  0
VERTEX
  5
AC6
  8
TEAM-NET
 10
-144.448231
 20
-137.362417
 30
850.0
 70
    64
  0
VERTEX
  5
AC7
  8
TEAM-NET
 10
-142.797124
 20
-124.821014
 30
850.0
 70
    64
  0
VERTEX
  5
AC8
  8
TEAM-NET
 10
-140.059245
 20
-112.471238
 30
850.0
 70
    64
  0
VERTEX
  5
AC9
  8
TEAM-NET
 10
-136.25543
 20
-100.407079
 30
850.0
 70
    64
  0
VERTEX
  5
ACA
  8
TEAM-NET
 10
-131.414629
 20
-88.720352
 30
850.0
 70
    64
  0
VERTEX
  5
ACB
  8
TEAM-NET
 10
-125.573684
 20
-77.5
 30
850.0
 70
    64
  0
VERTEX
  5
ACC
  8
TEAM-NET
 10
-118.777046
 20
-66.831417
 30
850.0
 70
    64
  0
VERTEX
  5
ACD
  8
TEAM-NET
 10
-111.076444
 20
-56.795797
 30
850.0
 70
    64
  0
VERTEX
  5
ACE
  8
TEAM-NET
 10
-102.530483
 20
-47.469517
 30
850.0
 70
    64
  0
VERTEX
  5
ACF
  8
TEAM-NET
 10
-93.204203
 20
-38.923556
 30
850.0
 70
    64
  0
VERTEX
  5
AD0
  8
TEAM-NET
 10
-83.168583
 20
-31.222954
 30
850.0
 70
    64
  0
VERTEX
  5
AD1
  8
TEAM-NET
 10
-72.5
 20
-24.426316
 30
850.0
 70
    64
  0
VERTEX
  5
AD2
  8
TEAM-NET
 10
-61.279648
 20
-18.585371
 30
850.0
 70
    64
  0
VERTEX
  5
AD3
  8
TEAM-NET
 10
-49.592921
 20
-13.74457
 30
850.0
 70
    64
  0
VERTEX
  5
AD4
  8
TEAM-NET
 10
-37.528762
 20
-9.940755
 30
850.0
 70
    64
  0
VERTEX
  5
AD5
  8
TEAM-NET
 10
-25.178986
 20
-7.202876
 30
850.0
 70
    64
  0
VERTEX
  5
AD6
  8
TEAM-NET
 10
-12.637583
 20
-5.551769
 30
850.0
 70
    64
  0
VERTEX
  5
AD7
  8
TEAM-NET
 10
0.0
 20
-5.0
 30
850.0
 70
    64
  0
SEQEND
  5
AD8
  8
TEAM-NET
  0
CIRCLE
  5
AD9
  8
TEAM-DET1
 39
-15.0
 10
0.0
 20
-150.0
 30
725.0
 40
30.0
  0
LINE
  5
ADB
  8
TEAM-AXE
 10
0.0
 20
-185.0
 30
725.0
 11
0.0
 21
-115.0
 31
725.0
  0
CIRCLE
  5
ADE
  8
TEAM-KAN
 39
-15.0
 10
0.0
 20
-150.0
 30
725.0
 40
20.0
  0
LINE
  5
AE0
  8
TEAM-AXE
 10
35.0
 20
-150.0
 30
725.0
 11
-35.0
 21
-150.0
 31
725.0
  0
ARC
  5
AE1
  8
TEAM-BODY
 10
0.0
 20
-150.0
 30
850.0
 40
150.0
 50
270.0
 51
90.0
  0
ARC
  5
AE3
  8
TEAM-DET1
 10
0.0
 20
-150.0
 30
850.0
 40
145.0
 50
270.0
 51
90.0
  0
ARC
  5
AE4
  8
TEAM-BODY
 10
0.0
 20
-150.0
 30
850.0
 40
150.0
 50
90.0
 51
270.0
  0
ARC
  5
AE5
  8
TEAM-DET1
 10
0.0
 20
-150.0
 30
850.0
 40
145.0
 50
90.0
 51
270.0
  0
POLYLINE
  5
AE6
  8
TEAM-NET
 66
     1
 10
0.0
 20
0.0
 30
0.0
 70
    16
 71
     2
 72
    37
  0
VERTEX
  5
AE7
  8
TEAM-NET
 10
0.0
 20
-300.0
 30
850.0
 70
    64
  0
VERTEX
  5
AE8
  8
TEAM-NET
 10
13.073361
 20
-299.429205
 30
850.0
 70
    64
  0
VERTEX
  5
AE9
  8
TEAM-NET
 10
26.047227
 20
-297.721163
 30
850.0
 70
    64
  0
VERTEX
  5
AEA
  8
TEAM-NET
 10
38.822857
 20
-294.888874
 30
850.0
 70
    64
  0
VERTEX
  5
AEB
  8
TEAM-NET
 10
51.303021
 20
-290.953893
 30
850.0
 70
    64
  0
VERTEX
  5
AEC
  8
TEAM-NET
 10
63.392739
 20
-285.946168
 30
850.0
 70
    64
  0
VERTEX
  5
AED
  8
TEAM-NET
 10
75.0
 20
-279.903811
 30
850.0
 70
    64
  0
VERTEX
  5
AEE
  8
TEAM-NET
 10
86.036465
 20
-272.872807
 30
850.0
 70
    64
  0
VERTEX
  5
AEF
  8
TEAM-NET
 10
96.418141
 20
-264.906666
 30
850.0
 70
    64
  0
VERTEX
  5
AF0
  8
TEAM-NET
 10
106.066017
 20
-256.066017
 30
850.0
 70
    64
  0
VERTEX
  5
AF1
  8
TEAM-NET
 10
114.906666
 20
-246.418141
 30
850.0
 70
    64
  0
VERTEX
  5
AF2
  8
TEAM-NET
 10
122.872807
 20
-236.036465
 30
850.0
 70
    64
  0
VERTEX
  5
AF3
  8
TEAM-NET
 10
129.903811
 20
-225.0
 30
850.0
 70
    64
  0
VERTEX
  5
AF4
  8
TEAM-NET
 10
135.946168
 20
-213.392739
 30
850.0
 70
    64
  0
VERTEX
  5
AF5
  8
TEAM-NET
 10
140.953893
 20
-201.303021
 30
850.0
 70
    64
  0
VERTEX
  5
AF6
  8
TEAM-NET
 10
144.888874
 20
-188.822857
 30
850.0
 70
    64
  0
VERTEX
  5
AF7
  8
TEAM-NET
 10
147.721163
 20
-176.047227
 30
850.0
 70
    64
  0
VERTEX
  5
AF8
  8
TEAM-NET
 10
149.429205
 20
-163.073361
 30
850.0
 70
    64
  0
VERTEX
  5
AF9
  8
TEAM-NET
 10
150.0
 20
-150.0
 30
850.0
 70
    64
  0
VERTEX
  5
AFA
  8
TEAM-NET
 10
149.429205
 20
-136.926639
 30
850.0
 70
    64
  0
VERTEX
  5
AFB
  8
TEAM-NET
 10
147.721163
 20
-123.952773
 30
850.0
 70
    64
  0
VERTEX
  5
AFC
  8
TEAM-NET
 10
144.888874
 20
-111.177143
 30
850.0
 70
    64
  0
VERTEX
  5
AFD
  8
TEAM-NET
 10
140.953893
 20
-98.696979
 30
850.0
 70
    64
  0
VERTEX
  5
AFE
  8
TEAM-NET
 10
135.946168
 20
-86.607261
 30
850.0
 70
    64
  0
VERTEX
  5
AFF
  8
TEAM-NET
 10
129.903811
 20
-75.0
 30
850.0
 70
    64
  0
VERTEX
  5
B00
  8
TEAM-NET
 10
122.872807
 20
-63.963535
 30
850.0
 70
    64
  0
VERTEX
  5
B01
  8
TEAM-NET
 10
114.906666
 20
-53.581859
 30
850.0
 70
    64
  0
VERTEX
  5
B02
  8
TEAM-NET
 10
106.066017
 20
-43.933983
 30
850.0
 70
    64
  0
VERTEX
  5
B03
  8
TEAM-NET
 10
96.418141
 20
-35.093334
 30
850.0
 70
    64
  0
VERTEX
  5
B04
  8
TEAM-NET
 10
86.036465
 20
-27.127193
 30
850.0
 70
    64
  0
VERTEX
  5
B05
  8
TEAM-NET
 10
75.0
 20
-20.096189
 30
850.0
 70
    64
  0
VERTEX
  5
B06
  8
TEAM-NET
 10
63.392739
 20
-14.053832
 30
850.0
 70
    64
  0
VERTEX
  5
B07
  8
TEAM-NET
 10
51.303021
 20
-9.046107
 30
850.0
 70
    64
  0
VERTEX
  5
B08
  8
TEAM-NET
 10
38.822857
 20
-5.111126
 30
850.0
 70
    64
  0
VERTEX
  5
B09
  8
TEAM-NET
 10
26.047227
 20
-2.278837
 30
850.0
 70
    64
  0
VERTEX
  5
B0A
  8
TEAM-NET
 10
13.073361
 20
-0.570795
 30
850.0
 70
    64
  0
VERTEX
  5
B0B
  8
TEAM-NET
 10
0.0
 20
0.0
 30
850.0
 70
    64
  0
VERTEX
  5
B0C
  8
TEAM-NET
 10
0.0
 20
-295.0
 30
850.0
 70
    64
  0
VERTEX
  5
B0D
  8
TEAM-NET
 10
12.637583
 20
-294.448231
 30
850.0
 70
    64
  0
VERTEX
  5
B0E
  8
TEAM-NET
 10
25.178986
 20
-292.797124
 30
850.0
 70
    64
  0
VERTEX
  5
B0F
  8
TEAM-NET
 10
37.528762
 20
-290.059245
 30
850.0
 70
    64
  0
VERTEX
  5
B10
  8
TEAM-NET
 10
49.592921
 20
-286.25543
 30
850.0
 70
    64
  0
VERTEX
  5
B11
  8
TEAM-NET
 10
61.279648
 20
-281.414629
 30
850.0
 70
    64
  0
VERTEX
  5
B12
  8
TEAM-NET
 10
72.5
 20
-275.573684
 30
850.0
 70
    64
  0
VERTEX
  5
B13
  8
TEAM-NET
 10
83.168583
 20
-268.777046
 30
850.0
 70
    64
  0
VERTEX
  5
B14
  8
TEAM-NET
 10
93.204203
 20
-261.076444
 30
850.0
 70
    64
  0
VERTEX
  5
B15
  8
TEAM-NET
 10
102.530483
 20
-252.530483
 30
850.0
 70
    64
  0
VERTEX
  5
B16
  8
TEAM-NET
 10
111.076444
 20
-243.204203
 30
850.0
 70
    64
  0
VERTEX
  5
B17
  8
TEAM-NET
 10
118.777046
 20
-233.168583
 30
850.0
 70
    64
  0
VERTEX
  5
B18
  8
TEAM-NET
 10
125.573684
 20
-222.5
 30
850.0
 70
    64
  0
VERTEX
  5
B19
  8
TEAM-NET
 10
131.414629
 20
-211.279648
 30
850.0
 70
    64
  0
VERTEX
  5
B1A
  8
TEAM-NET
 10
136.25543
 20
-199.592921
 30
850.0
 70
    64
  0
VERTEX
  5
B1B
  8
TEAM-NET
 10
140.059245
 20
-187.528762
 30
850.0
 70
    64
  0
VERTEX
  5
B1C
  8
TEAM-NET
 10
142.797124
 20
-175.178986
 30
850.0
 70
    64
  0
VERTEX
  5
B1D
  8
TEAM-NET
 10
144.448231
 20
-162.637583
 30
850.0
 70
    64
  0
VERTEX
  5
B1E
  8
TEAM-NET
 10
145.0
 20
-150.0
 30
850.0
 70
    64
  0
VERTEX
  5
B1F
  8
TEAM-NET
 10
144.448231
 20
-137.362417
 30
850.0
 70
    64
  0
VERTEX
  5
B20
  8
TEAM-NET
 10
142.797124
 20
-124.821014
 30
850.0
 70
    64
  0
VERTEX
  5
B21
  8
TEAM-NET
 10
140.059245
 20
-112.471238
 30
850.0
 70
    64
  0
VERTEX
  5
B22
  8
TEAM-NET
 10
136.25543
 20
-100.407079
 30
850.0
 70
    64
  0
VERTEX
  5
B23
  8
TEAM-NET
 10
131.414629
 20
-88.720352
 30
850.0
 70
    64
  0
VERTEX
  5
B24
  8
TEAM-NET
 10
125.573684
 20
-77.5
 30
850.0
 70
    64
  0
VERTEX
  5
B25
  8
TEAM-NET
 10
118.777046
 20
-66.831417
 30
850.0
 70
    64
  0
VERTEX
  5
B26
  8
TEAM-NET
 10
111.076444
 20
-56.795797
 30
850.0
 70
    64
  0
VERTEX
  5
B27
  8
TEAM-NET
 10
102.530483
 20
-47.469517
 30
850.0
 70
    64
  0
VERTEX
  5
B28
  8
TEAM-NET
 10
93.204203
 20
-38.923556
 30
850.0
 70
    64
  0
VERTEX
  5
B29
  8
TEAM-NET
 10
83.168583
 20
-31.222954
 30
850.0
 70
    64
  0
VERTEX
  5
B2A
  8
TEAM-NET
 10
72.5
 20
-24.426316
 30
850.0
 70
    64
  0
VERTEX
  5
B2B
  8
TEAM-NET
 10
61.279648
 20
-18.585371
 30
850.0
 70
    64
  0
VERTEX
  5
B2C
  8
TEAM-NET
 10
49.592921
 20
-13.74457
 30
850.0
 70
    64
  0
VERTEX
  5
B2D
  8
TEAM-NET
 10
37.528762
 20
-9.940755
 30
850.0
 70
    64
  0
VERTEX
  5
B2E
  8
TEAM-NET
 10
25.178986
 20
-7.202876
 30
850.0
 70
    64
  0
VERTEX
  5
B2F
  8
TEAM-NET
 10
12.637583
 20
-5.551769
 30
850.0
 70
    64
  0
VERTEX
  5
B30
  8
TEAM-NET
 10
0.0
 20
-5.0
 30
850.0
 70
    64
  0
SEQEND
  5
B31
  8
TEAM-NET
  0
POLYLINE
  5
B32
  8
TEAM-NET
 66
     1
 10
0.0
 20
0.0
 30
0.0
 70
    16
 71
     2
 72
    37
  0
VERTEX
  5
B33
  8
TEAM-NET
 10
0.0
 20
-295.0
 30
850.0
 70
    64
  0
VERTEX
  5
B34
  8
TEAM-NET
 10
-12.637583
 20
-294.448231
 30
850.0
 70
    64
  0
VERTEX
  5
B35
  8
TEAM-NET
 10
-25.178986
 20
-292.797124
 30
850.0
 70
    64
  0
VERTEX
  5
B36
  8
TEAM-NET
 10
-37.528762
 20
-290.059245
 30
850.0
 70
    64
  0
VERTEX
  5
B37
  8
TEAM-NET
 10
-49.592921
 20
-286.25543
 30
850.0
 70
    64
  0
VERTEX
  5
B38
  8
TEAM-NET
 10
-61.279648
 20
-281.414629
 30
850.0
 70
    64
  0
VERTEX
  5
B39
  8
TEAM-NET
 10
-72.5
 20
-275.573684
 30
850.0
 70
    64
  0
VERTEX
  5
B3A
  8
TEAM-NET
 10
-83.168583
 20
-268.777046
 30
850.0
 70
    64
  0
VERTEX
  5
B3B
  8
TEAM-NET
 10
-93.204203
 20
-261.076444
 30
850.0
 70
    64
  0
VERTEX
  5
B3C
  8
TEAM-NET
 10
-102.530483
 20
-252.530483
 30
850.0
 70
    64
  0
VERTEX
  5
B3D
  8
TEAM-NET
 10
-111.076444
 20
-243.204203
 30
850.0
 70
    64
  0
VERTEX
  5
B3E
  8
TEAM-NET
 10
-118.777046
 20
-233.168583
 30
850.0
 70
    64
  0
VERTEX
  5
B3F
  8
TEAM-NET
 10
-125.573684
 20
-222.5
 30
850.0
 70
    64
  0
VERTEX
  5
B40
  8
TEAM-NET
 10
-131.414629
 20
-211.279648
 30
850.0
 70
    64
  0
VERTEX
  5
B41
  8
TEAM-NET
 10
-136.25543
 20
-199.592921
 30
850.0
 70
    64
  0
VERTEX
  5
B42
  8
TEAM-NET
 10
-140.059245
 20
-187.528762
 30
850.0
 70
    64
  0
VERTEX
  5
B43
  8
TEAM-NET
 10
-142.797124
 20
-175.178986
 30
850.0
 70
    64
  0
VERTEX
  5
B44
  8
TEAM-NET
 10
-144.448231
 20
-162.637583
 30
850.0
 70
    64
  0
VERTEX
  5
B45
  8
TEAM-NET
 10
-145.0
 20
-150.0
 30
850.0
 70
    64
  0
VERTEX
  5
B46
  8
TEAM-NET
 10
-144.448231
 20
-137.362417
 30
850.0
 70
    64
  0
VERTEX
  5
B47
  8
TEAM-NET
 10
-142.797124
 20
-124.821014
 30
850.0
 70
    64
  0
VERTEX
  5
B48
  8
TEAM-NET
 10
-140.059245
 20
-112.471238
 30
850.0
 70
    64
  0
VERTEX
  5
B49
  8
TEAM-NET
 10
-136.25543
 20
-100.407079
 30
850.0
 70
    64
  0
VERTEX
  5
B4A
  8
TEAM-NET
 10
-131.414629
 20
-88.720352
 30
850.0
 70
    64
  0
VERTEX
  5
B4B
  8
TEAM-NET
 10
-125.573684
 20
-77.5
 30
850.0
 70
    64
  0
VERTEX
  5
B4C
  8
TEAM-NET
 10
-118.777046
 20
-66.831417
 30
850.0
 70
    64
  0
VERTEX
  5
B4D
  8
TEAM-NET
 10
-111.076444
 20
-56.795797
 30
850.0
 70
    64
  0
VERTEX
  5
B4E
  8
TEAM-NET
 10
-102.530483
 20
-47.469517
 30
850.0
 70
    64
  0
VERTEX
  5
B4F
  8
TEAM-NET
 10
-93.204203
 20
-38.923556
 30
850.0
 70
    64
  0
VERTEX
  5
B50
  8
TEAM-NET
 10
-83.168583
 20
-31.222954
 30
850.0
 70
    64
  0
VERTEX
  5
B51
  8
TEAM-NET
 10
-72.5
 20
-24.426316
 30
850.0
 70
    64
  0
VERTEX
  5
B52
  8
TEAM-NET
 10
-61.279648
 20
-18.585371
 30
850.0
 70
    64
  0
VERTEX
  5
B53
  8
TEAM-NET
 10
-49.592921
 20
-13.74457
 30
850.0
 70
    64
  0
VERTEX
  5
B54
  8
TEAM-NET
 10
-37.528762
 20
-9.940755
 30
850.0
 70
    64
  0
VERTEX
  5
B55
  8
TEAM-NET
 10
-25.178986
 20
-7.202876
 30
850.0
 70
    64
  0
VERTEX
  5
B56
  8
TEAM-NET
 10
-12.637583
 20
-5.551769
 30
850.0
 70
    64
  0
VERTEX
  5
B57
  8
TEAM-NET
 10
0.0
 20
-5.0
 30
850.0
 70
    64
  0
VERTEX
  5
B58
  8
TEAM-NET
 10
0.0
 20
-300.0
 30
850.0
 70
    64
  0
VERTEX
  5
B59
  8
TEAM-NET
 10
-13.073361
 20
-299.429205
 30
850.0
 70
    64
  0
VERTEX
  5
B5A
  8
TEAM-NET
 10
-26.047227
 20
-297.721163
 30
850.0
 70
    64
  0
VERTEX
  5
B5B
  8
TEAM-NET
 10
-38.822857
 20
-294.888874
 30
850.0
 70
    64
  0
VERTEX
  5
B5C
  8
TEAM-NET
 10
-51.303021
 20
-290.953893
 30
850.0
 70
    64
  0
VERTEX
  5
B5D
  8
TEAM-NET
 10
-63.392739
 20
-285.946168
 30
850.0
 70
    64
  0
VERTEX
  5
B5E
  8
TEAM-NET
 10
-75.0
 20
-279.903811
 30
850.0
 70
    64
  0
VERTEX
  5
B5F
  8
TEAM-NET
 10
-86.036465
 20
-272.872807
 30
850.0
 70
    64
  0
VERTEX
  5
B60
  8
TEAM-NET
 10
-96.418141
 20
-264.906666
 30
850.0
 70
    64
  0
VERTEX
  5
B61
  8
TEAM-NET
 10
-106.066017
 20
-256.066017
 30
850.0
 70
    64
  0
VERTEX
  5
B62
  8
TEAM-NET
 10
-114.906666
 20
-246.418141
 30
850.0
 70
    64
  0
VERTEX
  5
B63
  8
TEAM-NET
 10
-122.872807
 20
-236.036465
 30
850.0
 70
    64
  0
VERTEX
  5
B64
  8
TEAM-NET
 10
-129.903811
 20
-225.0
 30
850.0
 70
    64
  0
VERTEX
  5
B65
  8
TEAM-NET
 10
-135.946168
 20
-213.392739
 30
850.0
 70
    64
  0
VERTEX
  5
B66
  8
TEAM-NET
 10
-140.953893
 20
-201.303021
 30
850.0
 70
    64
  0
VERTEX
  5
B67
  8
TEAM-NET
 10
-144.888874
 20
-188.822857
 30
850.0
 70
    64
  0
VERTEX
  5
B68
  8
TEAM-NET
 10
-147.721163
 20
-176.047227
 30
850.0
 70
    64
  0
VERTEX
  5
B69
  8
TEAM-NET
 10
-149.429205
 20
-163.073361
 30
850.0
 70
    64
  0
VERTEX
  5
B6A
  8
TEAM-NET
 10
-150.0
 20
-150.0
 30
850.0
 70
    64
  0
VERTEX
  5
B6B
  8
TEAM-NET
 10
-149.429205
 20
-136.926639
 30
850.0
 70
    64
  0
VERTEX
  5
B6C
  8
TEAM-NET
 10
-147.721163
 20
-123.952773
 30
850.0
 70
    64
  0
VERTEX
  5
B6D
  8
TEAM-NET
 10
-144.888874
 20
-111.177143
 30
850.0
 70
    64
  0
VERTEX
  5
B6E
  8
TEAM-NET
 10
-140.953893
 20
-98.696979
 30
850.0
 70
    64
  0
VERTEX
  5
B6F
  8
TEAM-NET
 10
-135.946168
 20
-86.607261
 30
850.0
 70
    64
  0
VERTEX
  5
B70
  8
TEAM-NET
 10
-129.903811
 20
-75.0
 30
850.0
 70
    64
  0
VERTEX
  5
B71
  8
TEAM-NET
 10
-122.872807
 20
-63.963535
 30
850.0
 70
    64
  0
VERTEX
  5
B72
  8
TEAM-NET
 10
-114.906666
 20
-53.581859
 30
850.0
 70
    64
  0
VERTEX
  5
B73
  8
TEAM-NET
 10
-106.066017
 20
-43.933983
 30
850.0
 70
    64
  0
VERTEX
  5
B74
  8
TEAM-NET
 10
-96.418141
 20
-35.093334
 30
850.0
 70
    64
  0
VERTEX
  5
B75
  8
TEAM-NET
 10
-86.036465
 20
-27.127193
 30
850.0
 70
    64
  0
VERTEX
  5
B76
  8
TEAM-NET
 10
-75.0
 20
-20.096189
 30
850.0
 70
    64
  0
VERTEX
  5
B77
  8
TEAM-NET
 10
-63.392739
 20
-14.053832
 30
850.0
 70
    64
  0
VERTEX
  5
B78
  8
TEAM-NET
 10
-51.303021
 20
-9.046107
 30
850.0
 70
    64
  0
VERTEX
  5
B79
  8
TEAM-NET
 10
-38.822857
 20
-5.111126
 30
850.0
 70
    64
  0
VERTEX
  5
B7A
  8
TEAM-NET
 10
-26.047227
 20
-2.278837
 30
850.0
 70
    64
  0
VERTEX
  5
B7B
  8
TEAM-NET
 10
-13.073361
 20
-0.570795
 30
850.0
 70
    64
  0
VERTEX
  5
B7C
  8
TEAM-NET
 10
0.0
 20
0.0
 30
850.0
 70
    64
  0
SEQEND
  5
B7D
  8
TEAM-NET
  0
TEXT
  5
B7E
  8
TEAM-TXT
 10
-124.91523
 20
-214.403862
 30
850.0
 40
30.0
  1
team 217072
 41
0.8
 51
15.0
  7
TEAM
  0
ENDSEC
  0
EOF
