  0
SECTION
  2
HEADER
  9
$ACADVER
  1
AC1009
  9
$INSBASE
 10
0.0
 20
0.0
 30
350.0
  9
$EXTMIN
 10
-162.50905
 20
-365.026882
 30
-0.040036
  9
$EXTMAX
 10
162.515995
 20
10.027473
 30
900.001162
  9
$LIMMIN
 10
-162.50905
 20
-365.026882
  9
$LIMMAX
 10
162.515995
 20
10.027473
  9
$ORTHOMODE
 70
     1
  9
$REGENMODE
 70
     1
  9
$FILLMODE
 70
     1
  9
$QTEXTMODE
 70
     0
  9
$MIRRTEXT
 70
     0
  9
$DRAGMODE
 70
     2
  9
$LTSCALE
 40
50.0
  9
$OSMODE
 70
     7
  9
$ATTMODE
 70
     1
  9
$TEXTSIZE
 40
200.0
  9
$TRACEWID
 40
1.0
  9
$TEXTSTYLE
  7
STANDARD
  9
$CLAYER
  8
TEAM-MAS
  9
$CELTYPE
  6
BYLAYER
  9
$CECOLOR
 62
   256
  9
$DIMSCALE
 40
1.0
  9
$DIMASZ
 40
20.0
  9
$DIMEXO
 40
10.0
  9
$DIMDLI
 40
1.0
  9
$DIMRND
 40
0.0
  9
$DIMDLE
 40
0.0
  9
$DIMEXE
 40
1.0
  9
$DIMTP
 40
0.0
  9
$DIMTM
 40
0.0
  9
$DIMTXT
 40
35.0
  9
$DIMCEN
 40
1.0
  9
$DIMTSZ
 40
0.0
  9
$DIMTOL
 70
     0
  9
$DIMLIM
 70
     0
  9
$DIMTIH
 70
     0
  9
$DIMTOH
 70
     0
  9
$DIMSE1
 70
     0
  9
$DIMSE2
 70
     0
  9
$DIMTAD
 70
     0
  9
$DIMZIN
 70
     0
  9
$DIMBLK
  1

  9
$DIMASO
 70
     1
  9
$DIMSHO
 70
     0
  9
$DIMPOST
  1

  9
$DIMAPOST
  1

  9
$DIMALT
 70
     0
  9
$DIMALTD
 70
     2
  9
$DIMALTF
 40
25.4
  9
$DIMLFAC
 40
1.0
  9
$DIMTOFL
 70
     0
  9
$DIMTVP
 40
0.0
  9
$DIMTIX
 70
     0
  9
$DIMSOXD
 70
     0
  9
$DIMSAH
 70
     0
  9
$DIMBLK1
  1

  9
$DIMBLK2
  1

  9
$DIMSTYLE
  2
TEAM
  9
$DIMCLRD
 70
     9
  9
$DIMCLRE
 70
     9
  9
$DIMCLRT
 70
    11
  9
$DIMTFAC
 40
1.0
  9
$DIMGAP
 40
7.0
  9
$LUNITS
 70
     2
  9
$LUPREC
 70
     1
  9
$SKETCHINC
 40
1.0
  9
$FILLETRAD
 40
44.0
  9
$AUNITS
 70
     0
  9
$AUPREC
 70
     0
  9
$MENU
  1
ROPLANS
  9
$ELEVATION
 40
0.0
  9
$PELEVATION
 40
0.0
  9
$THICKNESS
 40
0.0
  9
$LIMCHECK
 70
     0
  9
$BLIPMODE
 70
     1
  9
$CHAMFERA
 40
0.0
  9
$CHAMFERB
 40
0.0
  9
$SKPOLY
 70
     0
  9
$TDCREATE
 40
2450392.957851
  9
$TDUPDATE
 40
2455981.928629
  9
$TDINDWG
 40
3.777306
  9
$TDUSRTIMER
 40
3.777306
  9
$USRTIMER
 70
     1
  9
$ANGBASE
 50
0.0
  9
$ANGDIR
 70
     0
  9
$PDMODE
 70
     0
  9
$PDSIZE
 40
0.0
  9
$PLINEWID
 40
0.0
  9
$COORDS
 70
     2
  9
$SPLFRAME
 70
     0
  9
$SPLINETYPE
 70
     6
  9
$SPLINESEGS
 70
     8
  9
$ATTDIA
 70
     0
  9
$ATTREQ
 70
     0
  9
$HANDLING
 70
     1
  9
$HANDSEED
  5
67E
  9
$SURFTAB1
 70
    36
  9
$SURFTAB2
 70
    36
  9
$SURFTYPE
 70
     6
  9
$SURFU
 70
     6
  9
$SURFV
 70
     6
  9
$UCSNAME
  2

  9
$UCSORG
 10
0.0
 20
0.0
 30
0.0
  9
$UCSXDIR
 10
1.0
 20
0.0
 30
0.0
  9
$UCSYDIR
 10
0.0
 20
1.0
 30
0.0
  9
$PUCSNAME
  2

  9
$PUCSORG
 10
0.0
 20
0.0
 30
0.0
  9
$PUCSXDIR
 10
1.0
 20
0.0
 30
0.0
  9
$PUCSYDIR
 10
0.0
 20
1.0
 30
0.0
  9
$USERI1
 70
     0
  9
$USERI2
 70
     0
  9
$USERI3
 70
     0
  9
$USERI4
 70
     0
  9
$USERI5
 70
     0
  9
$USERR1
 40
0.0
  9
$USERR2
 40
0.0
  9
$USERR3
 40
0.0
  9
$USERR4
 40
0.0
  9
$USERR5
 40
0.0
  9
$WORLDVIEW
 70
     1
  9
$SHADEDGE
 70
     0
  9
$SHADEDIF
 70
    70
  9
$TILEMODE
 70
     1
  9
$MAXACTVP
 70
    16
  9
$PLIMCHECK
 70
     0
  9
$PEXTMIN
 10
-0.805942
 20
0.005011
 30
0.0
  9
$PEXTMAX
 10
20.250094
 20
11.356329
 30
0.0
  9
$PLIMMIN
 10
0.0
 20
0.0
  9
$PLIMMAX
 10
12.0
 20
9.0
  9
$UNITMODE
 70
     0
  9
$VISRETAIN
 70
     0
  9
$PLINEGEN
 70
     0
  9
$PSLTSCALE
 70
     0
  0
ENDSEC
  0
SECTION
  2
TABLES
  0
TABLE
  2
VPORT
 70
     2
  0
VPORT
  2
*ACTIVE
 70
     0
 10
0.0
 20
0.0
 11
1.0
 21
1.0
 12
0.003472
 22
-177.499704
 13
0.0
 23
0.0
 14
1.0
 24
1.0
 15
50.0
 25
50.0
 16
0.0
 26
0.0
 36
1.0
 17
0.0
 27
0.0
 37
0.0
 40
377.405793
 41
1.903766
 42
50.0
 43
0.0
 44
0.0
 50
0.0
 51
0.0
 71
     0
 72
   100
 73
     1
 74
     1
 75
     0
 76
     0
 77
     0
 78
     0
  0
ENDTAB
  0
TABLE
  2
LTYPE
 70
     2
  0
LTYPE
  2
CONTINUOUS
 70
     0
  3
Solid Line
 72
    65
 73
     0
 40
0.0
  0
LTYPE
  2
31
 70
     0
  3

 72
    65
 73
     4
 40
2.1
 49
1.5
 49
-0.3
 49
0.0
 49
-0.3
  0
ENDTAB
  0
TABLE
  2
LAYER
 70
     9
  0
LAYER
  2
0
 70
     0
 62
     7
  6
CONTINUOUS
  0
LAYER
  2
TEAM-BODY
 70
     0
 62
     2
  6
CONTINUOUS
  0
LAYER
  2
TEAM-AXE
 70
     0
 62
    10
  6
31
  0
LAYER
  2
TEAM-MAS
 70
     0
 62
     9
  6
CONTINUOUS
  0
LAYER
  2
TEAM-TXT
 70
     0
 62
    11
  6
CONTINUOUS
  0
LAYER
  2
TEAM-DET1
 70
     0
 62
     4
  6
CONTINUOUS
  0
LAYER
  2
TEAM-KAN
 70
     0
 62
     6
  6
CONTINUOUS
  0
LAYER
  2
TEAM-NET
 70
     0
 62
    15
  6
CONTINUOUS
  0
LAYER
  2
TEAM-INSP
 70
     0
 62
     5
  6
CONTINUOUS
  0
ENDTAB
  0
TABLE
  2
STYLE
 70
     2
  0
STYLE
  2
STANDARD
 70
     0
 40
0.0
 41
1.0
 50
0.0
 71
     0
 42
200.0
  3
txt
  4

  0
STYLE
  2
TEAM
 70
     0
 40
0.0
 41
0.8
 50
15.0
 71
     0
 42
7.0
  3
ROMANS.shx
  4

  0
ENDTAB
  0
TABLE
  2
VIEW
 70
     0
  0
ENDTAB
  0
TABLE
  2
UCS
 70
     0
  0
ENDTAB
  0
TABLE
  2
APPID
 70
     1
  0
APPID
  2
ACAD
 70
     0
  0
ENDTAB
  0
TABLE
  2
DIMSTYLE
 70
     1
  0
DIMSTYLE
  2
TEAM
 70
     0
  3

  4

  5

  6

  7

 40
1.0
 41
20.0
 42
10.0
 43
1.0
 44
1.0
 45
0.0
 46
0.0
 47
0.0
 48
0.0
140
35.0
141
1.0
142
0.0
143
25.4
144
1.0
145
0.0
146
1.0
147
7.0
 71
     0
 72
     0
 73
     0
 74
     0
 75
     0
 76
     0
 77
     0
 78
     0
170
     0
171
     2
172
     0
173
     0
174
     0
175
     0
176
     9
177
     9
178
    11
  0
ENDTAB
  0
ENDSEC
  0
SECTION
  2
BLOCKS
  0
BLOCK
  8
0
  2
$MODEL_SPACE
 70
     0
 10
0.0
 20
0.0
 30
0.0
  3
$MODEL_SPACE
  1

  0
ENDBLK
  5
677
  8
0
  0
BLOCK
 67
     1
  8
0
  2
$PAPER_SPACE
 70
     0
 10
0.0
 20
0.0
 30
0.0
  3
$PAPER_SPACE
  1

  0
ENDBLK
  5
675
 67
     1
  8
0
  0
ENDSEC
  0
SECTION
  2
ENTITIES
  0
ARC
  5
20
  8
TEAM-BODY
 39
-900.0
 10
0.0
 20
-202.5
 30
900.0
 40
162.5
 50
90.0
 51
270.0
  0
ARC
  5
22
  8
TEAM-BODY
 39
-900.0
 10
0.0
 20
-202.5
 30
900.0
 40
162.5
 50
270.0
 51
90.0
  0
LINE
  5
23
  8
TEAM-BODY
 39
-400.0
 10
73.0
 20
0.0
 30
750.0
 11
73.0
 21
-53.798496
 31
750.0
  0
LINE
  5
24
  8
TEAM-BODY
 39
-400.0
 10
-73.0
 20
0.0
 30
750.0
 11
73.0
 21
0.0
 31
750.0
  0
LINE
  5
25
  8
TEAM-BODY
 39
-400.0
 10
-73.0
 20
0.0
 30
750.0
 11
-73.0
 21
-53.798496
 31
750.0
  0
CIRCLE
  5
26
  8
TEAM-INSP
 10
0.0
 20
0.0
 30
0.0
 40
10.0
  0
LINE
  5
28
  8
TEAM-BODY
 10
73.0
 20
0.0
 30
350.0
 11
73.0
 21
-57.319939
 31
350.0
  0
LINE
  5
29
  8
TEAM-BODY
 10
-73.0
 20
0.0
 30
350.0
 11
73.0
 21
0.0
 31
350.0
  0
LINE
  5
2A
  8
TEAM-BODY
 10
-73.0
 20
0.0
 30
350.0
 11
-73.0
 21
-57.319939
 31
350.0
  0
POLYLINE
  5
2B
  8
TEAM-NET
 66
     1
 10
0.0
 20
0.0
 30
0.0
 70
    16
 71
    37
 72
    37
  0
VERTEX
  5
2C
  8
TEAM-NET
 10
0.0
 20
-340.0
 30
900.0
 70
    64
  0
VERTEX
  5
2D
  8
TEAM-NET
 10
11.983915
 20
-339.476771
 30
900.0
 70
    64
  0
VERTEX
  5
2E
  8
TEAM-NET
 10
23.876624
 20
-337.911066
 30
900.0
 70
    64
  0
VERTEX
  5
2F
  8
TEAM-NET
 10
35.587619
 20
-335.314801
 30
900.0
 70
    64
  0
VERTEX
  5
30
  8
TEAM-NET
 10
47.02777
 20
-331.707735
 30
900.0
 70
    64
  0
VERTEX
  5
31
  8
TEAM-NET
 10
58.110011
 20
-327.117321
 30
900.0
 70
    64
  0
VERTEX
  5
32
  8
TEAM-NET
 10
68.75
 20
-321.578493
 30
900.0
 70
    64
  0
VERTEX
  5
33
  8
TEAM-NET
 10
78.86676
 20
-315.133406
 30
900.0
 70
    64
  0
VERTEX
  5
34
  8
TEAM-NET
 10
88.383296
 20
-307.831111
 30
900.0
 70
    64
  0
VERTEX
  5
35
  8
TEAM-NET
 10
97.227182
 20
-299.727182
 30
900.0
 70
    64
  0
VERTEX
  5
36
  8
TEAM-NET
 10
105.331111
 20
-290.883296
 30
900.0
 70
    64
  0
VERTEX
  5
37
  8
TEAM-NET
 10
112.633406
 20
-281.36676
 30
900.0
 70
    64
  0
VERTEX
  5
38
  8
TEAM-NET
 10
119.078493
 20
-271.25
 30
900.0
 70
    64
  0
VERTEX
  5
39
  8
TEAM-NET
 10
124.617321
 20
-260.610011
 30
900.0
 70
    64
  0
VERTEX
  5
3A
  8
TEAM-NET
 10
129.207735
 20
-249.52777
 30
900.0
 70
    64
  0
VERTEX
  5
3B
  8
TEAM-NET
 10
132.814801
 20
-238.087619
 30
900.0
 70
    64
  0
VERTEX
  5
3C
  8
TEAM-NET
 10
135.411066
 20
-226.376624
 30
900.0
 70
    64
  0
VERTEX
  5
3D
  8
TEAM-NET
 10
136.976771
 20
-214.483915
 30
900.0
 70
    64
  0
VERTEX
  5
3E
  8
TEAM-NET
 10
137.5
 20
-202.5
 30
900.0
 70
    64
  0
VERTEX
  5
3F
  8
TEAM-NET
 10
136.976771
 20
-190.516085
 30
900.0
 70
    64
  0
VERTEX
  5
40
  8
TEAM-NET
 10
135.411066
 20
-178.623376
 30
900.0
 70
    64
  0
VERTEX
  5
41
  8
TEAM-NET
 10
132.814801
 20
-166.912381
 30
900.0
 70
    64
  0
VERTEX
  5
42
  8
TEAM-NET
 10
129.207735
 20
-155.47223
 30
900.0
 70
    64
  0
VERTEX
  5
43
  8
TEAM-NET
 10
124.617321
 20
-144.389989
 30
900.0
 70
    64
  0
VERTEX
  5
44
  8
TEAM-NET
 10
119.078493
 20
-133.75
 30
900.0
 70
    64
  0
VERTEX
  5
45
  8
TEAM-NET
 10
112.633406
 20
-123.63324
 30
900.0
 70
    64
  0
VERTEX
  5
46
  8
TEAM-NET
 10
105.331111
 20
-114.116704
 30
900.0
 70
    64
  0
VERTEX
  5
47
  8
TEAM-NET
 10
97.227182
 20
-105.272818
 30
900.0
 70
    64
  0
VERTEX
  5
48
  8
TEAM-NET
 10
88.383296
 20
-97.168889
 30
900.0
 70
    64
  0
VERTEX
  5
49
  8
TEAM-NET
 10
78.86676
 20
-89.866594
 30
900.0
 70
    64
  0
VERTEX
  5
4A
  8
TEAM-NET
 10
68.75
 20
-83.421507
 30
900.0
 70
    64
  0
VERTEX
  5
4B
  8
TEAM-NET
 10
58.110011
 20
-77.882679
 30
900.0
 70
    64
  0
VERTEX
  5
4C
  8
TEAM-NET
 10
47.02777
 20
-73.292265
 30
900.0
 70
    64
  0
VERTEX
  5
4D
  8
TEAM-NET
 10
35.587619
 20
-69.685199
 30
900.0
 70
    64
  0
VERTEX
  5
4E
  8
TEAM-NET
 10
23.876624
 20
-67.088934
 30
900.0
 70
    64
  0
VERTEX
  5
4F
  8
TEAM-NET
 10
11.983915
 20
-65.523229
 30
900.0
 70
    64
  0
VERTEX
  5
50
  8
TEAM-NET
 10
0.0
 20
-65.0
 30
900.0
 70
    64
  0
VERTEX
  5
51
  8
TEAM-NET
 10
0.0
 20
-340.0
 30
900.0
 70
    64
  0
VERTEX
  5
52
  8
TEAM-NET
 10
11.938312
 20
-339.476771
 30
898.955533
 70
    64
  0
VERTEX
  5
53
  8
TEAM-NET
 10
23.785767
 20
-337.911066
 30
897.919015
 70
    64
  0
VERTEX
  5
54
  8
TEAM-NET
 10
35.452197
 20
-335.314801
 30
896.898335
 70
    64
  0
VERTEX
  5
55
  8
TEAM-NET
 10
46.848815
 20
-331.707735
 30
895.90126
 70
    64
  0
VERTEX
  5
56
  8
TEAM-NET
 10
57.888885
 20
-327.117321
 30
894.935379
 70
    64
  0
VERTEX
  5
57
  8
TEAM-NET
 10
68.488385
 20
-321.578493
 30
894.008043
 70
    64
  0
VERTEX
  5
58
  8
TEAM-NET
 10
78.566648
 20
-315.133406
 30
893.126309
 70
    64
  0
VERTEX
  5
59
  8
TEAM-NET
 10
88.046971
 20
-307.831111
 30
892.296888
 70
    64
  0
VERTEX
  5
5A
  8
TEAM-NET
 10
96.857204
 20
-299.727182
 30
891.526093
 70
    64
  0
VERTEX
  5
5B
  8
TEAM-NET
 10
104.930294
 20
-290.883296
 30
890.819789
 70
    64
  0
VERTEX
  5
5C
  8
TEAM-NET
 10
112.204802
 20
-281.36676
 30
890.183352
 70
    64
  0
VERTEX
  5
5D
  8
TEAM-NET
 10
118.625363
 20
-271.25
 30
889.621625
 70
    64
  0
VERTEX
  5
5E
  8
TEAM-NET
 10
124.143114
 20
-260.610011
 30
889.138885
 70
    64
  0
VERTEX
  5
5F
  8
TEAM-NET
 10
128.716061
 20
-249.52777
 30
888.738804
 70
    64
  0
VERTEX
  5
60
  8
TEAM-NET
 10
132.309401
 20
-238.087619
 30
888.424427
 70
    64
  0
VERTEX
  5
61
  8
TEAM-NET
 10
134.895786
 20
-226.376624
 30
888.198148
 70
    64
  0
VERTEX
  5
62
  8
TEAM-NET
 10
136.455533
 20
-214.483915
 30
888.061688
 70
    64
  0
VERTEX
  5
63
  8
TEAM-NET
 10
136.976771
 20
-202.5
 30
888.016085
 70
    64
  0
VERTEX
  5
64
  8
TEAM-NET
 10
136.455533
 20
-190.516085
 30
888.061688
 70
    64
  0
VERTEX
  5
65
  8
TEAM-NET
 10
134.895786
 20
-178.623376
 30
888.198148
 70
    64
  0
VERTEX
  5
66
  8
TEAM-NET
 10
132.309401
 20
-166.912381
 30
888.424427
 70
    64
  0
VERTEX
  5
67
  8
TEAM-NET
 10
128.716061
 20
-155.47223
 30
888.738804
 70
    64
  0
VERTEX
  5
68
  8
TEAM-NET
 10
124.143114
 20
-144.389989
 30
889.138885
 70
    64
  0
VERTEX
  5
69
  8
TEAM-NET
 10
118.625363
 20
-133.75
 30
889.621625
 70
    64
  0
VERTEX
  5
6A
  8
TEAM-NET
 10
112.204802
 20
-123.63324
 30
890.183352
 70
    64
  0
VERTEX
  5
6B
  8
TEAM-NET
 10
104.930294
 20
-114.116704
 30
890.819789
 70
    64
  0
VERTEX
  5
6C
  8
TEAM-NET
 10
96.857204
 20
-105.272818
 30
891.526093
 70
    64
  0
VERTEX
  5
6D
  8
TEAM-NET
 10
88.046971
 20
-97.168889
 30
892.296888
 70
    64
  0
VERTEX
  5
6E
  8
TEAM-NET
 10
78.566648
 20
-89.866594
 30
893.126309
 70
    64
  0
VERTEX
  5
6F
  8
TEAM-NET
 10
68.488385
 20
-83.421507
 30
894.008043
 70
    64
  0
VERTEX
  5
70
  8
TEAM-NET
 10
57.888885
 20
-77.882679
 30
894.935379
 70
    64
  0
VERTEX
  5
71
  8
TEAM-NET
 10
46.848815
 20
-73.292265
 30
895.90126
 70
    64
  0
VERTEX
  5
72
  8
TEAM-NET
 10
35.452197
 20
-69.685199
 30
896.898335
 70
    64
  0
VERTEX
  5
73
  8
TEAM-NET
 10
23.785767
 20
-67.088934
 30
897.919015
 70
    64
  0
VERTEX
  5
74
  8
TEAM-NET
 10
11.938312
 20
-65.523229
 30
898.955533
 70
    64
  0
VERTEX
  5
75
  8
TEAM-NET
 10
0.0
 20
-65.0
 30
900.0
 70
    64
  0
VERTEX
  5
76
  8
TEAM-NET
 10
0.0
 20
-340.0
 30
900.0
 70
    64
  0
VERTEX
  5
77
  8
TEAM-NET
 10
11.801852
 20
-339.476771
 30
897.919015
 70
    64
  0
VERTEX
  5
78
  8
TEAM-NET
 10
23.513885
 20
-337.911066
 30
895.853868
 70
    64
  0
VERTEX
  5
79
  8
TEAM-NET
 10
35.046963
 20
-335.314801
 30
893.820275
 70
    64
  0
VERTEX
  5
7A
  8
TEAM-NET
 10
46.313312
 20
-331.707735
 30
891.833713
 70
    64
  0
VERTEX
  5
7B
  8
TEAM-NET
 10
57.227189
 20
-327.117321
 30
889.909302
 70
    64
  0
VERTEX
  5
7C
  8
TEAM-NET
 10
67.705533
 20
-321.578493
 30
888.061688
 70
    64
  0
VERTEX
  5
7D
  8
TEAM-NET
 10
77.668597
 20
-315.133406
 30
886.304931
 70
    64
  0
VERTEX
  5
7E
  8
TEAM-NET
 10
87.040555
 20
-307.831111
 30
884.652402
 70
    64
  0
VERTEX
  5
7F
  8
TEAM-NET
 10
95.750083
 20
-299.727182
 30
883.116677
 70
    64
  0
VERTEX
  5
80
  8
TEAM-NET
 10
103.730895
 20
-290.883296
 30
881.709445
 70
    64
  0
VERTEX
  5
81
  8
TEAM-NET
 10
110.922252
 20
-281.36676
 30
880.441414
 70
    64
  0
VERTEX
  5
82
  8
TEAM-NET
 10
117.269423
 20
-271.25
 30
879.322237
 70
    64
  0
VERTEX
  5
83
  8
TEAM-NET
 10
122.724104
 20
-260.610011
 30
878.360429
 70
    64
  0
VERTEX
  5
84
  8
TEAM-NET
 10
127.24478
 20
-249.52777
 30
877.563312
 70
    64
  0
VERTEX
  5
85
  8
TEAM-NET
 10
130.797046
 20
-238.087619
 30
876.936952
 70
    64
  0
VERTEX
  5
86
  8
TEAM-NET
 10
133.353868
 20
-226.376624
 30
876.486115
 70
    64
  0
VERTEX
  5
87
  8
TEAM-NET
 10
134.895786
 20
-214.483915
 30
876.214233
 70
    64
  0
VERTEX
  5
88
  8
TEAM-NET
 10
135.411066
 20
-202.5
 30
876.123376
 70
    64
  0
VERTEX
  5
89
  8
TEAM-NET
 10
134.895786
 20
-190.516085
 30
876.214233
 70
    64
  0
VERTEX
  5
8A
  8
TEAM-NET
 10
133.353868
 20
-178.623376
 30
876.486115
 70
    64
  0
VERTEX
  5
8B
  8
TEAM-NET
 10
130.797046
 20
-166.912381
 30
876.936952
 70
    64
  0
VERTEX
  5
8C
  8
TEAM-NET
 10
127.24478
 20
-155.47223
 30
877.563312
 70
    64
  0
VERTEX
  5
8D
  8
TEAM-NET
 10
122.724104
 20
-144.389989
 30
878.360429
 70
    64
  0
VERTEX
  5
8E
  8
TEAM-NET
 10
117.269423
 20
-133.75
 30
879.322237
 70
    64
  0
VERTEX
  5
8F
  8
TEAM-NET
 10
110.922252
 20
-123.63324
 30
880.441414
 70
    64
  0
VERTEX
  5
90
  8
TEAM-NET
 10
103.730895
 20
-114.116704
 30
881.709445
 70
    64
  0
VERTEX
  5
91
  8
TEAM-NET
 10
95.750083
 20
-105.272818
 30
883.116677
 70
    64
  0
VERTEX
  5
92
  8
TEAM-NET
 10
87.040555
 20
-97.168889
 30
884.652402
 70
    64
  0
VERTEX
  5
93
  8
TEAM-NET
 10
77.668597
 20
-89.866594
 30
886.304931
 70
    64
  0
VERTEX
  5
94
  8
TEAM-NET
 10
67.705533
 20
-83.421507
 30
888.061688
 70
    64
  0
VERTEX
  5
95
  8
TEAM-NET
 10
57.227189
 20
-77.882679
 30
889.909302
 70
    64
  0
VERTEX
  5
96
  8
TEAM-NET
 10
46.313312
 20
-73.292265
 30
891.833713
 70
    64
  0
VERTEX
  5
97
  8
TEAM-NET
 10
35.046963
 20
-69.685199
 30
893.820275
 70
    64
  0
VERTEX
  5
98
  8
TEAM-NET
 10
23.513885
 20
-67.088934
 30
895.853868
 70
    64
  0
VERTEX
  5
99
  8
TEAM-NET
 10
11.801852
 20
-65.523229
 30
897.919015
 70
    64
  0
VERTEX
  5
9A
  8
TEAM-NET
 10
0.0
 20
-65.0
 30
900.0
 70
    64
  0
VERTEX
  5
9B
  8
TEAM-NET
 10
0.0
 20
-340.0
 30
900.0
 70
    64
  0
VERTEX
  5
9C
  8
TEAM-NET
 10
11.575573
 20
-339.476771
 30
896.898335
 70
    64
  0
VERTEX
  5
9D
  8
TEAM-NET
 10
23.063048
 20
-337.911066
 30
893.820275
 70
    64
  0
VERTEX
  5
9E
  8
TEAM-NET
 10
34.375
 20
-335.314801
 30
890.789247
 70
    64
  0
VERTEX
  5
9F
  8
TEAM-NET
 10
45.425337
 20
-331.707735
 30
887.828318
 70
    64
  0
VERTEX
  5
A0
  8
TEAM-NET
 10
56.12996
 20
-327.117321
 30
884.960022
 70
    64
  0
VERTEX
  5
A1
  8
TEAM-NET
 10
66.407401
 20
-321.578493
 30
882.206191
 70
    64
  0
VERTEX
  5
A2
  8
TEAM-NET
 10
76.17944
 20
-315.133406
 30
879.58778
 70
    64
  0
VERTEX
  5
A3
  8
TEAM-NET
 10
85.371709
 20
-307.831111
 30
877.12472
 70
    64
  0
VERTEX
  5
A4
  8
TEAM-NET
 10
93.914247
 20
-299.727182
 30
874.835753
 70
    64
  0
VERTEX
  5
A5
  8
TEAM-NET
 10
101.74204
 20
-290.883296
 30
872.738302
 70
    64
  0
VERTEX
  5
A6
  8
TEAM-NET
 10
108.795516
 20
-281.36676
 30
870.848329
 70
    64
  0
VERTEX
  5
A7
  8
TEAM-NET
 10
115.020992
 20
-271.25
 30
869.180218
 70
    64
  0
VERTEX
  5
A8
  8
TEAM-NET
 10
120.371088
 20
-260.610011
 30
867.746664
 70
    64
  0
VERTEX
  5
A9
  8
TEAM-NET
 10
124.805089
 20
-249.52777
 30
866.558577
 70
    64
  0
VERTEX
  5
AA
  8
TEAM-NET
 10
128.289247
 20
-238.087619
 30
865.625
 70
    64
  0
VERTEX
  5
AB
  8
TEAM-NET
 10
130.797046
 20
-226.376624
 30
864.953037
 70
    64
  0
VERTEX
  5
AC
  8
TEAM-NET
 10
132.309401
 20
-214.483915
 30
864.547803
 70
    64
  0
VERTEX
  5
AD
  8
TEAM-NET
 10
132.814801
 20
-202.5
 30
864.412381
 70
    64
  0
VERTEX
  5
AE
  8
TEAM-NET
 10
132.309401
 20
-190.516085
 30
864.547803
 70
    64
  0
VERTEX
  5
AF
  8
TEAM-NET
 10
130.797046
 20
-178.623376
 30
864.953037
 70
    64
  0
VERTEX
  5
B0
  8
TEAM-NET
 10
128.289247
 20
-166.912381
 30
865.625
 70
    64
  0
VERTEX
  5
B1
  8
TEAM-NET
 10
124.805089
 20
-155.47223
 30
866.558577
 70
    64
  0
VERTEX
  5
B2
  8
TEAM-NET
 10
120.371088
 20
-144.389989
 30
867.746664
 70
    64
  0
VERTEX
  5
B3
  8
TEAM-NET
 10
115.020992
 20
-133.75
 30
869.180218
 70
    64
  0
VERTEX
  5
B4
  8
TEAM-NET
 10
108.795516
 20
-123.63324
 30
870.848329
 70
    64
  0
VERTEX
  5
B5
  8
TEAM-NET
 10
101.74204
 20
-114.116704
 30
872.738302
 70
    64
  0
VERTEX
  5
B6
  8
TEAM-NET
 10
93.914247
 20
-105.272818
 30
874.835753
 70
    64
  0
VERTEX
  5
B7
  8
TEAM-NET
 10
85.371709
 20
-97.168889
 30
877.12472
 70
    64
  0
VERTEX
  5
B8
  8
TEAM-NET
 10
76.17944
 20
-89.866594
 30
879.58778
 70
    64
  0
VERTEX
  5
B9
  8
TEAM-NET
 10
66.407401
 20
-83.421507
 30
882.206191
 70
    64
  0
VERTEX
  5
BA
  8
TEAM-NET
 10
56.12996
 20
-77.882679
 30
884.960022
 70
    64
  0
VERTEX
  5
BB
  8
TEAM-NET
 10
45.425337
 20
-73.292265
 30
887.828318
 70
    64
  0
VERTEX
  5
BC
  8
TEAM-NET
 10
34.375
 20
-69.685199
 30
890.789247
 70
    64
  0
VERTEX
  5
BD
  8
TEAM-NET
 10
23.063048
 20
-67.088934
 30
893.820275
 70
    64
  0
VERTEX
  5
BE
  8
TEAM-NET
 10
11.575573
 20
-65.523229
 30
896.898335
 70
    64
  0
VERTEX
  5
BF
  8
TEAM-NET
 10
0.0
 20
-65.0
 30
900.0
 70
    64
  0
VERTEX
  5
C0
  8
TEAM-NET
 10
0.0
 20
-340.0
 30
900.0
 70
    64
  0
VERTEX
  5
C1
  8
TEAM-NET
 10
11.261196
 20
-339.476771
 30
895.90126
 70
    64
  0
VERTEX
  5
C2
  8
TEAM-NET
 10
22.436688
 20
-337.911066
 30
891.833713
 70
    64
  0
VERTEX
  5
C3
  8
TEAM-NET
 10
33.441423
 20
-335.314801
 30
887.828318
 70
    64
  0
VERTEX
  5
C4
  8
TEAM-NET
 10
44.191648
 20
-331.707735
 30
883.915555
 70
    64
  0
VERTEX
  5
C5
  8
TEAM-NET
 10
54.605549
 20
-327.117321
 30
880.125206
 70
    64
  0
VERTEX
  5
C6
  8
TEAM-NET
 10
64.603868
 20
-321.578493
 30
876.486115
 70
    64
  0
VERTEX
  5
C7
  8
TEAM-NET
 10
74.110512
 20
-315.133406
 30
873.025979
 70
    64
  0
VERTEX
  5
C8
  8
TEAM-NET
 10
83.053131
 20
-307.831111
 30
869.771132
 70
    64
  0
VERTEX
  5
C9
  8
TEAM-NET
 10
91.363666
 20
-299.727182
 30
866.746345
 70
    64
  0
VERTEX
  5
CA
  8
TEAM-NET
 10
98.978868
 20
-290.883296
 30
863.974638
 70
    64
  0
VERTEX
  5
CB
  8
TEAM-NET
 10
105.840781
 20
-281.36676
 30
861.477106
 70
    64
  0
VERTEX
  5
CC
  8
TEAM-NET
 10
111.897181
 20
-271.25
 30
859.272757
 70
    64
  0
VERTEX
  5
CD
  8
TEAM-NET
 10
117.101977
 20
-260.610011
 30
857.378366
 70
    64
  0
VERTEX
  5
CE
  8
TEAM-NET
 10
121.415555
 20
-249.52777
 30
855.808352
 70
    64
  0
VERTEX
  5
CF
  8
TEAM-NET
 10
124.805089
 20
-238.087619
 30
854.574663
 70
    64
  0
VERTEX
  5
D0
  8
TEAM-NET
 10
127.24478
 20
-226.376624
 30
853.686688
 70
    64
  0
VERTEX
  5
D1
  8
TEAM-NET
 10
128.716061
 20
-214.483915
 30
853.151185
 70
    64
  0
VERTEX
  5
D2
  8
TEAM-NET
 10
129.207735
 20
-202.5
 30
852.97223
 70
    64
  0
VERTEX
  5
D3
  8
TEAM-NET
 10
128.716061
 20
-190.516085
 30
853.151185
 70
    64
  0
VERTEX
  5
D4
  8
TEAM-NET
 10
127.24478
 20
-178.623376
 30
853.686688
 70
    64
  0
VERTEX
  5
D5
  8
TEAM-NET
 10
124.805089
 20
-166.912381
 30
854.574663
 70
    64
  0
VERTEX
  5
D6
  8
TEAM-NET
 10
121.415555
 20
-155.47223
 30
855.808352
 70
    64
  0
VERTEX
  5
D7
  8
TEAM-NET
 10
117.101977
 20
-144.389989
 30
857.378366
 70
    64
  0
VERTEX
  5
D8
  8
TEAM-NET
 10
111.897181
 20
-133.75
 30
859.272757
 70
    64
  0
VERTEX
  5
D9
  8
TEAM-NET
 10
105.840781
 20
-123.63324
 30
861.477106
 70
    64
  0
VERTEX
  5
DA
  8
TEAM-NET
 10
98.978868
 20
-114.116704
 30
863.974638
 70
    64
  0
VERTEX
  5
DB
  8
TEAM-NET
 10
91.363666
 20
-105.272818
 30
866.746345
 70
    64
  0
VERTEX
  5
DC
  8
TEAM-NET
 10
83.053131
 20
-97.168889
 30
869.771132
 70
    64
  0
VERTEX
  5
DD
  8
TEAM-NET
 10
74.110512
 20
-89.866594
 30
873.025979
 70
    64
  0
VERTEX
  5
DE
  8
TEAM-NET
 10
64.603868
 20
-83.421507
 30
876.486115
 70
    64
  0
VERTEX
  5
DF
  8
TEAM-NET
 10
54.605549
 20
-77.882679
 30
880.125206
 70
    64
  0
VERTEX
  5
E0
  8
TEAM-NET
 10
44.191648
 20
-73.292265
 30
883.915555
 70
    64
  0
VERTEX
  5
E1
  8
TEAM-NET
 10
33.441423
 20
-69.685199
 30
887.828318
 70
    64
  0
VERTEX
  5
E2
  8
TEAM-NET
 10
22.436688
 20
-67.088934
 30
891.833713
 70
    64
  0
VERTEX
  5
E3
  8
TEAM-NET
 10
11.261196
 20
-65.523229
 30
895.90126
 70
    64
  0
VERTEX
  5
E4
  8
TEAM-NET
 10
0.0
 20
-65.0
 30
900.0
 70
    64
  0
VERTEX
  5
E5
  8
TEAM-NET
 10
0.0
 20
-340.0
 30
900.0
 70
    64
  0
VERTEX
  5
E6
  8
TEAM-NET
 10
10.861115
 20
-339.476771
 30
894.935379
 70
    64
  0
VERTEX
  5
E7
  8
TEAM-NET
 10
21.639571
 20
-337.911066
 30
889.909302
 70
    64
  0
VERTEX
  5
E8
  8
TEAM-NET
 10
32.253336
 20
-335.314801
 30
884.960022
 70
    64
  0
VERTEX
  5
E9
  8
TEAM-NET
 10
42.621634
 20
-331.707735
 30
880.125206
 70
    64
  0
VERTEX
  5
EA
  8
TEAM-NET
 10
52.665555
 20
-327.117321
 30
875.441648
 70
    64
  0
VERTEX
  5
EB
  8
TEAM-NET
 10
62.30866
 20
-321.578493
 30
870.944995
 70
    64
  0
VERTEX
  5
EC
  8
TEAM-NET
 10
71.477559
 20
-315.133406
 30
866.669467
 70
    64
  0
VERTEX
  5
ED
  8
TEAM-NET
 10
80.10247
 20
-307.831111
 30
862.647605
 70
    64
  0
VERTEX
  5
EE
  8
TEAM-NET
 10
88.117753
 20
-299.727182
 30
858.910017
 70
    64
  0
VERTEX
  5
EF
  8
TEAM-NET
 10
95.462406
 20
-290.883296
 30
855.485149
 70
    64
  0
VERTEX
  5
F0
  8
TEAM-NET
 10
102.080533
 20
-281.36676
 30
852.399066
 70
    64
  0
VERTEX
  5
F1
  8
TEAM-NET
 10
107.921765
 20
-271.25
 30
849.675254
 70
    64
  0
VERTEX
  5
F2
  8
TEAM-NET
 10
112.941648
 20
-260.610011
 30
847.334445
 70
    64
  0
VERTEX
  5
F3
  8
TEAM-NET
 10
117.101977
 20
-249.52777
 30
845.394451
 70
    64
  0
VERTEX
  5
F4
  8
TEAM-NET
 10
120.371088
 20
-238.087619
 30
843.87004
 70
    64
  0
VERTEX
  5
F5
  8
TEAM-NET
 10
122.724104
 20
-226.376624
 30
842.772811
 70
    64
  0
VERTEX
  5
F6
  8
TEAM-NET
 10
124.143114
 20
-214.483915
 30
842.111115
 70
    64
  0
VERTEX
  5
F7
  8
TEAM-NET
 10
124.617321
 20
-202.5
 30
841.889989
 70
    64
  0
VERTEX
  5
F8
  8
TEAM-NET
 10
124.143114
 20
-190.516085
 30
842.111115
 70
    64
  0
VERTEX
  5
F9
  8
TEAM-NET
 10
122.724104
 20
-178.623376
 30
842.772811
 70
    64
  0
VERTEX
  5
FA
  8
TEAM-NET
 10
120.371088
 20
-166.912381
 30
843.87004
 70
    64
  0
VERTEX
  5
FB
  8
TEAM-NET
 10
117.101977
 20
-155.47223
 30
845.394451
 70
    64
  0
VERTEX
  5
FC
  8
TEAM-NET
 10
112.941648
 20
-144.389989
 30
847.334445
 70
    64
  0
VERTEX
  5
FD
  8
TEAM-NET
 10
107.921765
 20
-133.75
 30
849.675254
 70
    64
  0
VERTEX
  5
FE
  8
TEAM-NET
 10
102.080533
 20
-123.63324
 30
852.399066
 70
    64
  0
VERTEX
  5
FF
  8
TEAM-NET
 10
95.462406
 20
-114.116704
 30
855.485149
 70
    64
  0
VERTEX
  5
100
  8
TEAM-NET
 10
88.117753
 20
-105.272818
 30
858.910017
 70
    64
  0
VERTEX
  5
101
  8
TEAM-NET
 10
80.10247
 20
-97.168889
 30
862.647605
 70
    64
  0
VERTEX
  5
102
  8
TEAM-NET
 10
71.477559
 20
-89.866594
 30
866.669467
 70
    64
  0
VERTEX
  5
103
  8
TEAM-NET
 10
62.30866
 20
-83.421507
 30
870.944995
 70
    64
  0
VERTEX
  5
104
  8
TEAM-NET
 10
52.665555
 20
-77.882679
 30
875.441648
 70
    64
  0
VERTEX
  5
105
  8
TEAM-NET
 10
42.621634
 20
-73.292265
 30
880.125206
 70
    64
  0
VERTEX
  5
106
  8
TEAM-NET
 10
32.253336
 20
-69.685199
 30
884.960022
 70
    64
  0
VERTEX
  5
107
  8
TEAM-NET
 10
21.639571
 20
-67.088934
 30
889.909302
 70
    64
  0
VERTEX
  5
108
  8
TEAM-NET
 10
10.861115
 20
-65.523229
 30
894.935379
 70
    64
  0
VERTEX
  5
109
  8
TEAM-NET
 10
0.0
 20
-65.0
 30
900.0
 70
    64
  0
VERTEX
  5
10A
  8
TEAM-NET
 10
0.0
 20
-340.0
 30
900.0
 70
    64
  0
VERTEX
  5
10B
  8
TEAM-NET
 10
10.378375
 20
-339.476771
 30
894.008043
 70
    64
  0
VERTEX
  5
10C
  8
TEAM-NET
 10
20.677763
 20
-337.911066
 30
888.061688
 70
    64
  0
VERTEX
  5
10D
  8
TEAM-NET
 10
30.819782
 20
-335.314801
 30
882.206191
 70
    64
  0
VERTEX
  5
10E
  8
TEAM-NET
 10
40.727243
 20
-331.707735
 30
876.486115
 70
    64
  0
VERTEX
  5
10F
  8
TEAM-NET
 10
50.324746
 20
-327.117321
 30
870.944995
 70
    64
  0
VERTEX
  5
110
  8
TEAM-NET
 10
59.539247
 20
-321.578493
 30
865.625
 70
    64
  0
VERTEX
  5
111
  8
TEAM-NET
 10
68.300618
 20
-315.133406
 30
860.56662
 70
    64
  0
VERTEX
  5
112
  8
TEAM-NET
 10
76.54218
 20
-307.831111
 30
855.808352
 70
    64
  0
VERTEX
  5
113
  8
TEAM-NET
 10
84.20121
 20
-299.727182
 30
851.386409
 70
    64
  0
VERTEX
  5
114
  8
TEAM-NET
 10
91.219418
 20
-290.883296
 30
847.334445
 70
    64
  0
VERTEX
  5
115
  8
TEAM-NET
 10
97.543391
 20
-281.36676
 30
843.683297
 70
    64
  0
VERTEX
  5
116
  8
TEAM-NET
 10
103.125
 20
-271.25
 30
840.460753
 70
    64
  0
VERTEX
  5
117
  8
TEAM-NET
 10
107.921765
 20
-260.610011
 30
837.69134
 70
    64
  0
VERTEX
  5
118
  8
TEAM-NET
 10
111.897181
 20
-249.52777
 30
835.396132
 70
    64
  0
VERTEX
  5
119
  8
TEAM-NET
 10
115.020992
 20
-238.087619
 30
833.592599
 70
    64
  0
VERTEX
  5
11A
  8
TEAM-NET
 10
117.269423
 20
-226.376624
 30
832.294467
 70
    64
  0
VERTEX
  5
11B
  8
TEAM-NET
 10
118.625363
 20
-214.483915
 30
831.511615
 70
    64
  0
VERTEX
  5
11C
  8
TEAM-NET
 10
119.078493
 20
-202.5
 30
831.25
 70
    64
  0
VERTEX
  5
11D
  8
TEAM-NET
 10
118.625363
 20
-190.516085
 30
831.511615
 70
    64
  0
VERTEX
  5
11E
  8
TEAM-NET
 10
117.269423
 20
-178.623376
 30
832.294467
 70
    64
  0
VERTEX
  5
11F
  8
TEAM-NET
 10
115.020992
 20
-166.912381
 30
833.592599
 70
    64
  0
VERTEX
  5
120
  8
TEAM-NET
 10
111.897181
 20
-155.47223
 30
835.396132
 70
    64
  0
VERTEX
  5
121
  8
TEAM-NET
 10
107.921765
 20
-144.389989
 30
837.69134
 70
    64
  0
VERTEX
  5
122
  8
TEAM-NET
 10
103.125
 20
-133.75
 30
840.460753
 70
    64
  0
VERTEX
  5
123
  8
TEAM-NET
 10
97.543391
 20
-123.63324
 30
843.683297
 70
    64
  0
VERTEX
  5
124
  8
TEAM-NET
 10
91.219418
 20
-114.116704
 30
847.334445
 70
    64
  0
VERTEX
  5
125
  8
TEAM-NET
 10
84.20121
 20
-105.272818
 30
851.386409
 70
    64
  0
VERTEX
  5
126
  8
TEAM-NET
 10
76.54218
 20
-97.168889
 30
855.808352
 70
    64
  0
VERTEX
  5
127
  8
TEAM-NET
 10
68.300618
 20
-89.866594
 30
860.56662
 70
    64
  0
VERTEX
  5
128
  8
TEAM-NET
 10
59.539247
 20
-83.421507
 30
865.625
 70
    64
  0
VERTEX
  5
129
  8
TEAM-NET
 10
50.324746
 20
-77.882679
 30
870.944995
 70
    64
  0
VERTEX
  5
12A
  8
TEAM-NET
 10
40.727243
 20
-73.292265
 30
876.486115
 70
    64
  0
VERTEX
  5
12B
  8
TEAM-NET
 10
30.819782
 20
-69.685199
 30
882.206191
 70
    64
  0
VERTEX
  5
12C
  8
TEAM-NET
 10
20.677763
 20
-67.088934
 30
888.061688
 70
    64
  0
VERTEX
  5
12D
  8
TEAM-NET
 10
10.378375
 20
-65.523229
 30
894.008043
 70
    64
  0
VERTEX
  5
12E
  8
TEAM-NET
 10
0.0
 20
-65.0
 30
900.0
 70
    64
  0
VERTEX
  5
12F
  8
TEAM-NET
 10
0.0
 20
-340.0
 30
900.0
 70
    64
  0
VERTEX
  5
130
  8
TEAM-NET
 10
9.816648
 20
-339.476771
 30
893.126309
 70
    64
  0
VERTEX
  5
131
  8
TEAM-NET
 10
19.558586
 20
-337.911066
 30
886.304931
 70
    64
  0
VERTEX
  5
132
  8
TEAM-NET
 10
29.151671
 20
-335.314801
 30
879.58778
 70
    64
  0
VERTEX
  5
133
  8
TEAM-NET
 10
38.522894
 20
-331.707735
 30
873.025979
 70
    64
  0
VERTEX
  5
134
  8
TEAM-NET
 10
47.600934
 20
-327.117321
 30
866.669467
 70
    64
  0
VERTEX
  5
135
  8
TEAM-NET
 10
56.316703
 20
-321.578493
 30
860.56662
 70
    64
  0
VERTEX
  5
136
  8
TEAM-NET
 10
64.603868
 20
-315.133406
 30
854.763885
 70
    64
  0
VERTEX
  5
137
  8
TEAM-NET
 10
72.399358
 20
-307.831111
 30
849.305424
 70
    64
  0
VERTEX
  5
138
  8
TEAM-NET
 10
79.643845
 20
-299.727182
 30
844.232779
 70
    64
  0
VERTEX
  5
139
  8
TEAM-NET
 10
86.282195
 20
-290.883296
 30
839.584557
 70
    64
  0
VERTEX
  5
13A
  8
TEAM-NET
 10
92.263885
 20
-281.36676
 30
835.396132
 70
    64
  0
VERTEX
  5
13B
  8
TEAM-NET
 10
97.543391
 20
-271.25
 30
831.699382
 70
    64
  0
VERTEX
  5
13C
  8
TEAM-NET
 10
102.080533
 20
-260.610011
 30
828.522441
 70
    64
  0
VERTEX
  5
13D
  8
TEAM-NET
 10
105.840781
 20
-249.52777
 30
825.889488
 70
    64
  0
VERTEX
  5
13E
  8
TEAM-NET
 10
108.795516
 20
-238.087619
 30
823.82056
 70
    64
  0
VERTEX
  5
13F
  8
TEAM-NET
 10
110.922252
 20
-226.376624
 30
822.331403
 70
    64
  0
VERTEX
  5
140
  8
TEAM-NET
 10
112.204802
 20
-214.483915
 30
821.433352
 70
    64
  0
VERTEX
  5
141
  8
TEAM-NET
 10
112.633406
 20
-202.5
 30
821.13324
 70
    64
  0
VERTEX
  5
142
  8
TEAM-NET
 10
112.204802
 20
-190.516085
 30
821.433352
 70
    64
  0
VERTEX
  5
143
  8
TEAM-NET
 10
110.922252
 20
-178.623376
 30
822.331403
 70
    64
  0
VERTEX
  5
144
  8
TEAM-NET
 10
108.795516
 20
-166.912381
 30
823.82056
 70
    64
  0
VERTEX
  5
145
  8
TEAM-NET
 10
105.840781
 20
-155.47223
 30
825.889488
 70
    64
  0
VERTEX
  5
146
  8
TEAM-NET
 10
102.080533
 20
-144.389989
 30
828.522441
 70
    64
  0
VERTEX
  5
147
  8
TEAM-NET
 10
97.543391
 20
-133.75
 30
831.699382
 70
    64
  0
VERTEX
  5
148
  8
TEAM-NET
 10
92.263885
 20
-123.63324
 30
835.396132
 70
    64
  0
VERTEX
  5
149
  8
TEAM-NET
 10
86.282195
 20
-114.116704
 30
839.584557
 70
    64
  0
VERTEX
  5
14A
  8
TEAM-NET
 10
79.643845
 20
-105.272818
 30
844.232779
 70
    64
  0
VERTEX
  5
14B
  8
TEAM-NET
 10
72.399358
 20
-97.168889
 30
849.305424
 70
    64
  0
VERTEX
  5
14C
  8
TEAM-NET
 10
64.603868
 20
-89.866594
 30
854.763885
 70
    64
  0
VERTEX
  5
14D
  8
TEAM-NET
 10
56.316703
 20
-83.421507
 30
860.56662
 70
    64
  0
VERTEX
  5
14E
  8
TEAM-NET
 10
47.600934
 20
-77.882679
 30
866.669467
 70
    64
  0
VERTEX
  5
14F
  8
TEAM-NET
 10
38.522894
 20
-73.292265
 30
873.025979
 70
    64
  0
VERTEX
  5
150
  8
TEAM-NET
 10
29.151671
 20
-69.685199
 30
879.58778
 70
    64
  0
VERTEX
  5
151
  8
TEAM-NET
 10
19.558586
 20
-67.088934
 30
886.304931
 70
    64
  0
VERTEX
  5
152
  8
TEAM-NET
 10
9.816648
 20
-65.523229
 30
893.126309
 70
    64
  0
VERTEX
  5
153
  8
TEAM-NET
 10
0.0
 20
-65.0
 30
900.0
 70
    64
  0
VERTEX
  5
154
  8
TEAM-NET
 10
0.0
 20
-340.0
 30
900.0
 70
    64
  0
VERTEX
  5
155
  8
TEAM-NET
 10
9.180211
 20
-339.476771
 30
892.296888
 70
    64
  0
VERTEX
  5
156
  8
TEAM-NET
 10
18.290555
 20
-337.911066
 30
884.652402
 70
    64
  0
VERTEX
  5
157
  8
TEAM-NET
 10
27.261698
 20
-335.314801
 30
877.12472
 70
    64
  0
VERTEX
  5
158
  8
TEAM-NET
 10
36.025362
 20
-331.707735
 30
869.771132
 70
    64
  0
VERTEX
  5
159
  8
TEAM-NET
 10
44.514851
 20
-327.117321
 30
862.647605
 70
    64
  0
VERTEX
  5
15A
  8
TEAM-NET
 10
52.665555
 20
-321.578493
 30
855.808352
 70
    64
  0
VERTEX
  5
15B
  8
TEAM-NET
 10
60.415443
 20
-315.133406
 30
849.305424
 70
    64
  0
VERTEX
  5
15C
  8
TEAM-NET
 10
67.705533
 20
-307.831111
 30
843.188312
 70
    64
  0
VERTEX
  5
15D
  8
TEAM-NET
 10
74.480343
 20
-299.727182
 30
837.503572
 70
    64
  0
VERTEX
  5
15E
  8
TEAM-NET
 10
80.688312
 20
-290.883296
 30
832.294467
 70
    64
  0
VERTEX
  5
15F
  8
TEAM-NET
 10
86.282195
 20
-281.36676
 30
827.600642
 70
    64
  0
VERTEX
  5
160
  8
TEAM-NET
 10
91.219418
 20
-271.25
 30
823.45782
 70
    64
  0
VERTEX
  5
161
  8
TEAM-NET
 10
95.462406
 20
-260.610011
 30
819.89753
 70
    64
  0
VERTEX
  5
162
  8
TEAM-NET
 10
98.978868
 20
-249.52777
 30
816.946869
 70
    64
  0
VERTEX
  5
163
  8
TEAM-NET
 10
101.74204
 20
-238.087619
 30
814.628291
 70
    64
  0
VERTEX
  5
164
  8
TEAM-NET
 10
103.730895
 20
-226.376624
 30
812.959445
 70
    64
  0
VERTEX
  5
165
  8
TEAM-NET
 10
104.930294
 20
-214.483915
 30
811.953029
 70
    64
  0
VERTEX
  5
166
  8
TEAM-NET
 10
105.331111
 20
-202.5
 30
811.616704
 70
    64
  0
VERTEX
  5
167
  8
TEAM-NET
 10
104.930294
 20
-190.516085
 30
811.953029
 70
    64
  0
VERTEX
  5
168
  8
TEAM-NET
 10
103.730895
 20
-178.623376
 30
812.959445
 70
    64
  0
VERTEX
  5
169
  8
TEAM-NET
 10
101.74204
 20
-166.912381
 30
814.628291
 70
    64
  0
VERTEX
  5
16A
  8
TEAM-NET
 10
98.978868
 20
-155.47223
 30
816.946869
 70
    64
  0
VERTEX
  5
16B
  8
TEAM-NET
 10
95.462406
 20
-144.389989
 30
819.89753
 70
    64
  0
VERTEX
  5
16C
  8
TEAM-NET
 10
91.219418
 20
-133.75
 30
823.45782
 70
    64
  0
VERTEX
  5
16D
  8
TEAM-NET
 10
86.282195
 20
-123.63324
 30
827.600642
 70
    64
  0
VERTEX
  5
16E
  8
TEAM-NET
 10
80.688312
 20
-114.116704
 30
832.294467
 70
    64
  0
VERTEX
  5
16F
  8
TEAM-NET
 10
74.480343
 20
-105.272818
 30
837.503572
 70
    64
  0
VERTEX
  5
170
  8
TEAM-NET
 10
67.705533
 20
-97.168889
 30
843.188312
 70
    64
  0
VERTEX
  5
171
  8
TEAM-NET
 10
60.415443
 20
-89.866594
 30
849.305424
 70
    64
  0
VERTEX
  5
172
  8
TEAM-NET
 10
52.665555
 20
-83.421507
 30
855.808352
 70
    64
  0
VERTEX
  5
173
  8
TEAM-NET
 10
44.514851
 20
-77.882679
 30
862.647605
 70
    64
  0
VERTEX
  5
174
  8
TEAM-NET
 10
36.025362
 20
-73.292265
 30
869.771132
 70
    64
  0
VERTEX
  5
175
  8
TEAM-NET
 10
27.261698
 20
-69.685199
 30
877.12472
 70
    64
  0
VERTEX
  5
176
  8
TEAM-NET
 10
18.290555
 20
-67.088934
 30
884.652402
 70
    64
  0
VERTEX
  5
177
  8
TEAM-NET
 10
9.180211
 20
-65.523229
 30
892.296888
 70
    64
  0
VERTEX
  5
178
  8
TEAM-NET
 10
0.0
 20
-65.0
 30
900.0
 70
    64
  0
VERTEX
  5
179
  8
TEAM-NET
 10
0.0
 20
-340.0
 30
900.0
 70
    64
  0
VERTEX
  5
17A
  8
TEAM-NET
 10
8.473907
 20
-339.476771
 30
891.526093
 70
    64
  0
VERTEX
  5
17B
  8
TEAM-NET
 10
16.883323
 20
-337.911066
 30
883.116677
 70
    64
  0
VERTEX
  5
17C
  8
TEAM-NET
 10
25.164247
 20
-335.314801
 30
874.835753
 70
    64
  0
VERTEX
  5
17D
  8
TEAM-NET
 10
33.253655
 20
-331.707735
 30
866.746345
 70
    64
  0
VERTEX
  5
17E
  8
TEAM-NET
 10
41.089983
 20
-327.117321
 30
858.910017
 70
    64
  0
VERTEX
  5
17F
  8
TEAM-NET
 10
48.613591
 20
-321.578493
 30
851.386409
 70
    64
  0
VERTEX
  5
180
  8
TEAM-NET
 10
55.767221
 20
-315.133406
 30
844.232779
 70
    64
  0
VERTEX
  5
181
  8
TEAM-NET
 10
62.496428
 20
-307.831111
 30
837.503572
 70
    64
  0
VERTEX
  5
182
  8
TEAM-NET
 10
68.75
 20
-299.727182
 30
831.25
 70
    64
  0
VERTEX
  5
183
  8
TEAM-NET
 10
74.480343
 20
-290.883296
 30
825.519657
 70
    64
  0
VERTEX
  5
184
  8
TEAM-NET
 10
79.643845
 20
-281.36676
 30
820.356155
 70
    64
  0
VERTEX
  5
185
  8
TEAM-NET
 10
84.20121
 20
-271.25
 30
815.79879
 70
    64
  0
VERTEX
  5
186
  8
TEAM-NET
 10
88.117753
 20
-260.610011
 30
811.882247
 70
    64
  0
VERTEX
  5
187
  8
TEAM-NET
 10
91.363666
 20
-249.52777
 30
808.636334
 70
    64
  0
VERTEX
  5
188
  8
TEAM-NET
 10
93.914247
 20
-238.087619
 30
806.085753
 70
    64
  0
VERTEX
  5
189
  8
TEAM-NET
 10
95.750083
 20
-226.376624
 30
804.249917
 70
    64
  0
VERTEX
  5
18A
  8
TEAM-NET
 10
96.857204
 20
-214.483915
 30
803.142796
 70
    64
  0
VERTEX
  5
18B
  8
TEAM-NET
 10
97.227182
 20
-202.5
 30
802.772818
 70
    64
  0
VERTEX
  5
18C
  8
TEAM-NET
 10
96.857204
 20
-190.516085
 30
803.142796
 70
    64
  0
VERTEX
  5
18D
  8
TEAM-NET
 10
95.750083
 20
-178.623376
 30
804.249917
 70
    64
  0
VERTEX
  5
18E
  8
TEAM-NET
 10
93.914247
 20
-166.912381
 30
806.085753
 70
    64
  0
VERTEX
  5
18F
  8
TEAM-NET
 10
91.363666
 20
-155.47223
 30
808.636334
 70
    64
  0
VERTEX
  5
190
  8
TEAM-NET
 10
88.117753
 20
-144.389989
 30
811.882247
 70
    64
  0
VERTEX
  5
191
  8
TEAM-NET
 10
84.20121
 20
-133.75
 30
815.79879
 70
    64
  0
VERTEX
  5
192
  8
TEAM-NET
 10
79.643845
 20
-123.63324
 30
820.356155
 70
    64
  0
VERTEX
  5
193
  8
TEAM-NET
 10
74.480343
 20
-114.116704
 30
825.519657
 70
    64
  0
VERTEX
  5
194
  8
TEAM-NET
 10
68.75
 20
-105.272818
 30
831.25
 70
    64
  0
VERTEX
  5
195
  8
TEAM-NET
 10
62.496428
 20
-97.168889
 30
837.503572
 70
    64
  0
VERTEX
  5
196
  8
TEAM-NET
 10
55.767221
 20
-89.866594
 30
844.232779
 70
    64
  0
VERTEX
  5
197
  8
TEAM-NET
 10
48.613591
 20
-83.421507
 30
851.386409
 70
    64
  0
VERTEX
  5
198
  8
TEAM-NET
 10
41.089983
 20
-77.882679
 30
858.910017
 70
    64
  0
VERTEX
  5
199
  8
TEAM-NET
 10
33.253655
 20
-73.292265
 30
866.746345
 70
    64
  0
VERTEX
  5
19A
  8
TEAM-NET
 10
25.164247
 20
-69.685199
 30
874.835753
 70
    64
  0
VERTEX
  5
19B
  8
TEAM-NET
 10
16.883323
 20
-67.088934
 30
883.116677
 70
    64
  0
VERTEX
  5
19C
  8
TEAM-NET
 10
8.473907
 20
-65.523229
 30
891.526093
 70
    64
  0
VERTEX
  5
19D
  8
TEAM-NET
 10
0.0
 20
-65.0
 30
900.0
 70
    64
  0
VERTEX
  5
19E
  8
TEAM-NET
 10
0.0
 20
-340.0
 30
900.0
 70
    64
  0
VERTEX
  5
19F
  8
TEAM-NET
 10
7.703112
 20
-339.476771
 30
890.819789
 70
    64
  0
VERTEX
  5
1A0
  8
TEAM-NET
 10
15.347598
 20
-337.911066
 30
881.709445
 70
    64
  0
VERTEX
  5
1A1
  8
TEAM-NET
 10
22.87528
 20
-335.314801
 30
872.738302
 70
    64
  0
VERTEX
  5
1A2
  8
TEAM-NET
 10
30.228868
 20
-331.707735
 30
863.974638
 70
    64
  0
VERTEX
  5
1A3
  8
TEAM-NET
 10
37.352395
 20
-327.117321
 30
855.485149
 70
    64
  0
VERTEX
  5
1A4
  8
TEAM-NET
 10
44.191648
 20
-321.578493
 30
847.334445
 70
    64
  0
VERTEX
  5
1A5
  8
TEAM-NET
 10
50.694576
 20
-315.133406
 30
839.584557
 70
    64
  0
VERTEX
  5
1A6
  8
TEAM-NET
 10
56.811688
 20
-307.831111
 30
832.294467
 70
    64
  0
VERTEX
  5
1A7
  8
TEAM-NET
 10
62.496428
 20
-299.727182
 30
825.519657
 70
    64
  0
VERTEX
  5
1A8
  8
TEAM-NET
 10
67.705533
 20
-290.883296
 30
819.311688
 70
    64
  0
VERTEX
  5
1A9
  8
TEAM-NET
 10
72.399358
 20
-281.36676
 30
813.717805
 70
    64
  0
VERTEX
  5
1AA
  8
TEAM-NET
 10
76.54218
 20
-271.25
 30
808.780582
 70
    64
  0
VERTEX
  5
1AB
  8
TEAM-NET
 10
80.10247
 20
-260.610011
 30
804.537594
 70
    64
  0
VERTEX
  5
1AC
  8
TEAM-NET
 10
83.053131
 20
-249.52777
 30
801.021132
 70
    64
  0
VERTEX
  5
1AD
  8
TEAM-NET
 10
85.371709
 20
-238.087619
 30
798.25796
 70
    64
  0
VERTEX
  5
1AE
  8
TEAM-NET
 10
87.040555
 20
-226.376624
 30
796.269105
 70
    64
  0
VERTEX
  5
1AF
  8
TEAM-NET
 10
88.046971
 20
-214.483915
 30
795.069706
 70
    64
  0
VERTEX
  5
1B0
  8
TEAM-NET
 10
88.383296
 20
-202.5
 30
794.668889
 70
    64
  0
VERTEX
  5
1B1
  8
TEAM-NET
 10
88.046971
 20
-190.516085
 30
795.069706
 70
    64
  0
VERTEX
  5
1B2
  8
TEAM-NET
 10
87.040555
 20
-178.623376
 30
796.269105
 70
    64
  0
VERTEX
  5
1B3
  8
TEAM-NET
 10
85.371709
 20
-166.912381
 30
798.25796
 70
    64
  0
VERTEX
  5
1B4
  8
TEAM-NET
 10
83.053131
 20
-155.47223
 30
801.021132
 70
    64
  0
VERTEX
  5
1B5
  8
TEAM-NET
 10
80.10247
 20
-144.389989
 30
804.537594
 70
    64
  0
VERTEX
  5
1B6
  8
TEAM-NET
 10
76.54218
 20
-133.75
 30
808.780582
 70
    64
  0
VERTEX
  5
1B7
  8
TEAM-NET
 10
72.399358
 20
-123.63324
 30
813.717805
 70
    64
  0
VERTEX
  5
1B8
  8
TEAM-NET
 10
67.705533
 20
-114.116704
 30
819.311688
 70
    64
  0
VERTEX
  5
1B9
  8
TEAM-NET
 10
62.496428
 20
-105.272818
 30
825.519657
 70
    64
  0
VERTEX
  5
1BA
  8
TEAM-NET
 10
56.811688
 20
-97.168889
 30
832.294467
 70
    64
  0
VERTEX
  5
1BB
  8
TEAM-NET
 10
50.694576
 20
-89.866594
 30
839.584557
 70
    64
  0
VERTEX
  5
1BC
  8
TEAM-NET
 10
44.191648
 20
-83.421507
 30
847.334445
 70
    64
  0
VERTEX
  5
1BD
  8
TEAM-NET
 10
37.352395
 20
-77.882679
 30
855.485149
 70
    64
  0
VERTEX
  5
1BE
  8
TEAM-NET
 10
30.228868
 20
-73.292265
 30
863.974638
 70
    64
  0
VERTEX
  5
1BF
  8
TEAM-NET
 10
22.87528
 20
-69.685199
 30
872.738302
 70
    64
  0
VERTEX
  5
1C0
  8
TEAM-NET
 10
15.347598
 20
-67.088934
 30
881.709445
 70
    64
  0
VERTEX
  5
1C1
  8
TEAM-NET
 10
7.703112
 20
-65.523229
 30
890.819789
 70
    64
  0
VERTEX
  5
1C2
  8
TEAM-NET
 10
0.0
 20
-65.0
 30
900.0
 70
    64
  0
VERTEX
  5
1C3
  8
TEAM-NET
 10
0.0
 20
-340.0
 30
900.0
 70
    64
  0
VERTEX
  5
1C4
  8
TEAM-NET
 10
6.873691
 20
-339.476771
 30
890.183352
 70
    64
  0
VERTEX
  5
1C5
  8
TEAM-NET
 10
13.695069
 20
-337.911066
 30
880.441414
 70
    64
  0
VERTEX
  5
1C6
  8
TEAM-NET
 10
20.41222
 20
-335.314801
 30
870.848329
 70
    64
  0
VERTEX
  5
1C7
  8
TEAM-NET
 10
26.974021
 20
-331.707735
 30
861.477106
 70
    64
  0
VERTEX
  5
1C8
  8
TEAM-NET
 10
33.330533
 20
-327.117321
 30
852.399066
 70
    64
  0
VERTEX
  5
1C9
  8
TEAM-NET
 10
39.43338
 20
-321.578493
 30
843.683297
 70
    64
  0
VERTEX
  5
1CA
  8
TEAM-NET
 10
45.236115
 20
-315.133406
 30
835.396132
 70
    64
  0
VERTEX
  5
1CB
  8
TEAM-NET
 10
50.694576
 20
-307.831111
 30
827.600642
 70
    64
  0
VERTEX
  5
1CC
  8
TEAM-NET
 10
55.767221
 20
-299.727182
 30
820.356155
 70
    64
  0
VERTEX
  5
1CD
  8
TEAM-NET
 10
60.415443
 20
-290.883296
 30
813.717805
 70
    64
  0
VERTEX
  5
1CE
  8
TEAM-NET
 10
64.603868
 20
-281.36676
 30
807.736115
 70
    64
  0
VERTEX
  5
1CF
  8
TEAM-NET
 10
68.300618
 20
-271.25
 30
802.456609
 70
    64
  0
VERTEX
  5
1D0
  8
TEAM-NET
 10
71.477559
 20
-260.610011
 30
797.919467
 70
    64
  0
VERTEX
  5
1D1
  8
TEAM-NET
 10
74.110512
 20
-249.52777
 30
794.159219
 70
    64
  0
VERTEX
  5
1D2
  8
TEAM-NET
 10
76.17944
 20
-238.087619
 30
791.204484
 70
    64
  0
VERTEX
  5
1D3
  8
TEAM-NET
 10
77.668597
 20
-226.376624
 30
789.077748
 70
    64
  0
VERTEX
  5
1D4
  8
TEAM-NET
 10
78.566648
 20
-214.483915
 30
787.795198
 70
    64
  0
VERTEX
  5
1D5
  8
TEAM-NET
 10
78.86676
 20
-202.5
 30
787.366594
 70
    64
  0
VERTEX
  5
1D6
  8
TEAM-NET
 10
78.566648
 20
-190.516085
 30
787.795198
 70
    64
  0
VERTEX
  5
1D7
  8
TEAM-NET
 10
77.668597
 20
-178.623376
 30
789.077748
 70
    64
  0
VERTEX
  5
1D8
  8
TEAM-NET
 10
76.17944
 20
-166.912381
 30
791.204484
 70
    64
  0
VERTEX
  5
1D9
  8
TEAM-NET
 10
74.110512
 20
-155.47223
 30
794.159219
 70
    64
  0
VERTEX
  5
1DA
  8
TEAM-NET
 10
71.477559
 20
-144.389989
 30
797.919467
 70
    64
  0
VERTEX
  5
1DB
  8
TEAM-NET
 10
68.300618
 20
-133.75
 30
802.456609
 70
    64
  0
VERTEX
  5
1DC
  8
TEAM-NET
 10
64.603868
 20
-123.63324
 30
807.736115
 70
    64
  0
VERTEX
  5
1DD
  8
TEAM-NET
 10
60.415443
 20
-114.116704
 30
813.717805
 70
    64
  0
VERTEX
  5
1DE
  8
TEAM-NET
 10
55.767221
 20
-105.272818
 30
820.356155
 70
    64
  0
VERTEX
  5
1DF
  8
TEAM-NET
 10
50.694576
 20
-97.168889
 30
827.600642
 70
    64
  0
VERTEX
  5
1E0
  8
TEAM-NET
 10
45.236115
 20
-89.866594
 30
835.396132
 70
    64
  0
VERTEX
  5
1E1
  8
TEAM-NET
 10
39.43338
 20
-83.421507
 30
843.683297
 70
    64
  0
VERTEX
  5
1E2
  8
TEAM-NET
 10
33.330533
 20
-77.882679
 30
852.399066
 70
    64
  0
VERTEX
  5
1E3
  8
TEAM-NET
 10
26.974021
 20
-73.292265
 30
861.477106
 70
    64
  0
VERTEX
  5
1E4
  8
TEAM-NET
 10
20.41222
 20
-69.685199
 30
870.848329
 70
    64
  0
VERTEX
  5
1E5
  8
TEAM-NET
 10
13.695069
 20
-67.088934
 30
880.441414
 70
    64
  0
VERTEX
  5
1E6
  8
TEAM-NET
 10
6.873691
 20
-65.523229
 30
890.183352
 70
    64
  0
VERTEX
  5
1E7
  8
TEAM-NET
 10
0.0
 20
-65.0
 30
900.0
 70
    64
  0
VERTEX
  5
1E8
  8
TEAM-NET
 10
0.0
 20
-340.0
 30
900.0
 70
    64
  0
VERTEX
  5
1E9
  8
TEAM-NET
 10
5.991957
 20
-339.476771
 30
889.621625
 70
    64
  0
VERTEX
  5
1EA
  8
TEAM-NET
 10
11.938312
 20
-337.911066
 30
879.322237
 70
    64
  0
VERTEX
  5
1EB
  8
TEAM-NET
 10
17.793809
 20
-335.314801
 30
869.180218
 70
    64
  0
VERTEX
  5
1EC
  8
TEAM-NET
 10
23.513885
 20
-331.707735
 30
859.272757
 70
    64
  0
VERTEX
  5
1ED
  8
TEAM-NET
 10
29.055005
 20
-327.117321
 30
849.675254
 70
    64
  0
VERTEX
  5
1EE
  8
TEAM-NET
 10
34.375
 20
-321.578493
 30
840.460753
 70
    64
  0
VERTEX
  5
1EF
  8
TEAM-NET
 10
39.43338
 20
-315.133406
 30
831.699382
 70
    64
  0
VERTEX
  5
1F0
  8
TEAM-NET
 10
44.191648
 20
-307.831111
 30
823.45782
 70
    64
  0
VERTEX
  5
1F1
  8
TEAM-NET
 10
48.613591
 20
-299.727182
 30
815.79879
 70
    64
  0
VERTEX
  5
1F2
  8
TEAM-NET
 10
52.665555
 20
-290.883296
 30
808.780582
 70
    64
  0
VERTEX
  5
1F3
  8
TEAM-NET
 10
56.316703
 20
-281.36676
 30
802.456609
 70
    64
  0
VERTEX
  5
1F4
  8
TEAM-NET
 10
59.539247
 20
-271.25
 30
796.875
 70
    64
  0
VERTEX
  5
1F5
  8
TEAM-NET
 10
62.30866
 20
-260.610011
 30
792.078235
 70
    64
  0
VERTEX
  5
1F6
  8
TEAM-NET
 10
64.603868
 20
-249.52777
 30
788.102819
 70
    64
  0
VERTEX
  5
1F7
  8
TEAM-NET
 10
66.407401
 20
-238.087619
 30
784.979008
 70
    64
  0
VERTEX
  5
1F8
  8
TEAM-NET
 10
67.705533
 20
-226.376624
 30
782.730577
 70
    64
  0
VERTEX
  5
1F9
  8
TEAM-NET
 10
68.488385
 20
-214.483915
 30
781.374637
 70
    64
  0
VERTEX
  5
1FA
  8
TEAM-NET
 10
68.75
 20
-202.5
 30
780.921507
 70
    64
  0
VERTEX
  5
1FB
  8
TEAM-NET
 10
68.488385
 20
-190.516085
 30
781.374637
 70
    64
  0
VERTEX
  5
1FC
  8
TEAM-NET
 10
67.705533
 20
-178.623376
 30
782.730577
 70
    64
  0
VERTEX
  5
1FD
  8
TEAM-NET
 10
66.407401
 20
-166.912381
 30
784.979008
 70
    64
  0
VERTEX
  5
1FE
  8
TEAM-NET
 10
64.603868
 20
-155.47223
 30
788.102819
 70
    64
  0
VERTEX
  5
1FF
  8
TEAM-NET
 10
62.30866
 20
-144.389989
 30
792.078235
 70
    64
  0
VERTEX
  5
200
  8
TEAM-NET
 10
59.539247
 20
-133.75
 30
796.875
 70
    64
  0
VERTEX
  5
201
  8
TEAM-NET
 10
56.316703
 20
-123.63324
 30
802.456609
 70
    64
  0
VERTEX
  5
202
  8
TEAM-NET
 10
52.665555
 20
-114.116704
 30
808.780582
 70
    64
  0
VERTEX
  5
203
  8
TEAM-NET
 10
48.613591
 20
-105.272818
 30
815.79879
 70
    64
  0
VERTEX
  5
204
  8
TEAM-NET
 10
44.191648
 20
-97.168889
 30
823.45782
 70
    64
  0
VERTEX
  5
205
  8
TEAM-NET
 10
39.43338
 20
-89.866594
 30
831.699382
 70
    64
  0
VERTEX
  5
206
  8
TEAM-NET
 10
34.375
 20
-83.421507
 30
840.460753
 70
    64
  0
VERTEX
  5
207
  8
TEAM-NET
 10
29.055005
 20
-77.882679
 30
849.675254
 70
    64
  0
VERTEX
  5
208
  8
TEAM-NET
 10
23.513885
 20
-73.292265
 30
859.272757
 70
    64
  0
VERTEX
  5
209
  8
TEAM-NET
 10
17.793809
 20
-69.685199
 30
869.180218
 70
    64
  0
VERTEX
  5
20A
  8
TEAM-NET
 10
11.938312
 20
-67.088934
 30
879.322237
 70
    64
  0
VERTEX
  5
20B
  8
TEAM-NET
 10
5.991957
 20
-65.523229
 30
889.621625
 70
    64
  0
VERTEX
  5
20C
  8
TEAM-NET
 10
0.0
 20
-65.0
 30
900.0
 70
    64
  0
VERTEX
  5
20D
  8
TEAM-NET
 10
0.0
 20
-340.0
 30
900.0
 70
    64
  0
VERTEX
  5
20E
  8
TEAM-NET
 10
5.064621
 20
-339.476771
 30
889.138885
 70
    64
  0
VERTEX
  5
20F
  8
TEAM-NET
 10
10.090698
 20
-337.911066
 30
878.360429
 70
    64
  0
VERTEX
  5
210
  8
TEAM-NET
 10
15.039978
 20
-335.314801
 30
867.746664
 70
    64
  0
VERTEX
  5
211
  8
TEAM-NET
 10
19.874794
 20
-331.707735
 30
857.378366
 70
    64
  0
VERTEX
  5
212
  8
TEAM-NET
 10
24.558352
 20
-327.117321
 30
847.334445
 70
    64
  0
VERTEX
  5
213
  8
TEAM-NET
 10
29.055005
 20
-321.578493
 30
837.69134
 70
    64
  0
VERTEX
  5
214
  8
TEAM-NET
 10
33.330533
 20
-315.133406
 30
828.522441
 70
    64
  0
VERTEX
  5
215
  8
TEAM-NET
 10
37.352395
 20
-307.831111
 30
819.89753
 70
    64
  0
VERTEX
  5
216
  8
TEAM-NET
 10
41.089983
 20
-299.727182
 30
811.882247
 70
    64
  0
VERTEX
  5
217
  8
TEAM-NET
 10
44.514851
 20
-290.883296
 30
804.537594
 70
    64
  0
VERTEX
  5
218
  8
TEAM-NET
 10
47.600934
 20
-281.36676
 30
797.919467
 70
    64
  0
VERTEX
  5
219
  8
TEAM-NET
 10
50.324746
 20
-271.25
 30
792.078235
 70
    64
  0
VERTEX
  5
21A
  8
TEAM-NET
 10
52.665555
 20
-260.610011
 30
787.058352
 70
    64
  0
VERTEX
  5
21B
  8
TEAM-NET
 10
54.605549
 20
-249.52777
 30
782.898023
 70
    64
  0
VERTEX
  5
21C
  8
TEAM-NET
 10
56.12996
 20
-238.087619
 30
779.628912
 70
    64
  0
VERTEX
  5
21D
  8
TEAM-NET
 10
57.227189
 20
-226.376624
 30
777.275896
 70
    64
  0
VERTEX
  5
21E
  8
TEAM-NET
 10
57.888885
 20
-214.483915
 30
775.856886
 70
    64
  0
VERTEX
  5
21F
  8
TEAM-NET
 10
58.110011
 20
-202.5
 30
775.382679
 70
    64
  0
VERTEX
  5
220
  8
TEAM-NET
 10
57.888885
 20
-190.516085
 30
775.856886
 70
    64
  0
VERTEX
  5
221
  8
TEAM-NET
 10
57.227189
 20
-178.623376
 30
777.275896
 70
    64
  0
VERTEX
  5
222
  8
TEAM-NET
 10
56.12996
 20
-166.912381
 30
779.628912
 70
    64
  0
VERTEX
  5
223
  8
TEAM-NET
 10
54.605549
 20
-155.47223
 30
782.898023
 70
    64
  0
VERTEX
  5
224
  8
TEAM-NET
 10
52.665555
 20
-144.389989
 30
787.058352
 70
    64
  0
VERTEX
  5
225
  8
TEAM-NET
 10
50.324746
 20
-133.75
 30
792.078235
 70
    64
  0
VERTEX
  5
226
  8
TEAM-NET
 10
47.600934
 20
-123.63324
 30
797.919467
 70
    64
  0
VERTEX
  5
227
  8
TEAM-NET
 10
44.514851
 20
-114.116704
 30
804.537594
 70
    64
  0
VERTEX
  5
228
  8
TEAM-NET
 10
41.089983
 20
-105.272818
 30
811.882247
 70
    64
  0
VERTEX
  5
229
  8
TEAM-NET
 10
37.352395
 20
-97.168889
 30
819.89753
 70
    64
  0
VERTEX
  5
22A
  8
TEAM-NET
 10
33.330533
 20
-89.866594
 30
828.522441
 70
    64
  0
VERTEX
  5
22B
  8
TEAM-NET
 10
29.055005
 20
-83.421507
 30
837.69134
 70
    64
  0
VERTEX
  5
22C
  8
TEAM-NET
 10
24.558352
 20
-77.882679
 30
847.334445
 70
    64
  0
VERTEX
  5
22D
  8
TEAM-NET
 10
19.874794
 20
-73.292265
 30
857.378366
 70
    64
  0
VERTEX
  5
22E
  8
TEAM-NET
 10
15.039978
 20
-69.685199
 30
867.746664
 70
    64
  0
VERTEX
  5
22F
  8
TEAM-NET
 10
10.090698
 20
-67.088934
 30
878.360429
 70
    64
  0
VERTEX
  5
230
  8
TEAM-NET
 10
5.064621
 20
-65.523229
 30
889.138885
 70
    64
  0
VERTEX
  5
231
  8
TEAM-NET
 10
0.0
 20
-65.0
 30
900.0
 70
    64
  0
VERTEX
  5
232
  8
TEAM-NET
 10
0.0
 20
-340.0
 30
900.0
 70
    64
  0
VERTEX
  5
233
  8
TEAM-NET
 10
4.09874
 20
-339.476771
 30
888.738804
 70
    64
  0
VERTEX
  5
234
  8
TEAM-NET
 10
8.166287
 20
-337.911066
 30
877.563312
 70
    64
  0
VERTEX
  5
235
  8
TEAM-NET
 10
12.171682
 20
-335.314801
 30
866.558577
 70
    64
  0
VERTEX
  5
236
  8
TEAM-NET
 10
16.084445
 20
-331.707735
 30
855.808352
 70
    64
  0
VERTEX
  5
237
  8
TEAM-NET
 10
19.874794
 20
-327.117321
 30
845.394451
 70
    64
  0
VERTEX
  5
238
  8
TEAM-NET
 10
23.513885
 20
-321.578493
 30
835.396132
 70
    64
  0
VERTEX
  5
239
  8
TEAM-NET
 10
26.974021
 20
-315.133406
 30
825.889488
 70
    64
  0
VERTEX
  5
23A
  8
TEAM-NET
 10
30.228868
 20
-307.831111
 30
816.946869
 70
    64
  0
VERTEX
  5
23B
  8
TEAM-NET
 10
33.253655
 20
-299.727182
 30
808.636334
 70
    64
  0
VERTEX
  5
23C
  8
TEAM-NET
 10
36.025362
 20
-290.883296
 30
801.021132
 70
    64
  0
VERTEX
  5
23D
  8
TEAM-NET
 10
38.522894
 20
-281.36676
 30
794.159219
 70
    64
  0
VERTEX
  5
23E
  8
TEAM-NET
 10
40.727243
 20
-271.25
 30
788.102819
 70
    64
  0
VERTEX
  5
23F
  8
TEAM-NET
 10
42.621634
 20
-260.610011
 30
782.898023
 70
    64
  0
VERTEX
  5
240
  8
TEAM-NET
 10
44.191648
 20
-249.52777
 30
778.584445
 70
    64
  0
VERTEX
  5
241
  8
TEAM-NET
 10
45.425337
 20
-238.087619
 30
775.194911
 70
    64
  0
VERTEX
  5
242
  8
TEAM-NET
 10
46.313312
 20
-226.376624
 30
772.75522
 70
    64
  0
VERTEX
  5
243
  8
TEAM-NET
 10
46.848815
 20
-214.483915
 30
771.283939
 70
    64
  0
VERTEX
  5
244
  8
TEAM-NET
 10
47.02777
 20
-202.5
 30
770.792265
 70
    64
  0
VERTEX
  5
245
  8
TEAM-NET
 10
46.848815
 20
-190.516085
 30
771.283939
 70
    64
  0
VERTEX
  5
246
  8
TEAM-NET
 10
46.313312
 20
-178.623376
 30
772.75522
 70
    64
  0
VERTEX
  5
247
  8
TEAM-NET
 10
45.425337
 20
-166.912381
 30
775.194911
 70
    64
  0
VERTEX
  5
248
  8
TEAM-NET
 10
44.191648
 20
-155.47223
 30
778.584445
 70
    64
  0
VERTEX
  5
249
  8
TEAM-NET
 10
42.621634
 20
-144.389989
 30
782.898023
 70
    64
  0
VERTEX
  5
24A
  8
TEAM-NET
 10
40.727243
 20
-133.75
 30
788.102819
 70
    64
  0
VERTEX
  5
24B
  8
TEAM-NET
 10
38.522894
 20
-123.63324
 30
794.159219
 70
    64
  0
VERTEX
  5
24C
  8
TEAM-NET
 10
36.025362
 20
-114.116704
 30
801.021132
 70
    64
  0
VERTEX
  5
24D
  8
TEAM-NET
 10
33.253655
 20
-105.272818
 30
808.636334
 70
    64
  0
VERTEX
  5
24E
  8
TEAM-NET
 10
30.228868
 20
-97.168889
 30
816.946869
 70
    64
  0
VERTEX
  5
24F
  8
TEAM-NET
 10
26.974021
 20
-89.866594
 30
825.889488
 70
    64
  0
VERTEX
  5
250
  8
TEAM-NET
 10
23.513885
 20
-83.421507
 30
835.396132
 70
    64
  0
VERTEX
  5
251
  8
TEAM-NET
 10
19.874794
 20
-77.882679
 30
845.394451
 70
    64
  0
VERTEX
  5
252
  8
TEAM-NET
 10
16.084445
 20
-73.292265
 30
855.808352
 70
    64
  0
VERTEX
  5
253
  8
TEAM-NET
 10
12.171682
 20
-69.685199
 30
866.558577
 70
    64
  0
VERTEX
  5
254
  8
TEAM-NET
 10
8.166287
 20
-67.088934
 30
877.563312
 70
    64
  0
VERTEX
  5
255
  8
TEAM-NET
 10
4.09874
 20
-65.523229
 30
888.738804
 70
    64
  0
VERTEX
  5
256
  8
TEAM-NET
 10
0.0
 20
-65.0
 30
900.0
 70
    64
  0
VERTEX
  5
257
  8
TEAM-NET
 10
0.0
 20
-340.0
 30
900.0
 70
    64
  0
VERTEX
  5
258
  8
TEAM-NET
 10
3.101665
 20
-339.476771
 30
888.424427
 70
    64
  0
VERTEX
  5
259
  8
TEAM-NET
 10
6.179725
 20
-337.911066
 30
876.936952
 70
    64
  0
VERTEX
  5
25A
  8
TEAM-NET
 10
9.210753
 20
-335.314801
 30
865.625
 70
    64
  0
VERTEX
  5
25B
  8
TEAM-NET
 10
12.171682
 20
-331.707735
 30
854.574663
 70
    64
  0
VERTEX
  5
25C
  8
TEAM-NET
 10
15.039978
 20
-327.117321
 30
843.87004
 70
    64
  0
VERTEX
  5
25D
  8
TEAM-NET
 10
17.793809
 20
-321.578493
 30
833.592599
 70
    64
  0
VERTEX
  5
25E
  8
TEAM-NET
 10
20.41222
 20
-315.133406
 30
823.82056
 70
    64
  0
VERTEX
  5
25F
  8
TEAM-NET
 10
22.87528
 20
-307.831111
 30
814.628291
 70
    64
  0
VERTEX
  5
260
  8
TEAM-NET
 10
25.164247
 20
-299.727182
 30
806.085753
 70
    64
  0
VERTEX
  5
261
  8
TEAM-NET
 10
27.261698
 20
-290.883296
 30
798.25796
 70
    64
  0
VERTEX
  5
262
  8
TEAM-NET
 10
29.151671
 20
-281.36676
 30
791.204484
 70
    64
  0
VERTEX
  5
263
  8
TEAM-NET
 10
30.819782
 20
-271.25
 30
784.979008
 70
    64
  0
VERTEX
  5
264
  8
TEAM-NET
 10
32.253336
 20
-260.610011
 30
779.628912
 70
    64
  0
VERTEX
  5
265
  8
TEAM-NET
 10
33.441423
 20
-249.52777
 30
775.194911
 70
    64
  0
VERTEX
  5
266
  8
TEAM-NET
 10
34.375
 20
-238.087619
 30
771.710753
 70
    64
  0
VERTEX
  5
267
  8
TEAM-NET
 10
35.046963
 20
-226.376624
 30
769.202954
 70
    64
  0
VERTEX
  5
268
  8
TEAM-NET
 10
35.452197
 20
-214.483915
 30
767.690599
 70
    64
  0
VERTEX
  5
269
  8
TEAM-NET
 10
35.587619
 20
-202.5
 30
767.185199
 70
    64
  0
VERTEX
  5
26A
  8
TEAM-NET
 10
35.452197
 20
-190.516085
 30
767.690599
 70
    64
  0
VERTEX
  5
26B
  8
TEAM-NET
 10
35.046963
 20
-178.623376
 30
769.202954
 70
    64
  0
VERTEX
  5
26C
  8
TEAM-NET
 10
34.375
 20
-166.912381
 30
771.710753
 70
    64
  0
VERTEX
  5
26D
  8
TEAM-NET
 10
33.441423
 20
-155.47223
 30
775.194911
 70
    64
  0
VERTEX
  5
26E
  8
TEAM-NET
 10
32.253336
 20
-144.389989
 30
779.628912
 70
    64
  0
VERTEX
  5
26F
  8
TEAM-NET
 10
30.819782
 20
-133.75
 30
784.979008
 70
    64
  0
VERTEX
  5
270
  8
TEAM-NET
 10
29.151671
 20
-123.63324
 30
791.204484
 70
    64
  0
VERTEX
  5
271
  8
TEAM-NET
 10
27.261698
 20
-114.116704
 30
798.25796
 70
    64
  0
VERTEX
  5
272
  8
TEAM-NET
 10
25.164247
 20
-105.272818
 30
806.085753
 70
    64
  0
VERTEX
  5
273
  8
TEAM-NET
 10
22.87528
 20
-97.168889
 30
814.628291
 70
    64
  0
VERTEX
  5
274
  8
TEAM-NET
 10
20.41222
 20
-89.866594
 30
823.82056
 70
    64
  0
VERTEX
  5
275
  8
TEAM-NET
 10
17.793809
 20
-83.421507
 30
833.592599
 70
    64
  0
VERTEX
  5
276
  8
TEAM-NET
 10
15.039978
 20
-77.882679
 30
843.87004
 70
    64
  0
VERTEX
  5
277
  8
TEAM-NET
 10
12.171682
 20
-73.292265
 30
854.574663
 70
    64
  0
VERTEX
  5
278
  8
TEAM-NET
 10
9.210753
 20
-69.685199
 30
865.625
 70
    64
  0
VERTEX
  5
279
  8
TEAM-NET
 10
6.179725
 20
-67.088934
 30
876.936952
 70
    64
  0
VERTEX
  5
27A
  8
TEAM-NET
 10
3.101665
 20
-65.523229
 30
888.424427
 70
    64
  0
VERTEX
  5
27B
  8
TEAM-NET
 10
0.0
 20
-65.0
 30
900.0
 70
    64
  0
VERTEX
  5
27C
  8
TEAM-NET
 10
0.0
 20
-340.0
 30
900.0
 70
    64
  0
VERTEX
  5
27D
  8
TEAM-NET
 10
2.080985
 20
-339.476771
 30
888.198148
 70
    64
  0
VERTEX
  5
27E
  8
TEAM-NET
 10
4.146132
 20
-337.911066
 30
876.486115
 70
    64
  0
VERTEX
  5
27F
  8
TEAM-NET
 10
6.179725
 20
-335.314801
 30
864.953037
 70
    64
  0
VERTEX
  5
280
  8
TEAM-NET
 10
8.166287
 20
-331.707735
 30
853.686688
 70
    64
  0
VERTEX
  5
281
  8
TEAM-NET
 10
10.090698
 20
-327.117321
 30
842.772811
 70
    64
  0
VERTEX
  5
282
  8
TEAM-NET
 10
11.938312
 20
-321.578493
 30
832.294467
 70
    64
  0
VERTEX
  5
283
  8
TEAM-NET
 10
13.695069
 20
-315.133406
 30
822.331403
 70
    64
  0
VERTEX
  5
284
  8
TEAM-NET
 10
15.347598
 20
-307.831111
 30
812.959445
 70
    64
  0
VERTEX
  5
285
  8
TEAM-NET
 10
16.883323
 20
-299.727182
 30
804.249917
 70
    64
  0
VERTEX
  5
286
  8
TEAM-NET
 10
18.290555
 20
-290.883296
 30
796.269105
 70
    64
  0
VERTEX
  5
287
  8
TEAM-NET
 10
19.558586
 20
-281.36676
 30
789.077748
 70
    64
  0
VERTEX
  5
288
  8
TEAM-NET
 10
20.677763
 20
-271.25
 30
782.730577
 70
    64
  0
VERTEX
  5
289
  8
TEAM-NET
 10
21.639571
 20
-260.610011
 30
777.275896
 70
    64
  0
VERTEX
  5
28A
  8
TEAM-NET
 10
22.436688
 20
-249.52777
 30
772.75522
 70
    64
  0
VERTEX
  5
28B
  8
TEAM-NET
 10
23.063048
 20
-238.087619
 30
769.202954
 70
    64
  0
VERTEX
  5
28C
  8
TEAM-NET
 10
23.513885
 20
-226.376624
 30
766.646132
 70
    64
  0
VERTEX
  5
28D
  8
TEAM-NET
 10
23.785767
 20
-214.483915
 30
765.104214
 70
    64
  0
VERTEX
  5
28E
  8
TEAM-NET
 10
23.876624
 20
-202.5
 30
764.588934
 70
    64
  0
VERTEX
  5
28F
  8
TEAM-NET
 10
23.785767
 20
-190.516085
 30
765.104214
 70
    64
  0
VERTEX
  5
290
  8
TEAM-NET
 10
23.513885
 20
-178.623376
 30
766.646132
 70
    64
  0
VERTEX
  5
291
  8
TEAM-NET
 10
23.063048
 20
-166.912381
 30
769.202954
 70
    64
  0
VERTEX
  5
292
  8
TEAM-NET
 10
22.436688
 20
-155.47223
 30
772.75522
 70
    64
  0
VERTEX
  5
293
  8
TEAM-NET
 10
21.639571
 20
-144.389989
 30
777.275896
 70
    64
  0
VERTEX
  5
294
  8
TEAM-NET
 10
20.677763
 20
-133.75
 30
782.730577
 70
    64
  0
VERTEX
  5
295
  8
TEAM-NET
 10
19.558586
 20
-123.63324
 30
789.077748
 70
    64
  0
VERTEX
  5
296
  8
TEAM-NET
 10
18.290555
 20
-114.116704
 30
796.269105
 70
    64
  0
VERTEX
  5
297
  8
TEAM-NET
 10
16.883323
 20
-105.272818
 30
804.249917
 70
    64
  0
VERTEX
  5
298
  8
TEAM-NET
 10
15.347598
 20
-97.168889
 30
812.959445
 70
    64
  0
VERTEX
  5
299
  8
TEAM-NET
 10
13.695069
 20
-89.866594
 30
822.331403
 70
    64
  0
VERTEX
  5
29A
  8
TEAM-NET
 10
11.938312
 20
-83.421507
 30
832.294467
 70
    64
  0
VERTEX
  5
29B
  8
TEAM-NET
 10
10.090698
 20
-77.882679
 30
842.772811
 70
    64
  0
VERTEX
  5
29C
  8
TEAM-NET
 10
8.166287
 20
-73.292265
 30
853.686688
 70
    64
  0
VERTEX
  5
29D
  8
TEAM-NET
 10
6.179725
 20
-69.685199
 30
864.953037
 70
    64
  0
VERTEX
  5
29E
  8
TEAM-NET
 10
4.146132
 20
-67.088934
 30
876.486115
 70
    64
  0
VERTEX
  5
29F
  8
TEAM-NET
 10
2.080985
 20
-65.523229
 30
888.198148
 70
    64
  0
VERTEX
  5
2A0
  8
TEAM-NET
 10
0.0
 20
-65.0
 30
900.0
 70
    64
  0
VERTEX
  5
2A1
  8
TEAM-NET
 10
0.0
 20
-340.0
 30
900.0
 70
    64
  0
VERTEX
  5
2A2
  8
TEAM-NET
 10
1.044467
 20
-339.476771
 30
888.061688
 70
    64
  0
VERTEX
  5
2A3
  8
TEAM-NET
 10
2.080985
 20
-337.911066
 30
876.214233
 70
    64
  0
VERTEX
  5
2A4
  8
TEAM-NET
 10
3.101665
 20
-335.314801
 30
864.547803
 70
    64
  0
VERTEX
  5
2A5
  8
TEAM-NET
 10
4.09874
 20
-331.707735
 30
853.151185
 70
    64
  0
VERTEX
  5
2A6
  8
TEAM-NET
 10
5.064621
 20
-327.117321
 30
842.111115
 70
    64
  0
VERTEX
  5
2A7
  8
TEAM-NET
 10
5.991957
 20
-321.578493
 30
831.511615
 70
    64
  0
VERTEX
  5
2A8
  8
TEAM-NET
 10
6.873691
 20
-315.133406
 30
821.433352
 70
    64
  0
VERTEX
  5
2A9
  8
TEAM-NET
 10
7.703112
 20
-307.831111
 30
811.953029
 70
    64
  0
VERTEX
  5
2AA
  8
TEAM-NET
 10
8.473907
 20
-299.727182
 30
803.142796
 70
    64
  0
VERTEX
  5
2AB
  8
TEAM-NET
 10
9.180211
 20
-290.883296
 30
795.069706
 70
    64
  0
VERTEX
  5
2AC
  8
TEAM-NET
 10
9.816648
 20
-281.36676
 30
787.795198
 70
    64
  0
VERTEX
  5
2AD
  8
TEAM-NET
 10
10.378375
 20
-271.25
 30
781.374637
 70
    64
  0
VERTEX
  5
2AE
  8
TEAM-NET
 10
10.861115
 20
-260.610011
 30
775.856886
 70
    64
  0
VERTEX
  5
2AF
  8
TEAM-NET
 10
11.261196
 20
-249.52777
 30
771.283939
 70
    64
  0
VERTEX
  5
2B0
  8
TEAM-NET
 10
11.575573
 20
-238.087619
 30
767.690599
 70
    64
  0
VERTEX
  5
2B1
  8
TEAM-NET
 10
11.801852
 20
-226.376624
 30
765.104214
 70
    64
  0
VERTEX
  5
2B2
  8
TEAM-NET
 10
11.938312
 20
-214.483915
 30
763.544467
 70
    64
  0
VERTEX
  5
2B3
  8
TEAM-NET
 10
11.983915
 20
-202.5
 30
763.023229
 70
    64
  0
VERTEX
  5
2B4
  8
TEAM-NET
 10
11.938312
 20
-190.516085
 30
763.544467
 70
    64
  0
VERTEX
  5
2B5
  8
TEAM-NET
 10
11.801852
 20
-178.623376
 30
765.104214
 70
    64
  0
VERTEX
  5
2B6
  8
TEAM-NET
 10
11.575573
 20
-166.912381
 30
767.690599
 70
    64
  0
VERTEX
  5
2B7
  8
TEAM-NET
 10
11.261196
 20
-155.47223
 30
771.283939
 70
    64
  0
VERTEX
  5
2B8
  8
TEAM-NET
 10
10.861115
 20
-144.389989
 30
775.856886
 70
    64
  0
VERTEX
  5
2B9
  8
TEAM-NET
 10
10.378375
 20
-133.75
 30
781.374637
 70
    64
  0
VERTEX
  5
2BA
  8
TEAM-NET
 10
9.816648
 20
-123.63324
 30
787.795198
 70
    64
  0
VERTEX
  5
2BB
  8
TEAM-NET
 10
9.180211
 20
-114.116704
 30
795.069706
 70
    64
  0
VERTEX
  5
2BC
  8
TEAM-NET
 10
8.473907
 20
-105.272818
 30
803.142796
 70
    64
  0
VERTEX
  5
2BD
  8
TEAM-NET
 10
7.703112
 20
-97.168889
 30
811.953029
 70
    64
  0
VERTEX
  5
2BE
  8
TEAM-NET
 10
6.873691
 20
-89.866594
 30
821.433352
 70
    64
  0
VERTEX
  5
2BF
  8
TEAM-NET
 10
5.991957
 20
-83.421507
 30
831.511615
 70
    64
  0
VERTEX
  5
2C0
  8
TEAM-NET
 10
5.064621
 20
-77.882679
 30
842.111115
 70
    64
  0
VERTEX
  5
2C1
  8
TEAM-NET
 10
4.09874
 20
-73.292265
 30
853.151185
 70
    64
  0
VERTEX
  5
2C2
  8
TEAM-NET
 10
3.101665
 20
-69.685199
 30
864.547803
 70
    64
  0
VERTEX
  5
2C3
  8
TEAM-NET
 10
2.080985
 20
-67.088934
 30
876.214233
 70
    64
  0
VERTEX
  5
2C4
  8
TEAM-NET
 10
1.044467
 20
-65.523229
 30
888.061688
 70
    64
  0
VERTEX
  5
2C5
  8
TEAM-NET
 10
0.0
 20
-65.0
 30
900.0
 70
    64
  0
VERTEX
  5
2C6
  8
TEAM-NET
 10
0.0
 20
-340.0
 30
900.0
 70
    64
  0
VERTEX
  5
2C7
  8
TEAM-NET
 10
0.0
 20
-339.476771
 30
888.016085
 70
    64
  0
VERTEX
  5
2C8
  8
TEAM-NET
 10
0.0
 20
-337.911066
 30
876.123376
 70
    64
  0
VERTEX
  5
2C9
  8
TEAM-NET
 10
0.0
 20
-335.314801
 30
864.412381
 70
    64
  0
VERTEX
  5
2CA
  8
TEAM-NET
 10
0.0
 20
-331.707735
 30
852.97223
 70
    64
  0
VERTEX
  5
2CB
  8
TEAM-NET
 10
0.0
 20
-327.117321
 30
841.889989
 70
    64
  0
VERTEX
  5
2CC
  8
TEAM-NET
 10
0.0
 20
-321.578493
 30
831.25
 70
    64
  0
VERTEX
  5
2CD
  8
TEAM-NET
 10
0.0
 20
-315.133406
 30
821.13324
 70
    64
  0
VERTEX
  5
2CE
  8
TEAM-NET
 10
0.0
 20
-307.831111
 30
811.616704
 70
    64
  0
VERTEX
  5
2CF
  8
TEAM-NET
 10
0.0
 20
-299.727182
 30
802.772818
 70
    64
  0
VERTEX
  5
2D0
  8
TEAM-NET
 10
0.0
 20
-290.883296
 30
794.668889
 70
    64
  0
VERTEX
  5
2D1
  8
TEAM-NET
 10
0.0
 20
-281.36676
 30
787.366594
 70
    64
  0
VERTEX
  5
2D2
  8
TEAM-NET
 10
0.0
 20
-271.25
 30
780.921507
 70
    64
  0
VERTEX
  5
2D3
  8
TEAM-NET
 10
0.0
 20
-260.610011
 30
775.382679
 70
    64
  0
VERTEX
  5
2D4
  8
TEAM-NET
 10
0.0
 20
-249.52777
 30
770.792265
 70
    64
  0
VERTEX
  5
2D5
  8
TEAM-NET
 10
0.0
 20
-238.087619
 30
767.185199
 70
    64
  0
VERTEX
  5
2D6
  8
TEAM-NET
 10
0.0
 20
-226.376624
 30
764.588934
 70
    64
  0
VERTEX
  5
2D7
  8
TEAM-NET
 10
0.0
 20
-214.483915
 30
763.023229
 70
    64
  0
VERTEX
  5
2D8
  8
TEAM-NET
 10
0.0
 20
-202.5
 30
762.5
 70
    64
  0
VERTEX
  5
2D9
  8
TEAM-NET
 10
0.0
 20
-190.516085
 30
763.023229
 70
    64
  0
VERTEX
  5
2DA
  8
TEAM-NET
 10
0.0
 20
-178.623376
 30
764.588934
 70
    64
  0
VERTEX
  5
2DB
  8
TEAM-NET
 10
0.0
 20
-166.912381
 30
767.185199
 70
    64
  0
VERTEX
  5
2DC
  8
TEAM-NET
 10
0.0
 20
-155.47223
 30
770.792265
 70
    64
  0
VERTEX
  5
2DD
  8
TEAM-NET
 10
0.0
 20
-144.389989
 30
775.382679
 70
    64
  0
VERTEX
  5
2DE
  8
TEAM-NET
 10
0.0
 20
-133.75
 30
780.921507
 70
    64
  0
VERTEX
  5
2DF
  8
TEAM-NET
 10
0.0
 20
-123.63324
 30
787.366594
 70
    64
  0
VERTEX
  5
2E0
  8
TEAM-NET
 10
0.0
 20
-114.116704
 30
794.668889
 70
    64
  0
VERTEX
  5
2E1
  8
TEAM-NET
 10
0.0
 20
-105.272818
 30
802.772818
 70
    64
  0
VERTEX
  5
2E2
  8
TEAM-NET
 10
0.0
 20
-97.168889
 30
811.616704
 70
    64
  0
VERTEX
  5
2E3
  8
TEAM-NET
 10
0.0
 20
-89.866594
 30
821.13324
 70
    64
  0
VERTEX
  5
2E4
  8
TEAM-NET
 10
0.0
 20
-83.421507
 30
831.25
 70
    64
  0
VERTEX
  5
2E5
  8
TEAM-NET
 10
0.0
 20
-77.882679
 30
841.889989
 70
    64
  0
VERTEX
  5
2E6
  8
TEAM-NET
 10
0.0
 20
-73.292265
 30
852.97223
 70
    64
  0
VERTEX
  5
2E7
  8
TEAM-NET
 10
0.0
 20
-69.685199
 30
864.412381
 70
    64
  0
VERTEX
  5
2E8
  8
TEAM-NET
 10
0.0
 20
-67.088934
 30
876.123376
 70
    64
  0
VERTEX
  5
2E9
  8
TEAM-NET
 10
0.0
 20
-65.523229
 30
888.016085
 70
    64
  0
VERTEX
  5
2EA
  8
TEAM-NET
 10
0.0
 20
-65.0
 30
900.0
 70
    64
  0
VERTEX
  5
2EB
  8
TEAM-NET
 10
0.0
 20
-340.0
 30
900.0
 70
    64
  0
VERTEX
  5
2EC
  8
TEAM-NET
 10
-1.044467
 20
-339.476771
 30
888.061688
 70
    64
  0
VERTEX
  5
2ED
  8
TEAM-NET
 10
-2.080985
 20
-337.911066
 30
876.214233
 70
    64
  0
VERTEX
  5
2EE
  8
TEAM-NET
 10
-3.101665
 20
-335.314801
 30
864.547803
 70
    64
  0
VERTEX
  5
2EF
  8
TEAM-NET
 10
-4.09874
 20
-331.707735
 30
853.151185
 70
    64
  0
VERTEX
  5
2F0
  8
TEAM-NET
 10
-5.064621
 20
-327.117321
 30
842.111115
 70
    64
  0
VERTEX
  5
2F1
  8
TEAM-NET
 10
-5.991957
 20
-321.578493
 30
831.511615
 70
    64
  0
VERTEX
  5
2F2
  8
TEAM-NET
 10
-6.873691
 20
-315.133406
 30
821.433352
 70
    64
  0
VERTEX
  5
2F3
  8
TEAM-NET
 10
-7.703112
 20
-307.831111
 30
811.953029
 70
    64
  0
VERTEX
  5
2F4
  8
TEAM-NET
 10
-8.473907
 20
-299.727182
 30
803.142796
 70
    64
  0
VERTEX
  5
2F5
  8
TEAM-NET
 10
-9.180211
 20
-290.883296
 30
795.069706
 70
    64
  0
VERTEX
  5
2F6
  8
TEAM-NET
 10
-9.816648
 20
-281.36676
 30
787.795198
 70
    64
  0
VERTEX
  5
2F7
  8
TEAM-NET
 10
-10.378375
 20
-271.25
 30
781.374637
 70
    64
  0
VERTEX
  5
2F8
  8
TEAM-NET
 10
-10.861115
 20
-260.610011
 30
775.856886
 70
    64
  0
VERTEX
  5
2F9
  8
TEAM-NET
 10
-11.261196
 20
-249.52777
 30
771.283939
 70
    64
  0
VERTEX
  5
2FA
  8
TEAM-NET
 10
-11.575573
 20
-238.087619
 30
767.690599
 70
    64
  0
VERTEX
  5
2FB
  8
TEAM-NET
 10
-11.801852
 20
-226.376624
 30
765.104214
 70
    64
  0
VERTEX
  5
2FC
  8
TEAM-NET
 10
-11.938312
 20
-214.483915
 30
763.544467
 70
    64
  0
VERTEX
  5
2FD
  8
TEAM-NET
 10
-11.983915
 20
-202.5
 30
763.023229
 70
    64
  0
VERTEX
  5
2FE
  8
TEAM-NET
 10
-11.938312
 20
-190.516085
 30
763.544467
 70
    64
  0
VERTEX
  5
2FF
  8
TEAM-NET
 10
-11.801852
 20
-178.623376
 30
765.104214
 70
    64
  0
VERTEX
  5
300
  8
TEAM-NET
 10
-11.575573
 20
-166.912381
 30
767.690599
 70
    64
  0
VERTEX
  5
301
  8
TEAM-NET
 10
-11.261196
 20
-155.47223
 30
771.283939
 70
    64
  0
VERTEX
  5
302
  8
TEAM-NET
 10
-10.861115
 20
-144.389989
 30
775.856886
 70
    64
  0
VERTEX
  5
303
  8
TEAM-NET
 10
-10.378375
 20
-133.75
 30
781.374637
 70
    64
  0
VERTEX
  5
304
  8
TEAM-NET
 10
-9.816648
 20
-123.63324
 30
787.795198
 70
    64
  0
VERTEX
  5
305
  8
TEAM-NET
 10
-9.180211
 20
-114.116704
 30
795.069706
 70
    64
  0
VERTEX
  5
306
  8
TEAM-NET
 10
-8.473907
 20
-105.272818
 30
803.142796
 70
    64
  0
VERTEX
  5
307
  8
TEAM-NET
 10
-7.703112
 20
-97.168889
 30
811.953029
 70
    64
  0
VERTEX
  5
308
  8
TEAM-NET
 10
-6.873691
 20
-89.866594
 30
821.433352
 70
    64
  0
VERTEX
  5
309
  8
TEAM-NET
 10
-5.991957
 20
-83.421507
 30
831.511615
 70
    64
  0
VERTEX
  5
30A
  8
TEAM-NET
 10
-5.064621
 20
-77.882679
 30
842.111115
 70
    64
  0
VERTEX
  5
30B
  8
TEAM-NET
 10
-4.09874
 20
-73.292265
 30
853.151185
 70
    64
  0
VERTEX
  5
30C
  8
TEAM-NET
 10
-3.101665
 20
-69.685199
 30
864.547803
 70
    64
  0
VERTEX
  5
30D
  8
TEAM-NET
 10
-2.080985
 20
-67.088934
 30
876.214233
 70
    64
  0
VERTEX
  5
30E
  8
TEAM-NET
 10
-1.044467
 20
-65.523229
 30
888.061688
 70
    64
  0
VERTEX
  5
30F
  8
TEAM-NET
 10
0.0
 20
-65.0
 30
900.0
 70
    64
  0
VERTEX
  5
310
  8
TEAM-NET
 10
0.0
 20
-340.0
 30
900.0
 70
    64
  0
VERTEX
  5
311
  8
TEAM-NET
 10
-2.080985
 20
-339.476771
 30
888.198148
 70
    64
  0
VERTEX
  5
312
  8
TEAM-NET
 10
-4.146132
 20
-337.911066
 30
876.486115
 70
    64
  0
VERTEX
  5
313
  8
TEAM-NET
 10
-6.179725
 20
-335.314801
 30
864.953037
 70
    64
  0
VERTEX
  5
314
  8
TEAM-NET
 10
-8.166287
 20
-331.707735
 30
853.686688
 70
    64
  0
VERTEX
  5
315
  8
TEAM-NET
 10
-10.090698
 20
-327.117321
 30
842.772811
 70
    64
  0
VERTEX
  5
316
  8
TEAM-NET
 10
-11.938312
 20
-321.578493
 30
832.294467
 70
    64
  0
VERTEX
  5
317
  8
TEAM-NET
 10
-13.695069
 20
-315.133406
 30
822.331403
 70
    64
  0
VERTEX
  5
318
  8
TEAM-NET
 10
-15.347598
 20
-307.831111
 30
812.959445
 70
    64
  0
VERTEX
  5
319
  8
TEAM-NET
 10
-16.883323
 20
-299.727182
 30
804.249917
 70
    64
  0
VERTEX
  5
31A
  8
TEAM-NET
 10
-18.290555
 20
-290.883296
 30
796.269105
 70
    64
  0
VERTEX
  5
31B
  8
TEAM-NET
 10
-19.558586
 20
-281.36676
 30
789.077748
 70
    64
  0
VERTEX
  5
31C
  8
TEAM-NET
 10
-20.677763
 20
-271.25
 30
782.730577
 70
    64
  0
VERTEX
  5
31D
  8
TEAM-NET
 10
-21.639571
 20
-260.610011
 30
777.275896
 70
    64
  0
VERTEX
  5
31E
  8
TEAM-NET
 10
-22.436688
 20
-249.52777
 30
772.75522
 70
    64
  0
VERTEX
  5
31F
  8
TEAM-NET
 10
-23.063048
 20
-238.087619
 30
769.202954
 70
    64
  0
VERTEX
  5
320
  8
TEAM-NET
 10
-23.513885
 20
-226.376624
 30
766.646132
 70
    64
  0
VERTEX
  5
321
  8
TEAM-NET
 10
-23.785767
 20
-214.483915
 30
765.104214
 70
    64
  0
VERTEX
  5
322
  8
TEAM-NET
 10
-23.876624
 20
-202.5
 30
764.588934
 70
    64
  0
VERTEX
  5
323
  8
TEAM-NET
 10
-23.785767
 20
-190.516085
 30
765.104214
 70
    64
  0
VERTEX
  5
324
  8
TEAM-NET
 10
-23.513885
 20
-178.623376
 30
766.646132
 70
    64
  0
VERTEX
  5
325
  8
TEAM-NET
 10
-23.063048
 20
-166.912381
 30
769.202954
 70
    64
  0
VERTEX
  5
326
  8
TEAM-NET
 10
-22.436688
 20
-155.47223
 30
772.75522
 70
    64
  0
VERTEX
  5
327
  8
TEAM-NET
 10
-21.639571
 20
-144.389989
 30
777.275896
 70
    64
  0
VERTEX
  5
328
  8
TEAM-NET
 10
-20.677763
 20
-133.75
 30
782.730577
 70
    64
  0
VERTEX
  5
329
  8
TEAM-NET
 10
-19.558586
 20
-123.63324
 30
789.077748
 70
    64
  0
VERTEX
  5
32A
  8
TEAM-NET
 10
-18.290555
 20
-114.116704
 30
796.269105
 70
    64
  0
VERTEX
  5
32B
  8
TEAM-NET
 10
-16.883323
 20
-105.272818
 30
804.249917
 70
    64
  0
VERTEX
  5
32C
  8
TEAM-NET
 10
-15.347598
 20
-97.168889
 30
812.959445
 70
    64
  0
VERTEX
  5
32D
  8
TEAM-NET
 10
-13.695069
 20
-89.866594
 30
822.331403
 70
    64
  0
VERTEX
  5
32E
  8
TEAM-NET
 10
-11.938312
 20
-83.421507
 30
832.294467
 70
    64
  0
VERTEX
  5
32F
  8
TEAM-NET
 10
-10.090698
 20
-77.882679
 30
842.772811
 70
    64
  0
VERTEX
  5
330
  8
TEAM-NET
 10
-8.166287
 20
-73.292265
 30
853.686688
 70
    64
  0
VERTEX
  5
331
  8
TEAM-NET
 10
-6.179725
 20
-69.685199
 30
864.953037
 70
    64
  0
VERTEX
  5
332
  8
TEAM-NET
 10
-4.146132
 20
-67.088934
 30
876.486115
 70
    64
  0
VERTEX
  5
333
  8
TEAM-NET
 10
-2.080985
 20
-65.523229
 30
888.198148
 70
    64
  0
VERTEX
  5
334
  8
TEAM-NET
 10
0.0
 20
-65.0
 30
900.0
 70
    64
  0
VERTEX
  5
335
  8
TEAM-NET
 10
0.0
 20
-340.0
 30
900.0
 70
    64
  0
VERTEX
  5
336
  8
TEAM-NET
 10
-3.101665
 20
-339.476771
 30
888.424427
 70
    64
  0
VERTEX
  5
337
  8
TEAM-NET
 10
-6.179725
 20
-337.911066
 30
876.936952
 70
    64
  0
VERTEX
  5
338
  8
TEAM-NET
 10
-9.210753
 20
-335.314801
 30
865.625
 70
    64
  0
VERTEX
  5
339
  8
TEAM-NET
 10
-12.171682
 20
-331.707735
 30
854.574663
 70
    64
  0
VERTEX
  5
33A
  8
TEAM-NET
 10
-15.039978
 20
-327.117321
 30
843.87004
 70
    64
  0
VERTEX
  5
33B
  8
TEAM-NET
 10
-17.793809
 20
-321.578493
 30
833.592599
 70
    64
  0
VERTEX
  5
33C
  8
TEAM-NET
 10
-20.41222
 20
-315.133406
 30
823.82056
 70
    64
  0
VERTEX
  5
33D
  8
TEAM-NET
 10
-22.87528
 20
-307.831111
 30
814.628291
 70
    64
  0
VERTEX
  5
33E
  8
TEAM-NET
 10
-25.164247
 20
-299.727182
 30
806.085753
 70
    64
  0
VERTEX
  5
33F
  8
TEAM-NET
 10
-27.261698
 20
-290.883296
 30
798.25796
 70
    64
  0
VERTEX
  5
340
  8
TEAM-NET
 10
-29.151671
 20
-281.36676
 30
791.204484
 70
    64
  0
VERTEX
  5
341
  8
TEAM-NET
 10
-30.819782
 20
-271.25
 30
784.979008
 70
    64
  0
VERTEX
  5
342
  8
TEAM-NET
 10
-32.253336
 20
-260.610011
 30
779.628912
 70
    64
  0
VERTEX
  5
343
  8
TEAM-NET
 10
-33.441423
 20
-249.52777
 30
775.194911
 70
    64
  0
VERTEX
  5
344
  8
TEAM-NET
 10
-34.375
 20
-238.087619
 30
771.710753
 70
    64
  0
VERTEX
  5
345
  8
TEAM-NET
 10
-35.046963
 20
-226.376624
 30
769.202954
 70
    64
  0
VERTEX
  5
346
  8
TEAM-NET
 10
-35.452197
 20
-214.483915
 30
767.690599
 70
    64
  0
VERTEX
  5
347
  8
TEAM-NET
 10
-35.587619
 20
-202.5
 30
767.185199
 70
    64
  0
VERTEX
  5
348
  8
TEAM-NET
 10
-35.452197
 20
-190.516085
 30
767.690599
 70
    64
  0
VERTEX
  5
349
  8
TEAM-NET
 10
-35.046963
 20
-178.623376
 30
769.202954
 70
    64
  0
VERTEX
  5
34A
  8
TEAM-NET
 10
-34.375
 20
-166.912381
 30
771.710753
 70
    64
  0
VERTEX
  5
34B
  8
TEAM-NET
 10
-33.441423
 20
-155.47223
 30
775.194911
 70
    64
  0
VERTEX
  5
34C
  8
TEAM-NET
 10
-32.253336
 20
-144.389989
 30
779.628912
 70
    64
  0
VERTEX
  5
34D
  8
TEAM-NET
 10
-30.819782
 20
-133.75
 30
784.979008
 70
    64
  0
VERTEX
  5
34E
  8
TEAM-NET
 10
-29.151671
 20
-123.63324
 30
791.204484
 70
    64
  0
VERTEX
  5
34F
  8
TEAM-NET
 10
-27.261698
 20
-114.116704
 30
798.25796
 70
    64
  0
VERTEX
  5
350
  8
TEAM-NET
 10
-25.164247
 20
-105.272818
 30
806.085753
 70
    64
  0
VERTEX
  5
351
  8
TEAM-NET
 10
-22.87528
 20
-97.168889
 30
814.628291
 70
    64
  0
VERTEX
  5
352
  8
TEAM-NET
 10
-20.41222
 20
-89.866594
 30
823.82056
 70
    64
  0
VERTEX
  5
353
  8
TEAM-NET
 10
-17.793809
 20
-83.421507
 30
833.592599
 70
    64
  0
VERTEX
  5
354
  8
TEAM-NET
 10
-15.039978
 20
-77.882679
 30
843.87004
 70
    64
  0
VERTEX
  5
355
  8
TEAM-NET
 10
-12.171682
 20
-73.292265
 30
854.574663
 70
    64
  0
VERTEX
  5
356
  8
TEAM-NET
 10
-9.210753
 20
-69.685199
 30
865.625
 70
    64
  0
VERTEX
  5
357
  8
TEAM-NET
 10
-6.179725
 20
-67.088934
 30
876.936952
 70
    64
  0
VERTEX
  5
358
  8
TEAM-NET
 10
-3.101665
 20
-65.523229
 30
888.424427
 70
    64
  0
VERTEX
  5
359
  8
TEAM-NET
 10
0.0
 20
-65.0
 30
900.0
 70
    64
  0
VERTEX
  5
35A
  8
TEAM-NET
 10
0.0
 20
-340.0
 30
900.0
 70
    64
  0
VERTEX
  5
35B
  8
TEAM-NET
 10
-4.09874
 20
-339.476771
 30
888.738804
 70
    64
  0
VERTEX
  5
35C
  8
TEAM-NET
 10
-8.166287
 20
-337.911066
 30
877.563312
 70
    64
  0
VERTEX
  5
35D
  8
TEAM-NET
 10
-12.171682
 20
-335.314801
 30
866.558577
 70
    64
  0
VERTEX
  5
35E
  8
TEAM-NET
 10
-16.084445
 20
-331.707735
 30
855.808352
 70
    64
  0
VERTEX
  5
35F
  8
TEAM-NET
 10
-19.874794
 20
-327.117321
 30
845.394451
 70
    64
  0
VERTEX
  5
360
  8
TEAM-NET
 10
-23.513885
 20
-321.578493
 30
835.396132
 70
    64
  0
VERTEX
  5
361
  8
TEAM-NET
 10
-26.974021
 20
-315.133406
 30
825.889488
 70
    64
  0
VERTEX
  5
362
  8
TEAM-NET
 10
-30.228868
 20
-307.831111
 30
816.946869
 70
    64
  0
VERTEX
  5
363
  8
TEAM-NET
 10
-33.253655
 20
-299.727182
 30
808.636334
 70
    64
  0
VERTEX
  5
364
  8
TEAM-NET
 10
-36.025362
 20
-290.883296
 30
801.021132
 70
    64
  0
VERTEX
  5
365
  8
TEAM-NET
 10
-38.522894
 20
-281.36676
 30
794.159219
 70
    64
  0
VERTEX
  5
366
  8
TEAM-NET
 10
-40.727243
 20
-271.25
 30
788.102819
 70
    64
  0
VERTEX
  5
367
  8
TEAM-NET
 10
-42.621634
 20
-260.610011
 30
782.898023
 70
    64
  0
VERTEX
  5
368
  8
TEAM-NET
 10
-44.191648
 20
-249.52777
 30
778.584445
 70
    64
  0
VERTEX
  5
369
  8
TEAM-NET
 10
-45.425337
 20
-238.087619
 30
775.194911
 70
    64
  0
VERTEX
  5
36A
  8
TEAM-NET
 10
-46.313312
 20
-226.376624
 30
772.75522
 70
    64
  0
VERTEX
  5
36B
  8
TEAM-NET
 10
-46.848815
 20
-214.483915
 30
771.283939
 70
    64
  0
VERTEX
  5
36C
  8
TEAM-NET
 10
-47.02777
 20
-202.5
 30
770.792265
 70
    64
  0
VERTEX
  5
36D
  8
TEAM-NET
 10
-46.848815
 20
-190.516085
 30
771.283939
 70
    64
  0
VERTEX
  5
36E
  8
TEAM-NET
 10
-46.313312
 20
-178.623376
 30
772.75522
 70
    64
  0
VERTEX
  5
36F
  8
TEAM-NET
 10
-45.425337
 20
-166.912381
 30
775.194911
 70
    64
  0
VERTEX
  5
370
  8
TEAM-NET
 10
-44.191648
 20
-155.47223
 30
778.584445
 70
    64
  0
VERTEX
  5
371
  8
TEAM-NET
 10
-42.621634
 20
-144.389989
 30
782.898023
 70
    64
  0
VERTEX
  5
372
  8
TEAM-NET
 10
-40.727243
 20
-133.75
 30
788.102819
 70
    64
  0
VERTEX
  5
373
  8
TEAM-NET
 10
-38.522894
 20
-123.63324
 30
794.159219
 70
    64
  0
VERTEX
  5
374
  8
TEAM-NET
 10
-36.025362
 20
-114.116704
 30
801.021132
 70
    64
  0
VERTEX
  5
375
  8
TEAM-NET
 10
-33.253655
 20
-105.272818
 30
808.636334
 70
    64
  0
VERTEX
  5
376
  8
TEAM-NET
 10
-30.228868
 20
-97.168889
 30
816.946869
 70
    64
  0
VERTEX
  5
377
  8
TEAM-NET
 10
-26.974021
 20
-89.866594
 30
825.889488
 70
    64
  0
VERTEX
  5
378
  8
TEAM-NET
 10
-23.513885
 20
-83.421507
 30
835.396132
 70
    64
  0
VERTEX
  5
379
  8
TEAM-NET
 10
-19.874794
 20
-77.882679
 30
845.394451
 70
    64
  0
VERTEX
  5
37A
  8
TEAM-NET
 10
-16.084445
 20
-73.292265
 30
855.808352
 70
    64
  0
VERTEX
  5
37B
  8
TEAM-NET
 10
-12.171682
 20
-69.685199
 30
866.558577
 70
    64
  0
VERTEX
  5
37C
  8
TEAM-NET
 10
-8.166287
 20
-67.088934
 30
877.563312
 70
    64
  0
VERTEX
  5
37D
  8
TEAM-NET
 10
-4.09874
 20
-65.523229
 30
888.738804
 70
    64
  0
VERTEX
  5
37E
  8
TEAM-NET
 10
0.0
 20
-65.0
 30
900.0
 70
    64
  0
VERTEX
  5
37F
  8
TEAM-NET
 10
0.0
 20
-340.0
 30
900.0
 70
    64
  0
VERTEX
  5
380
  8
TEAM-NET
 10
-5.064621
 20
-339.476771
 30
889.138885
 70
    64
  0
VERTEX
  5
381
  8
TEAM-NET
 10
-10.090698
 20
-337.911066
 30
878.360429
 70
    64
  0
VERTEX
  5
382
  8
TEAM-NET
 10
-15.039978
 20
-335.314801
 30
867.746664
 70
    64
  0
VERTEX
  5
383
  8
TEAM-NET
 10
-19.874794
 20
-331.707735
 30
857.378366
 70
    64
  0
VERTEX
  5
384
  8
TEAM-NET
 10
-24.558352
 20
-327.117321
 30
847.334445
 70
    64
  0
VERTEX
  5
385
  8
TEAM-NET
 10
-29.055005
 20
-321.578493
 30
837.69134
 70
    64
  0
VERTEX
  5
386
  8
TEAM-NET
 10
-33.330533
 20
-315.133406
 30
828.522441
 70
    64
  0
VERTEX
  5
387
  8
TEAM-NET
 10
-37.352395
 20
-307.831111
 30
819.89753
 70
    64
  0
VERTEX
  5
388
  8
TEAM-NET
 10
-41.089983
 20
-299.727182
 30
811.882247
 70
    64
  0
VERTEX
  5
389
  8
TEAM-NET
 10
-44.514851
 20
-290.883296
 30
804.537594
 70
    64
  0
VERTEX
  5
38A
  8
TEAM-NET
 10
-47.600934
 20
-281.36676
 30
797.919467
 70
    64
  0
VERTEX
  5
38B
  8
TEAM-NET
 10
-50.324746
 20
-271.25
 30
792.078235
 70
    64
  0
VERTEX
  5
38C
  8
TEAM-NET
 10
-52.665555
 20
-260.610011
 30
787.058352
 70
    64
  0
VERTEX
  5
38D
  8
TEAM-NET
 10
-54.605549
 20
-249.52777
 30
782.898023
 70
    64
  0
VERTEX
  5
38E
  8
TEAM-NET
 10
-56.12996
 20
-238.087619
 30
779.628912
 70
    64
  0
VERTEX
  5
38F
  8
TEAM-NET
 10
-57.227189
 20
-226.376624
 30
777.275896
 70
    64
  0
VERTEX
  5
390
  8
TEAM-NET
 10
-57.888885
 20
-214.483915
 30
775.856886
 70
    64
  0
VERTEX
  5
391
  8
TEAM-NET
 10
-58.110011
 20
-202.5
 30
775.382679
 70
    64
  0
VERTEX
  5
392
  8
TEAM-NET
 10
-57.888885
 20
-190.516085
 30
775.856886
 70
    64
  0
VERTEX
  5
393
  8
TEAM-NET
 10
-57.227189
 20
-178.623376
 30
777.275896
 70
    64
  0
VERTEX
  5
394
  8
TEAM-NET
 10
-56.12996
 20
-166.912381
 30
779.628912
 70
    64
  0
VERTEX
  5
395
  8
TEAM-NET
 10
-54.605549
 20
-155.47223
 30
782.898023
 70
    64
  0
VERTEX
  5
396
  8
TEAM-NET
 10
-52.665555
 20
-144.389989
 30
787.058352
 70
    64
  0
VERTEX
  5
397
  8
TEAM-NET
 10
-50.324746
 20
-133.75
 30
792.078235
 70
    64
  0
VERTEX
  5
398
  8
TEAM-NET
 10
-47.600934
 20
-123.63324
 30
797.919467
 70
    64
  0
VERTEX
  5
399
  8
TEAM-NET
 10
-44.514851
 20
-114.116704
 30
804.537594
 70
    64
  0
VERTEX
  5
39A
  8
TEAM-NET
 10
-41.089983
 20
-105.272818
 30
811.882247
 70
    64
  0
VERTEX
  5
39B
  8
TEAM-NET
 10
-37.352395
 20
-97.168889
 30
819.89753
 70
    64
  0
VERTEX
  5
39C
  8
TEAM-NET
 10
-33.330533
 20
-89.866594
 30
828.522441
 70
    64
  0
VERTEX
  5
39D
  8
TEAM-NET
 10
-29.055005
 20
-83.421507
 30
837.69134
 70
    64
  0
VERTEX
  5
39E
  8
TEAM-NET
 10
-24.558352
 20
-77.882679
 30
847.334445
 70
    64
  0
VERTEX
  5
39F
  8
TEAM-NET
 10
-19.874794
 20
-73.292265
 30
857.378366
 70
    64
  0
VERTEX
  5
3A0
  8
TEAM-NET
 10
-15.039978
 20
-69.685199
 30
867.746664
 70
    64
  0
VERTEX
  5
3A1
  8
TEAM-NET
 10
-10.090698
 20
-67.088934
 30
878.360429
 70
    64
  0
VERTEX
  5
3A2
  8
TEAM-NET
 10
-5.064621
 20
-65.523229
 30
889.138885
 70
    64
  0
VERTEX
  5
3A3
  8
TEAM-NET
 10
0.0
 20
-65.0
 30
900.0
 70
    64
  0
VERTEX
  5
3A4
  8
TEAM-NET
 10
0.0
 20
-340.0
 30
900.0
 70
    64
  0
VERTEX
  5
3A5
  8
TEAM-NET
 10
-5.991957
 20
-339.476771
 30
889.621625
 70
    64
  0
VERTEX
  5
3A6
  8
TEAM-NET
 10
-11.938312
 20
-337.911066
 30
879.322237
 70
    64
  0
VERTEX
  5
3A7
  8
TEAM-NET
 10
-17.793809
 20
-335.314801
 30
869.180218
 70
    64
  0
VERTEX
  5
3A8
  8
TEAM-NET
 10
-23.513885
 20
-331.707735
 30
859.272757
 70
    64
  0
VERTEX
  5
3A9
  8
TEAM-NET
 10
-29.055005
 20
-327.117321
 30
849.675254
 70
    64
  0
VERTEX
  5
3AA
  8
TEAM-NET
 10
-34.375
 20
-321.578493
 30
840.460753
 70
    64
  0
VERTEX
  5
3AB
  8
TEAM-NET
 10
-39.43338
 20
-315.133406
 30
831.699382
 70
    64
  0
VERTEX
  5
3AC
  8
TEAM-NET
 10
-44.191648
 20
-307.831111
 30
823.45782
 70
    64
  0
VERTEX
  5
3AD
  8
TEAM-NET
 10
-48.613591
 20
-299.727182
 30
815.79879
 70
    64
  0
VERTEX
  5
3AE
  8
TEAM-NET
 10
-52.665555
 20
-290.883296
 30
808.780582
 70
    64
  0
VERTEX
  5
3AF
  8
TEAM-NET
 10
-56.316703
 20
-281.36676
 30
802.456609
 70
    64
  0
VERTEX
  5
3B0
  8
TEAM-NET
 10
-59.539247
 20
-271.25
 30
796.875
 70
    64
  0
VERTEX
  5
3B1
  8
TEAM-NET
 10
-62.30866
 20
-260.610011
 30
792.078235
 70
    64
  0
VERTEX
  5
3B2
  8
TEAM-NET
 10
-64.603868
 20
-249.52777
 30
788.102819
 70
    64
  0
VERTEX
  5
3B3
  8
TEAM-NET
 10
-66.407401
 20
-238.087619
 30
784.979008
 70
    64
  0
VERTEX
  5
3B4
  8
TEAM-NET
 10
-67.705533
 20
-226.376624
 30
782.730577
 70
    64
  0
VERTEX
  5
3B5
  8
TEAM-NET
 10
-68.488385
 20
-214.483915
 30
781.374637
 70
    64
  0
VERTEX
  5
3B6
  8
TEAM-NET
 10
-68.75
 20
-202.5
 30
780.921507
 70
    64
  0
VERTEX
  5
3B7
  8
TEAM-NET
 10
-68.488385
 20
-190.516085
 30
781.374637
 70
    64
  0
VERTEX
  5
3B8
  8
TEAM-NET
 10
-67.705533
 20
-178.623376
 30
782.730577
 70
    64
  0
VERTEX
  5
3B9
  8
TEAM-NET
 10
-66.407401
 20
-166.912381
 30
784.979008
 70
    64
  0
VERTEX
  5
3BA
  8
TEAM-NET
 10
-64.603868
 20
-155.47223
 30
788.102819
 70
    64
  0
VERTEX
  5
3BB
  8
TEAM-NET
 10
-62.30866
 20
-144.389989
 30
792.078235
 70
    64
  0
VERTEX
  5
3BC
  8
TEAM-NET
 10
-59.539247
 20
-133.75
 30
796.875
 70
    64
  0
VERTEX
  5
3BD
  8
TEAM-NET
 10
-56.316703
 20
-123.63324
 30
802.456609
 70
    64
  0
VERTEX
  5
3BE
  8
TEAM-NET
 10
-52.665555
 20
-114.116704
 30
808.780582
 70
    64
  0
VERTEX
  5
3BF
  8
TEAM-NET
 10
-48.613591
 20
-105.272818
 30
815.79879
 70
    64
  0
VERTEX
  5
3C0
  8
TEAM-NET
 10
-44.191648
 20
-97.168889
 30
823.45782
 70
    64
  0
VERTEX
  5
3C1
  8
TEAM-NET
 10
-39.43338
 20
-89.866594
 30
831.699382
 70
    64
  0
VERTEX
  5
3C2
  8
TEAM-NET
 10
-34.375
 20
-83.421507
 30
840.460753
 70
    64
  0
VERTEX
  5
3C3
  8
TEAM-NET
 10
-29.055005
 20
-77.882679
 30
849.675254
 70
    64
  0
VERTEX
  5
3C4
  8
TEAM-NET
 10
-23.513885
 20
-73.292265
 30
859.272757
 70
    64
  0
VERTEX
  5
3C5
  8
TEAM-NET
 10
-17.793809
 20
-69.685199
 30
869.180218
 70
    64
  0
VERTEX
  5
3C6
  8
TEAM-NET
 10
-11.938312
 20
-67.088934
 30
879.322237
 70
    64
  0
VERTEX
  5
3C7
  8
TEAM-NET
 10
-5.991957
 20
-65.523229
 30
889.621625
 70
    64
  0
VERTEX
  5
3C8
  8
TEAM-NET
 10
0.0
 20
-65.0
 30
900.0
 70
    64
  0
VERTEX
  5
3C9
  8
TEAM-NET
 10
0.0
 20
-340.0
 30
900.0
 70
    64
  0
VERTEX
  5
3CA
  8
TEAM-NET
 10
-6.873691
 20
-339.476771
 30
890.183352
 70
    64
  0
VERTEX
  5
3CB
  8
TEAM-NET
 10
-13.695069
 20
-337.911066
 30
880.441414
 70
    64
  0
VERTEX
  5
3CC
  8
TEAM-NET
 10
-20.41222
 20
-335.314801
 30
870.848329
 70
    64
  0
VERTEX
  5
3CD
  8
TEAM-NET
 10
-26.974021
 20
-331.707735
 30
861.477106
 70
    64
  0
VERTEX
  5
3CE
  8
TEAM-NET
 10
-33.330533
 20
-327.117321
 30
852.399066
 70
    64
  0
VERTEX
  5
3CF
  8
TEAM-NET
 10
-39.43338
 20
-321.578493
 30
843.683297
 70
    64
  0
VERTEX
  5
3D0
  8
TEAM-NET
 10
-45.236115
 20
-315.133406
 30
835.396132
 70
    64
  0
VERTEX
  5
3D1
  8
TEAM-NET
 10
-50.694576
 20
-307.831111
 30
827.600642
 70
    64
  0
VERTEX
  5
3D2
  8
TEAM-NET
 10
-55.767221
 20
-299.727182
 30
820.356155
 70
    64
  0
VERTEX
  5
3D3
  8
TEAM-NET
 10
-60.415443
 20
-290.883296
 30
813.717805
 70
    64
  0
VERTEX
  5
3D4
  8
TEAM-NET
 10
-64.603868
 20
-281.36676
 30
807.736115
 70
    64
  0
VERTEX
  5
3D5
  8
TEAM-NET
 10
-68.300618
 20
-271.25
 30
802.456609
 70
    64
  0
VERTEX
  5
3D6
  8
TEAM-NET
 10
-71.477559
 20
-260.610011
 30
797.919467
 70
    64
  0
VERTEX
  5
3D7
  8
TEAM-NET
 10
-74.110512
 20
-249.52777
 30
794.159219
 70
    64
  0
VERTEX
  5
3D8
  8
TEAM-NET
 10
-76.17944
 20
-238.087619
 30
791.204484
 70
    64
  0
VERTEX
  5
3D9
  8
TEAM-NET
 10
-77.668597
 20
-226.376624
 30
789.077748
 70
    64
  0
VERTEX
  5
3DA
  8
TEAM-NET
 10
-78.566648
 20
-214.483915
 30
787.795198
 70
    64
  0
VERTEX
  5
3DB
  8
TEAM-NET
 10
-78.86676
 20
-202.5
 30
787.366594
 70
    64
  0
VERTEX
  5
3DC
  8
TEAM-NET
 10
-78.566648
 20
-190.516085
 30
787.795198
 70
    64
  0
VERTEX
  5
3DD
  8
TEAM-NET
 10
-77.668597
 20
-178.623376
 30
789.077748
 70
    64
  0
VERTEX
  5
3DE
  8
TEAM-NET
 10
-76.17944
 20
-166.912381
 30
791.204484
 70
    64
  0
VERTEX
  5
3DF
  8
TEAM-NET
 10
-74.110512
 20
-155.47223
 30
794.159219
 70
    64
  0
VERTEX
  5
3E0
  8
TEAM-NET
 10
-71.477559
 20
-144.389989
 30
797.919467
 70
    64
  0
VERTEX
  5
3E1
  8
TEAM-NET
 10
-68.300618
 20
-133.75
 30
802.456609
 70
    64
  0
VERTEX
  5
3E2
  8
TEAM-NET
 10
-64.603868
 20
-123.63324
 30
807.736115
 70
    64
  0
VERTEX
  5
3E3
  8
TEAM-NET
 10
-60.415443
 20
-114.116704
 30
813.717805
 70
    64
  0
VERTEX
  5
3E4
  8
TEAM-NET
 10
-55.767221
 20
-105.272818
 30
820.356155
 70
    64
  0
VERTEX
  5
3E5
  8
TEAM-NET
 10
-50.694576
 20
-97.168889
 30
827.600642
 70
    64
  0
VERTEX
  5
3E6
  8
TEAM-NET
 10
-45.236115
 20
-89.866594
 30
835.396132
 70
    64
  0
VERTEX
  5
3E7
  8
TEAM-NET
 10
-39.43338
 20
-83.421507
 30
843.683297
 70
    64
  0
VERTEX
  5
3E8
  8
TEAM-NET
 10
-33.330533
 20
-77.882679
 30
852.399066
 70
    64
  0
VERTEX
  5
3E9
  8
TEAM-NET
 10
-26.974021
 20
-73.292265
 30
861.477106
 70
    64
  0
VERTEX
  5
3EA
  8
TEAM-NET
 10
-20.41222
 20
-69.685199
 30
870.848329
 70
    64
  0
VERTEX
  5
3EB
  8
TEAM-NET
 10
-13.695069
 20
-67.088934
 30
880.441414
 70
    64
  0
VERTEX
  5
3EC
  8
TEAM-NET
 10
-6.873691
 20
-65.523229
 30
890.183352
 70
    64
  0
VERTEX
  5
3ED
  8
TEAM-NET
 10
0.0
 20
-65.0
 30
900.0
 70
    64
  0
VERTEX
  5
3EE
  8
TEAM-NET
 10
0.0
 20
-340.0
 30
900.0
 70
    64
  0
VERTEX
  5
3EF
  8
TEAM-NET
 10
-7.703112
 20
-339.476771
 30
890.819789
 70
    64
  0
VERTEX
  5
3F0
  8
TEAM-NET
 10
-15.347598
 20
-337.911066
 30
881.709445
 70
    64
  0
VERTEX
  5
3F1
  8
TEAM-NET
 10
-22.87528
 20
-335.314801
 30
872.738302
 70
    64
  0
VERTEX
  5
3F2
  8
TEAM-NET
 10
-30.228868
 20
-331.707735
 30
863.974638
 70
    64
  0
VERTEX
  5
3F3
  8
TEAM-NET
 10
-37.352395
 20
-327.117321
 30
855.485149
 70
    64
  0
VERTEX
  5
3F4
  8
TEAM-NET
 10
-44.191648
 20
-321.578493
 30
847.334445
 70
    64
  0
VERTEX
  5
3F5
  8
TEAM-NET
 10
-50.694576
 20
-315.133406
 30
839.584557
 70
    64
  0
VERTEX
  5
3F6
  8
TEAM-NET
 10
-56.811688
 20
-307.831111
 30
832.294467
 70
    64
  0
VERTEX
  5
3F7
  8
TEAM-NET
 10
-62.496428
 20
-299.727182
 30
825.519657
 70
    64
  0
VERTEX
  5
3F8
  8
TEAM-NET
 10
-67.705533
 20
-290.883296
 30
819.311688
 70
    64
  0
VERTEX
  5
3F9
  8
TEAM-NET
 10
-72.399358
 20
-281.36676
 30
813.717805
 70
    64
  0
VERTEX
  5
3FA
  8
TEAM-NET
 10
-76.54218
 20
-271.25
 30
808.780582
 70
    64
  0
VERTEX
  5
3FB
  8
TEAM-NET
 10
-80.10247
 20
-260.610011
 30
804.537594
 70
    64
  0
VERTEX
  5
3FC
  8
TEAM-NET
 10
-83.053131
 20
-249.52777
 30
801.021132
 70
    64
  0
VERTEX
  5
3FD
  8
TEAM-NET
 10
-85.371709
 20
-238.087619
 30
798.25796
 70
    64
  0
VERTEX
  5
3FE
  8
TEAM-NET
 10
-87.040555
 20
-226.376624
 30
796.269105
 70
    64
  0
VERTEX
  5
3FF
  8
TEAM-NET
 10
-88.046971
 20
-214.483915
 30
795.069706
 70
    64
  0
VERTEX
  5
400
  8
TEAM-NET
 10
-88.383296
 20
-202.5
 30
794.668889
 70
    64
  0
VERTEX
  5
401
  8
TEAM-NET
 10
-88.046971
 20
-190.516085
 30
795.069706
 70
    64
  0
VERTEX
  5
402
  8
TEAM-NET
 10
-87.040555
 20
-178.623376
 30
796.269105
 70
    64
  0
VERTEX
  5
403
  8
TEAM-NET
 10
-85.371709
 20
-166.912381
 30
798.25796
 70
    64
  0
VERTEX
  5
404
  8
TEAM-NET
 10
-83.053131
 20
-155.47223
 30
801.021132
 70
    64
  0
VERTEX
  5
405
  8
TEAM-NET
 10
-80.10247
 20
-144.389989
 30
804.537594
 70
    64
  0
VERTEX
  5
406
  8
TEAM-NET
 10
-76.54218
 20
-133.75
 30
808.780582
 70
    64
  0
VERTEX
  5
407
  8
TEAM-NET
 10
-72.399358
 20
-123.63324
 30
813.717805
 70
    64
  0
VERTEX
  5
408
  8
TEAM-NET
 10
-67.705533
 20
-114.116704
 30
819.311688
 70
    64
  0
VERTEX
  5
409
  8
TEAM-NET
 10
-62.496428
 20
-105.272818
 30
825.519657
 70
    64
  0
VERTEX
  5
40A
  8
TEAM-NET
 10
-56.811688
 20
-97.168889
 30
832.294467
 70
    64
  0
VERTEX
  5
40B
  8
TEAM-NET
 10
-50.694576
 20
-89.866594
 30
839.584557
 70
    64
  0
VERTEX
  5
40C
  8
TEAM-NET
 10
-44.191648
 20
-83.421507
 30
847.334445
 70
    64
  0
VERTEX
  5
40D
  8
TEAM-NET
 10
-37.352395
 20
-77.882679
 30
855.485149
 70
    64
  0
VERTEX
  5
40E
  8
TEAM-NET
 10
-30.228868
 20
-73.292265
 30
863.974638
 70
    64
  0
VERTEX
  5
40F
  8
TEAM-NET
 10
-22.87528
 20
-69.685199
 30
872.738302
 70
    64
  0
VERTEX
  5
410
  8
TEAM-NET
 10
-15.347598
 20
-67.088934
 30
881.709445
 70
    64
  0
VERTEX
  5
411
  8
TEAM-NET
 10
-7.703112
 20
-65.523229
 30
890.819789
 70
    64
  0
VERTEX
  5
412
  8
TEAM-NET
 10
0.0
 20
-65.0
 30
900.0
 70
    64
  0
VERTEX
  5
413
  8
TEAM-NET
 10
0.0
 20
-340.0
 30
900.0
 70
    64
  0
VERTEX
  5
414
  8
TEAM-NET
 10
-8.473907
 20
-339.476771
 30
891.526093
 70
    64
  0
VERTEX
  5
415
  8
TEAM-NET
 10
-16.883323
 20
-337.911066
 30
883.116677
 70
    64
  0
VERTEX
  5
416
  8
TEAM-NET
 10
-25.164247
 20
-335.314801
 30
874.835753
 70
    64
  0
VERTEX
  5
417
  8
TEAM-NET
 10
-33.253655
 20
-331.707735
 30
866.746345
 70
    64
  0
VERTEX
  5
418
  8
TEAM-NET
 10
-41.089983
 20
-327.117321
 30
858.910017
 70
    64
  0
VERTEX
  5
419
  8
TEAM-NET
 10
-48.613591
 20
-321.578493
 30
851.386409
 70
    64
  0
VERTEX
  5
41A
  8
TEAM-NET
 10
-55.767221
 20
-315.133406
 30
844.232779
 70
    64
  0
VERTEX
  5
41B
  8
TEAM-NET
 10
-62.496428
 20
-307.831111
 30
837.503572
 70
    64
  0
VERTEX
  5
41C
  8
TEAM-NET
 10
-68.75
 20
-299.727182
 30
831.25
 70
    64
  0
VERTEX
  5
41D
  8
TEAM-NET
 10
-74.480343
 20
-290.883296
 30
825.519657
 70
    64
  0
VERTEX
  5
41E
  8
TEAM-NET
 10
-79.643845
 20
-281.36676
 30
820.356155
 70
    64
  0
VERTEX
  5
41F
  8
TEAM-NET
 10
-84.20121
 20
-271.25
 30
815.79879
 70
    64
  0
VERTEX
  5
420
  8
TEAM-NET
 10
-88.117753
 20
-260.610011
 30
811.882247
 70
    64
  0
VERTEX
  5
421
  8
TEAM-NET
 10
-91.363666
 20
-249.52777
 30
808.636334
 70
    64
  0
VERTEX
  5
422
  8
TEAM-NET
 10
-93.914247
 20
-238.087619
 30
806.085753
 70
    64
  0
VERTEX
  5
423
  8
TEAM-NET
 10
-95.750083
 20
-226.376624
 30
804.249917
 70
    64
  0
VERTEX
  5
424
  8
TEAM-NET
 10
-96.857204
 20
-214.483915
 30
803.142796
 70
    64
  0
VERTEX
  5
425
  8
TEAM-NET
 10
-97.227182
 20
-202.5
 30
802.772818
 70
    64
  0
VERTEX
  5
426
  8
TEAM-NET
 10
-96.857204
 20
-190.516085
 30
803.142796
 70
    64
  0
VERTEX
  5
427
  8
TEAM-NET
 10
-95.750083
 20
-178.623376
 30
804.249917
 70
    64
  0
VERTEX
  5
428
  8
TEAM-NET
 10
-93.914247
 20
-166.912381
 30
806.085753
 70
    64
  0
VERTEX
  5
429
  8
TEAM-NET
 10
-91.363666
 20
-155.47223
 30
808.636334
 70
    64
  0
VERTEX
  5
42A
  8
TEAM-NET
 10
-88.117753
 20
-144.389989
 30
811.882247
 70
    64
  0
VERTEX
  5
42B
  8
TEAM-NET
 10
-84.20121
 20
-133.75
 30
815.79879
 70
    64
  0
VERTEX
  5
42C
  8
TEAM-NET
 10
-79.643845
 20
-123.63324
 30
820.356155
 70
    64
  0
VERTEX
  5
42D
  8
TEAM-NET
 10
-74.480343
 20
-114.116704
 30
825.519657
 70
    64
  0
VERTEX
  5
42E
  8
TEAM-NET
 10
-68.75
 20
-105.272818
 30
831.25
 70
    64
  0
VERTEX
  5
42F
  8
TEAM-NET
 10
-62.496428
 20
-97.168889
 30
837.503572
 70
    64
  0
VERTEX
  5
430
  8
TEAM-NET
 10
-55.767221
 20
-89.866594
 30
844.232779
 70
    64
  0
VERTEX
  5
431
  8
TEAM-NET
 10
-48.613591
 20
-83.421507
 30
851.386409
 70
    64
  0
VERTEX
  5
432
  8
TEAM-NET
 10
-41.089983
 20
-77.882679
 30
858.910017
 70
    64
  0
VERTEX
  5
433
  8
TEAM-NET
 10
-33.253655
 20
-73.292265
 30
866.746345
 70
    64
  0
VERTEX
  5
434
  8
TEAM-NET
 10
-25.164247
 20
-69.685199
 30
874.835753
 70
    64
  0
VERTEX
  5
435
  8
TEAM-NET
 10
-16.883323
 20
-67.088934
 30
883.116677
 70
    64
  0
VERTEX
  5
436
  8
TEAM-NET
 10
-8.473907
 20
-65.523229
 30
891.526093
 70
    64
  0
VERTEX
  5
437
  8
TEAM-NET
 10
0.0
 20
-65.0
 30
900.0
 70
    64
  0
VERTEX
  5
438
  8
TEAM-NET
 10
0.0
 20
-340.0
 30
900.0
 70
    64
  0
VERTEX
  5
439
  8
TEAM-NET
 10
-9.180211
 20
-339.476771
 30
892.296888
 70
    64
  0
VERTEX
  5
43A
  8
TEAM-NET
 10
-18.290555
 20
-337.911066
 30
884.652402
 70
    64
  0
VERTEX
  5
43B
  8
TEAM-NET
 10
-27.261698
 20
-335.314801
 30
877.12472
 70
    64
  0
VERTEX
  5
43C
  8
TEAM-NET
 10
-36.025362
 20
-331.707735
 30
869.771132
 70
    64
  0
VERTEX
  5
43D
  8
TEAM-NET
 10
-44.514851
 20
-327.117321
 30
862.647605
 70
    64
  0
VERTEX
  5
43E
  8
TEAM-NET
 10
-52.665555
 20
-321.578493
 30
855.808352
 70
    64
  0
VERTEX
  5
43F
  8
TEAM-NET
 10
-60.415443
 20
-315.133406
 30
849.305424
 70
    64
  0
VERTEX
  5
440
  8
TEAM-NET
 10
-67.705533
 20
-307.831111
 30
843.188312
 70
    64
  0
VERTEX
  5
441
  8
TEAM-NET
 10
-74.480343
 20
-299.727182
 30
837.503572
 70
    64
  0
VERTEX
  5
442
  8
TEAM-NET
 10
-80.688312
 20
-290.883296
 30
832.294467
 70
    64
  0
VERTEX
  5
443
  8
TEAM-NET
 10
-86.282195
 20
-281.36676
 30
827.600642
 70
    64
  0
VERTEX
  5
444
  8
TEAM-NET
 10
-91.219418
 20
-271.25
 30
823.45782
 70
    64
  0
VERTEX
  5
445
  8
TEAM-NET
 10
-95.462406
 20
-260.610011
 30
819.89753
 70
    64
  0
VERTEX
  5
446
  8
TEAM-NET
 10
-98.978868
 20
-249.52777
 30
816.946869
 70
    64
  0
VERTEX
  5
447
  8
TEAM-NET
 10
-101.74204
 20
-238.087619
 30
814.628291
 70
    64
  0
VERTEX
  5
448
  8
TEAM-NET
 10
-103.730895
 20
-226.376624
 30
812.959445
 70
    64
  0
VERTEX
  5
449
  8
TEAM-NET
 10
-104.930294
 20
-214.483915
 30
811.953029
 70
    64
  0
VERTEX
  5
44A
  8
TEAM-NET
 10
-105.331111
 20
-202.5
 30
811.616704
 70
    64
  0
VERTEX
  5
44B
  8
TEAM-NET
 10
-104.930294
 20
-190.516085
 30
811.953029
 70
    64
  0
VERTEX
  5
44C
  8
TEAM-NET
 10
-103.730895
 20
-178.623376
 30
812.959445
 70
    64
  0
VERTEX
  5
44D
  8
TEAM-NET
 10
-101.74204
 20
-166.912381
 30
814.628291
 70
    64
  0
VERTEX
  5
44E
  8
TEAM-NET
 10
-98.978868
 20
-155.47223
 30
816.946869
 70
    64
  0
VERTEX
  5
44F
  8
TEAM-NET
 10
-95.462406
 20
-144.389989
 30
819.89753
 70
    64
  0
VERTEX
  5
450
  8
TEAM-NET
 10
-91.219418
 20
-133.75
 30
823.45782
 70
    64
  0
VERTEX
  5
451
  8
TEAM-NET
 10
-86.282195
 20
-123.63324
 30
827.600642
 70
    64
  0
VERTEX
  5
452
  8
TEAM-NET
 10
-80.688312
 20
-114.116704
 30
832.294467
 70
    64
  0
VERTEX
  5
453
  8
TEAM-NET
 10
-74.480343
 20
-105.272818
 30
837.503572
 70
    64
  0
VERTEX
  5
454
  8
TEAM-NET
 10
-67.705533
 20
-97.168889
 30
843.188312
 70
    64
  0
VERTEX
  5
455
  8
TEAM-NET
 10
-60.415443
 20
-89.866594
 30
849.305424
 70
    64
  0
VERTEX
  5
456
  8
TEAM-NET
 10
-52.665555
 20
-83.421507
 30
855.808352
 70
    64
  0
VERTEX
  5
457
  8
TEAM-NET
 10
-44.514851
 20
-77.882679
 30
862.647605
 70
    64
  0
VERTEX
  5
458
  8
TEAM-NET
 10
-36.025362
 20
-73.292265
 30
869.771132
 70
    64
  0
VERTEX
  5
459
  8
TEAM-NET
 10
-27.261698
 20
-69.685199
 30
877.12472
 70
    64
  0
VERTEX
  5
45A
  8
TEAM-NET
 10
-18.290555
 20
-67.088934
 30
884.652402
 70
    64
  0
VERTEX
  5
45B
  8
TEAM-NET
 10
-9.180211
 20
-65.523229
 30
892.296888
 70
    64
  0
VERTEX
  5
45C
  8
TEAM-NET
 10
0.0
 20
-65.0
 30
900.0
 70
    64
  0
VERTEX
  5
45D
  8
TEAM-NET
 10
0.0
 20
-340.0
 30
900.0
 70
    64
  0
VERTEX
  5
45E
  8
TEAM-NET
 10
-9.816648
 20
-339.476771
 30
893.126309
 70
    64
  0
VERTEX
  5
45F
  8
TEAM-NET
 10
-19.558586
 20
-337.911066
 30
886.304931
 70
    64
  0
VERTEX
  5
460
  8
TEAM-NET
 10
-29.151671
 20
-335.314801
 30
879.58778
 70
    64
  0
VERTEX
  5
461
  8
TEAM-NET
 10
-38.522894
 20
-331.707735
 30
873.025979
 70
    64
  0
VERTEX
  5
462
  8
TEAM-NET
 10
-47.600934
 20
-327.117321
 30
866.669467
 70
    64
  0
VERTEX
  5
463
  8
TEAM-NET
 10
-56.316703
 20
-321.578493
 30
860.56662
 70
    64
  0
VERTEX
  5
464
  8
TEAM-NET
 10
-64.603868
 20
-315.133406
 30
854.763885
 70
    64
  0
VERTEX
  5
465
  8
TEAM-NET
 10
-72.399358
 20
-307.831111
 30
849.305424
 70
    64
  0
VERTEX
  5
466
  8
TEAM-NET
 10
-79.643845
 20
-299.727182
 30
844.232779
 70
    64
  0
VERTEX
  5
467
  8
TEAM-NET
 10
-86.282195
 20
-290.883296
 30
839.584557
 70
    64
  0
VERTEX
  5
468
  8
TEAM-NET
 10
-92.263885
 20
-281.36676
 30
835.396132
 70
    64
  0
VERTEX
  5
469
  8
TEAM-NET
 10
-97.543391
 20
-271.25
 30
831.699382
 70
    64
  0
VERTEX
  5
46A
  8
TEAM-NET
 10
-102.080533
 20
-260.610011
 30
828.522441
 70
    64
  0
VERTEX
  5
46B
  8
TEAM-NET
 10
-105.840781
 20
-249.52777
 30
825.889488
 70
    64
  0
VERTEX
  5
46C
  8
TEAM-NET
 10
-108.795516
 20
-238.087619
 30
823.82056
 70
    64
  0
VERTEX
  5
46D
  8
TEAM-NET
 10
-110.922252
 20
-226.376624
 30
822.331403
 70
    64
  0
VERTEX
  5
46E
  8
TEAM-NET
 10
-112.204802
 20
-214.483915
 30
821.433352
 70
    64
  0
VERTEX
  5
46F
  8
TEAM-NET
 10
-112.633406
 20
-202.5
 30
821.13324
 70
    64
  0
VERTEX
  5
470
  8
TEAM-NET
 10
-112.204802
 20
-190.516085
 30
821.433352
 70
    64
  0
VERTEX
  5
471
  8
TEAM-NET
 10
-110.922252
 20
-178.623376
 30
822.331403
 70
    64
  0
VERTEX
  5
472
  8
TEAM-NET
 10
-108.795516
 20
-166.912381
 30
823.82056
 70
    64
  0
VERTEX
  5
473
  8
TEAM-NET
 10
-105.840781
 20
-155.47223
 30
825.889488
 70
    64
  0
VERTEX
  5
474
  8
TEAM-NET
 10
-102.080533
 20
-144.389989
 30
828.522441
 70
    64
  0
VERTEX
  5
475
  8
TEAM-NET
 10
-97.543391
 20
-133.75
 30
831.699382
 70
    64
  0
VERTEX
  5
476
  8
TEAM-NET
 10
-92.263885
 20
-123.63324
 30
835.396132
 70
    64
  0
VERTEX
  5
477
  8
TEAM-NET
 10
-86.282195
 20
-114.116704
 30
839.584557
 70
    64
  0
VERTEX
  5
478
  8
TEAM-NET
 10
-79.643845
 20
-105.272818
 30
844.232779
 70
    64
  0
VERTEX
  5
479
  8
TEAM-NET
 10
-72.399358
 20
-97.168889
 30
849.305424
 70
    64
  0
VERTEX
  5
47A
  8
TEAM-NET
 10
-64.603868
 20
-89.866594
 30
854.763885
 70
    64
  0
VERTEX
  5
47B
  8
TEAM-NET
 10
-56.316703
 20
-83.421507
 30
860.56662
 70
    64
  0
VERTEX
  5
47C
  8
TEAM-NET
 10
-47.600934
 20
-77.882679
 30
866.669467
 70
    64
  0
VERTEX
  5
47D
  8
TEAM-NET
 10
-38.522894
 20
-73.292265
 30
873.025979
 70
    64
  0
VERTEX
  5
47E
  8
TEAM-NET
 10
-29.151671
 20
-69.685199
 30
879.58778
 70
    64
  0
VERTEX
  5
47F
  8
TEAM-NET
 10
-19.558586
 20
-67.088934
 30
886.304931
 70
    64
  0
VERTEX
  5
480
  8
TEAM-NET
 10
-9.816648
 20
-65.523229
 30
893.126309
 70
    64
  0
VERTEX
  5
481
  8
TEAM-NET
 10
0.0
 20
-65.0
 30
900.0
 70
    64
  0
VERTEX
  5
482
  8
TEAM-NET
 10
0.0
 20
-340.0
 30
900.0
 70
    64
  0
VERTEX
  5
483
  8
TEAM-NET
 10
-10.378375
 20
-339.476771
 30
894.008043
 70
    64
  0
VERTEX
  5
484
  8
TEAM-NET
 10
-20.677763
 20
-337.911066
 30
888.061688
 70
    64
  0
VERTEX
  5
485
  8
TEAM-NET
 10
-30.819782
 20
-335.314801
 30
882.206191
 70
    64
  0
VERTEX
  5
486
  8
TEAM-NET
 10
-40.727243
 20
-331.707735
 30
876.486115
 70
    64
  0
VERTEX
  5
487
  8
TEAM-NET
 10
-50.324746
 20
-327.117321
 30
870.944995
 70
    64
  0
VERTEX
  5
488
  8
TEAM-NET
 10
-59.539247
 20
-321.578493
 30
865.625
 70
    64
  0
VERTEX
  5
489
  8
TEAM-NET
 10
-68.300618
 20
-315.133406
 30
860.56662
 70
    64
  0
VERTEX
  5
48A
  8
TEAM-NET
 10
-76.54218
 20
-307.831111
 30
855.808352
 70
    64
  0
VERTEX
  5
48B
  8
TEAM-NET
 10
-84.20121
 20
-299.727182
 30
851.386409
 70
    64
  0
VERTEX
  5
48C
  8
TEAM-NET
 10
-91.219418
 20
-290.883296
 30
847.334445
 70
    64
  0
VERTEX
  5
48D
  8
TEAM-NET
 10
-97.543391
 20
-281.36676
 30
843.683297
 70
    64
  0
VERTEX
  5
48E
  8
TEAM-NET
 10
-103.125
 20
-271.25
 30
840.460753
 70
    64
  0
VERTEX
  5
48F
  8
TEAM-NET
 10
-107.921765
 20
-260.610011
 30
837.69134
 70
    64
  0
VERTEX
  5
490
  8
TEAM-NET
 10
-111.897181
 20
-249.52777
 30
835.396132
 70
    64
  0
VERTEX
  5
491
  8
TEAM-NET
 10
-115.020992
 20
-238.087619
 30
833.592599
 70
    64
  0
VERTEX
  5
492
  8
TEAM-NET
 10
-117.269423
 20
-226.376624
 30
832.294467
 70
    64
  0
VERTEX
  5
493
  8
TEAM-NET
 10
-118.625363
 20
-214.483915
 30
831.511615
 70
    64
  0
VERTEX
  5
494
  8
TEAM-NET
 10
-119.078493
 20
-202.5
 30
831.25
 70
    64
  0
VERTEX
  5
495
  8
TEAM-NET
 10
-118.625363
 20
-190.516085
 30
831.511615
 70
    64
  0
VERTEX
  5
496
  8
TEAM-NET
 10
-117.269423
 20
-178.623376
 30
832.294467
 70
    64
  0
VERTEX
  5
497
  8
TEAM-NET
 10
-115.020992
 20
-166.912381
 30
833.592599
 70
    64
  0
VERTEX
  5
498
  8
TEAM-NET
 10
-111.897181
 20
-155.47223
 30
835.396132
 70
    64
  0
VERTEX
  5
499
  8
TEAM-NET
 10
-107.921765
 20
-144.389989
 30
837.69134
 70
    64
  0
VERTEX
  5
49A
  8
TEAM-NET
 10
-103.125
 20
-133.75
 30
840.460753
 70
    64
  0
VERTEX
  5
49B
  8
TEAM-NET
 10
-97.543391
 20
-123.63324
 30
843.683297
 70
    64
  0
VERTEX
  5
49C
  8
TEAM-NET
 10
-91.219418
 20
-114.116704
 30
847.334445
 70
    64
  0
VERTEX
  5
49D
  8
TEAM-NET
 10
-84.20121
 20
-105.272818
 30
851.386409
 70
    64
  0
VERTEX
  5
49E
  8
TEAM-NET
 10
-76.54218
 20
-97.168889
 30
855.808352
 70
    64
  0
VERTEX
  5
49F
  8
TEAM-NET
 10
-68.300618
 20
-89.866594
 30
860.56662
 70
    64
  0
VERTEX
  5
4A0
  8
TEAM-NET
 10
-59.539247
 20
-83.421507
 30
865.625
 70
    64
  0
VERTEX
  5
4A1
  8
TEAM-NET
 10
-50.324746
 20
-77.882679
 30
870.944995
 70
    64
  0
VERTEX
  5
4A2
  8
TEAM-NET
 10
-40.727243
 20
-73.292265
 30
876.486115
 70
    64
  0
VERTEX
  5
4A3
  8
TEAM-NET
 10
-30.819782
 20
-69.685199
 30
882.206191
 70
    64
  0
VERTEX
  5
4A4
  8
TEAM-NET
 10
-20.677763
 20
-67.088934
 30
888.061688
 70
    64
  0
VERTEX
  5
4A5
  8
TEAM-NET
 10
-10.378375
 20
-65.523229
 30
894.008043
 70
    64
  0
VERTEX
  5
4A6
  8
TEAM-NET
 10
0.0
 20
-65.0
 30
900.0
 70
    64
  0
VERTEX
  5
4A7
  8
TEAM-NET
 10
0.0
 20
-340.0
 30
900.0
 70
    64
  0
VERTEX
  5
4A8
  8
TEAM-NET
 10
-10.861115
 20
-339.476771
 30
894.935379
 70
    64
  0
VERTEX
  5
4A9
  8
TEAM-NET
 10
-21.639571
 20
-337.911066
 30
889.909302
 70
    64
  0
VERTEX
  5
4AA
  8
TEAM-NET
 10
-32.253336
 20
-335.314801
 30
884.960022
 70
    64
  0
VERTEX
  5
4AB
  8
TEAM-NET
 10
-42.621634
 20
-331.707735
 30
880.125206
 70
    64
  0
VERTEX
  5
4AC
  8
TEAM-NET
 10
-52.665555
 20
-327.117321
 30
875.441648
 70
    64
  0
VERTEX
  5
4AD
  8
TEAM-NET
 10
-62.30866
 20
-321.578493
 30
870.944995
 70
    64
  0
VERTEX
  5
4AE
  8
TEAM-NET
 10
-71.477559
 20
-315.133406
 30
866.669467
 70
    64
  0
VERTEX
  5
4AF
  8
TEAM-NET
 10
-80.10247
 20
-307.831111
 30
862.647605
 70
    64
  0
VERTEX
  5
4B0
  8
TEAM-NET
 10
-88.117753
 20
-299.727182
 30
858.910017
 70
    64
  0
VERTEX
  5
4B1
  8
TEAM-NET
 10
-95.462406
 20
-290.883296
 30
855.485149
 70
    64
  0
VERTEX
  5
4B2
  8
TEAM-NET
 10
-102.080533
 20
-281.36676
 30
852.399066
 70
    64
  0
VERTEX
  5
4B3
  8
TEAM-NET
 10
-107.921765
 20
-271.25
 30
849.675254
 70
    64
  0
VERTEX
  5
4B4
  8
TEAM-NET
 10
-112.941648
 20
-260.610011
 30
847.334445
 70
    64
  0
VERTEX
  5
4B5
  8
TEAM-NET
 10
-117.101977
 20
-249.52777
 30
845.394451
 70
    64
  0
VERTEX
  5
4B6
  8
TEAM-NET
 10
-120.371088
 20
-238.087619
 30
843.87004
 70
    64
  0
VERTEX
  5
4B7
  8
TEAM-NET
 10
-122.724104
 20
-226.376624
 30
842.772811
 70
    64
  0
VERTEX
  5
4B8
  8
TEAM-NET
 10
-124.143114
 20
-214.483915
 30
842.111115
 70
    64
  0
VERTEX
  5
4B9
  8
TEAM-NET
 10
-124.617321
 20
-202.5
 30
841.889989
 70
    64
  0
VERTEX
  5
4BA
  8
TEAM-NET
 10
-124.143114
 20
-190.516085
 30
842.111115
 70
    64
  0
VERTEX
  5
4BB
  8
TEAM-NET
 10
-122.724104
 20
-178.623376
 30
842.772811
 70
    64
  0
VERTEX
  5
4BC
  8
TEAM-NET
 10
-120.371088
 20
-166.912381
 30
843.87004
 70
    64
  0
VERTEX
  5
4BD
  8
TEAM-NET
 10
-117.101977
 20
-155.47223
 30
845.394451
 70
    64
  0
VERTEX
  5
4BE
  8
TEAM-NET
 10
-112.941648
 20
-144.389989
 30
847.334445
 70
    64
  0
VERTEX
  5
4BF
  8
TEAM-NET
 10
-107.921765
 20
-133.75
 30
849.675254
 70
    64
  0
VERTEX
  5
4C0
  8
TEAM-NET
 10
-102.080533
 20
-123.63324
 30
852.399066
 70
    64
  0
VERTEX
  5
4C1
  8
TEAM-NET
 10
-95.462406
 20
-114.116704
 30
855.485149
 70
    64
  0
VERTEX
  5
4C2
  8
TEAM-NET
 10
-88.117753
 20
-105.272818
 30
858.910017
 70
    64
  0
VERTEX
  5
4C3
  8
TEAM-NET
 10
-80.10247
 20
-97.168889
 30
862.647605
 70
    64
  0
VERTEX
  5
4C4
  8
TEAM-NET
 10
-71.477559
 20
-89.866594
 30
866.669467
 70
    64
  0
VERTEX
  5
4C5
  8
TEAM-NET
 10
-62.30866
 20
-83.421507
 30
870.944995
 70
    64
  0
VERTEX
  5
4C6
  8
TEAM-NET
 10
-52.665555
 20
-77.882679
 30
875.441648
 70
    64
  0
VERTEX
  5
4C7
  8
TEAM-NET
 10
-42.621634
 20
-73.292265
 30
880.125206
 70
    64
  0
VERTEX
  5
4C8
  8
TEAM-NET
 10
-32.253336
 20
-69.685199
 30
884.960022
 70
    64
  0
VERTEX
  5
4C9
  8
TEAM-NET
 10
-21.639571
 20
-67.088934
 30
889.909302
 70
    64
  0
VERTEX
  5
4CA
  8
TEAM-NET
 10
-10.861115
 20
-65.523229
 30
894.935379
 70
    64
  0
VERTEX
  5
4CB
  8
TEAM-NET
 10
0.0
 20
-65.0
 30
900.0
 70
    64
  0
VERTEX
  5
4CC
  8
TEAM-NET
 10
0.0
 20
-340.0
 30
900.0
 70
    64
  0
VERTEX
  5
4CD
  8
TEAM-NET
 10
-11.261196
 20
-339.476771
 30
895.90126
 70
    64
  0
VERTEX
  5
4CE
  8
TEAM-NET
 10
-22.436688
 20
-337.911066
 30
891.833713
 70
    64
  0
VERTEX
  5
4CF
  8
TEAM-NET
 10
-33.441423
 20
-335.314801
 30
887.828318
 70
    64
  0
VERTEX
  5
4D0
  8
TEAM-NET
 10
-44.191648
 20
-331.707735
 30
883.915555
 70
    64
  0
VERTEX
  5
4D1
  8
TEAM-NET
 10
-54.605549
 20
-327.117321
 30
880.125206
 70
    64
  0
VERTEX
  5
4D2
  8
TEAM-NET
 10
-64.603868
 20
-321.578493
 30
876.486115
 70
    64
  0
VERTEX
  5
4D3
  8
TEAM-NET
 10
-74.110512
 20
-315.133406
 30
873.025979
 70
    64
  0
VERTEX
  5
4D4
  8
TEAM-NET
 10
-83.053131
 20
-307.831111
 30
869.771132
 70
    64
  0
VERTEX
  5
4D5
  8
TEAM-NET
 10
-91.363666
 20
-299.727182
 30
866.746345
 70
    64
  0
VERTEX
  5
4D6
  8
TEAM-NET
 10
-98.978868
 20
-290.883296
 30
863.974638
 70
    64
  0
VERTEX
  5
4D7
  8
TEAM-NET
 10
-105.840781
 20
-281.36676
 30
861.477106
 70
    64
  0
VERTEX
  5
4D8
  8
TEAM-NET
 10
-111.897181
 20
-271.25
 30
859.272757
 70
    64
  0
VERTEX
  5
4D9
  8
TEAM-NET
 10
-117.101977
 20
-260.610011
 30
857.378366
 70
    64
  0
VERTEX
  5
4DA
  8
TEAM-NET
 10
-121.415555
 20
-249.52777
 30
855.808352
 70
    64
  0
VERTEX
  5
4DB
  8
TEAM-NET
 10
-124.805089
 20
-238.087619
 30
854.574663
 70
    64
  0
VERTEX
  5
4DC
  8
TEAM-NET
 10
-127.24478
 20
-226.376624
 30
853.686688
 70
    64
  0
VERTEX
  5
4DD
  8
TEAM-NET
 10
-128.716061
 20
-214.483915
 30
853.151185
 70
    64
  0
VERTEX
  5
4DE
  8
TEAM-NET
 10
-129.207735
 20
-202.5
 30
852.97223
 70
    64
  0
VERTEX
  5
4DF
  8
TEAM-NET
 10
-128.716061
 20
-190.516085
 30
853.151185
 70
    64
  0
VERTEX
  5
4E0
  8
TEAM-NET
 10
-127.24478
 20
-178.623376
 30
853.686688
 70
    64
  0
VERTEX
  5
4E1
  8
TEAM-NET
 10
-124.805089
 20
-166.912381
 30
854.574663
 70
    64
  0
VERTEX
  5
4E2
  8
TEAM-NET
 10
-121.415555
 20
-155.47223
 30
855.808352
 70
    64
  0
VERTEX
  5
4E3
  8
TEAM-NET
 10
-117.101977
 20
-144.389989
 30
857.378366
 70
    64
  0
VERTEX
  5
4E4
  8
TEAM-NET
 10
-111.897181
 20
-133.75
 30
859.272757
 70
    64
  0
VERTEX
  5
4E5
  8
TEAM-NET
 10
-105.840781
 20
-123.63324
 30
861.477106
 70
    64
  0
VERTEX
  5
4E6
  8
TEAM-NET
 10
-98.978868
 20
-114.116704
 30
863.974638
 70
    64
  0
VERTEX
  5
4E7
  8
TEAM-NET
 10
-91.363666
 20
-105.272818
 30
866.746345
 70
    64
  0
VERTEX
  5
4E8
  8
TEAM-NET
 10
-83.053131
 20
-97.168889
 30
869.771132
 70
    64
  0
VERTEX
  5
4E9
  8
TEAM-NET
 10
-74.110512
 20
-89.866594
 30
873.025979
 70
    64
  0
VERTEX
  5
4EA
  8
TEAM-NET
 10
-64.603868
 20
-83.421507
 30
876.486115
 70
    64
  0
VERTEX
  5
4EB
  8
TEAM-NET
 10
-54.605549
 20
-77.882679
 30
880.125206
 70
    64
  0
VERTEX
  5
4EC
  8
TEAM-NET
 10
-44.191648
 20
-73.292265
 30
883.915555
 70
    64
  0
VERTEX
  5
4ED
  8
TEAM-NET
 10
-33.441423
 20
-69.685199
 30
887.828318
 70
    64
  0
VERTEX
  5
4EE
  8
TEAM-NET
 10
-22.436688
 20
-67.088934
 30
891.833713
 70
    64
  0
VERTEX
  5
4EF
  8
TEAM-NET
 10
-11.261196
 20
-65.523229
 30
895.90126
 70
    64
  0
VERTEX
  5
4F0
  8
TEAM-NET
 10
0.0
 20
-65.0
 30
900.0
 70
    64
  0
VERTEX
  5
4F1
  8
TEAM-NET
 10
0.0
 20
-340.0
 30
900.0
 70
    64
  0
VERTEX
  5
4F2
  8
TEAM-NET
 10
-11.575573
 20
-339.476771
 30
896.898335
 70
    64
  0
VERTEX
  5
4F3
  8
TEAM-NET
 10
-23.063048
 20
-337.911066
 30
893.820275
 70
    64
  0
VERTEX
  5
4F4
  8
TEAM-NET
 10
-34.375
 20
-335.314801
 30
890.789247
 70
    64
  0
VERTEX
  5
4F5
  8
TEAM-NET
 10
-45.425337
 20
-331.707735
 30
887.828318
 70
    64
  0
VERTEX
  5
4F6
  8
TEAM-NET
 10
-56.12996
 20
-327.117321
 30
884.960022
 70
    64
  0
VERTEX
  5
4F7
  8
TEAM-NET
 10
-66.407401
 20
-321.578493
 30
882.206191
 70
    64
  0
VERTEX
  5
4F8
  8
TEAM-NET
 10
-76.17944
 20
-315.133406
 30
879.58778
 70
    64
  0
VERTEX
  5
4F9
  8
TEAM-NET
 10
-85.371709
 20
-307.831111
 30
877.12472
 70
    64
  0
VERTEX
  5
4FA
  8
TEAM-NET
 10
-93.914247
 20
-299.727182
 30
874.835753
 70
    64
  0
VERTEX
  5
4FB
  8
TEAM-NET
 10
-101.74204
 20
-290.883296
 30
872.738302
 70
    64
  0
VERTEX
  5
4FC
  8
TEAM-NET
 10
-108.795516
 20
-281.36676
 30
870.848329
 70
    64
  0
VERTEX
  5
4FD
  8
TEAM-NET
 10
-115.020992
 20
-271.25
 30
869.180218
 70
    64
  0
VERTEX
  5
4FE
  8
TEAM-NET
 10
-120.371088
 20
-260.610011
 30
867.746664
 70
    64
  0
VERTEX
  5
4FF
  8
TEAM-NET
 10
-124.805089
 20
-249.52777
 30
866.558577
 70
    64
  0
VERTEX
  5
500
  8
TEAM-NET
 10
-128.289247
 20
-238.087619
 30
865.625
 70
    64
  0
VERTEX
  5
501
  8
TEAM-NET
 10
-130.797046
 20
-226.376624
 30
864.953037
 70
    64
  0
VERTEX
  5
502
  8
TEAM-NET
 10
-132.309401
 20
-214.483915
 30
864.547803
 70
    64
  0
VERTEX
  5
503
  8
TEAM-NET
 10
-132.814801
 20
-202.5
 30
864.412381
 70
    64
  0
VERTEX
  5
504
  8
TEAM-NET
 10
-132.309401
 20
-190.516085
 30
864.547803
 70
    64
  0
VERTEX
  5
505
  8
TEAM-NET
 10
-130.797046
 20
-178.623376
 30
864.953037
 70
    64
  0
VERTEX
  5
506
  8
TEAM-NET
 10
-128.289247
 20
-166.912381
 30
865.625
 70
    64
  0
VERTEX
  5
507
  8
TEAM-NET
 10
-124.805089
 20
-155.47223
 30
866.558577
 70
    64
  0
VERTEX
  5
508
  8
TEAM-NET
 10
-120.371088
 20
-144.389989
 30
867.746664
 70
    64
  0
VERTEX
  5
509
  8
TEAM-NET
 10
-115.020992
 20
-133.75
 30
869.180218
 70
    64
  0
VERTEX
  5
50A
  8
TEAM-NET
 10
-108.795516
 20
-123.63324
 30
870.848329
 70
    64
  0
VERTEX
  5
50B
  8
TEAM-NET
 10
-101.74204
 20
-114.116704
 30
872.738302
 70
    64
  0
VERTEX
  5
50C
  8
TEAM-NET
 10
-93.914247
 20
-105.272818
 30
874.835753
 70
    64
  0
VERTEX
  5
50D
  8
TEAM-NET
 10
-85.371709
 20
-97.168889
 30
877.12472
 70
    64
  0
VERTEX
  5
50E
  8
TEAM-NET
 10
-76.17944
 20
-89.866594
 30
879.58778
 70
    64
  0
VERTEX
  5
50F
  8
TEAM-NET
 10
-66.407401
 20
-83.421507
 30
882.206191
 70
    64
  0
VERTEX
  5
510
  8
TEAM-NET
 10
-56.12996
 20
-77.882679
 30
884.960022
 70
    64
  0
VERTEX
  5
511
  8
TEAM-NET
 10
-45.425337
 20
-73.292265
 30
887.828318
 70
    64
  0
VERTEX
  5
512
  8
TEAM-NET
 10
-34.375
 20
-69.685199
 30
890.789247
 70
    64
  0
VERTEX
  5
513
  8
TEAM-NET
 10
-23.063048
 20
-67.088934
 30
893.820275
 70
    64
  0
VERTEX
  5
514
  8
TEAM-NET
 10
-11.575573
 20
-65.523229
 30
896.898335
 70
    64
  0
VERTEX
  5
515
  8
TEAM-NET
 10
0.0
 20
-65.0
 30
900.0
 70
    64
  0
VERTEX
  5
516
  8
TEAM-NET
 10
0.0
 20
-340.0
 30
900.0
 70
    64
  0
VERTEX
  5
517
  8
TEAM-NET
 10
-11.801852
 20
-339.476771
 30
897.919015
 70
    64
  0
VERTEX
  5
518
  8
TEAM-NET
 10
-23.513885
 20
-337.911066
 30
895.853868
 70
    64
  0
VERTEX
  5
519
  8
TEAM-NET
 10
-35.046963
 20
-335.314801
 30
893.820275
 70
    64
  0
VERTEX
  5
51A
  8
TEAM-NET
 10
-46.313312
 20
-331.707735
 30
891.833713
 70
    64
  0
VERTEX
  5
51B
  8
TEAM-NET
 10
-57.227189
 20
-327.117321
 30
889.909302
 70
    64
  0
VERTEX
  5
51C
  8
TEAM-NET
 10
-67.705533
 20
-321.578493
 30
888.061688
 70
    64
  0
VERTEX
  5
51D
  8
TEAM-NET
 10
-77.668597
 20
-315.133406
 30
886.304931
 70
    64
  0
VERTEX
  5
51E
  8
TEAM-NET
 10
-87.040555
 20
-307.831111
 30
884.652402
 70
    64
  0
VERTEX
  5
51F
  8
TEAM-NET
 10
-95.750083
 20
-299.727182
 30
883.116677
 70
    64
  0
VERTEX
  5
520
  8
TEAM-NET
 10
-103.730895
 20
-290.883296
 30
881.709445
 70
    64
  0
VERTEX
  5
521
  8
TEAM-NET
 10
-110.922252
 20
-281.36676
 30
880.441414
 70
    64
  0
VERTEX
  5
522
  8
TEAM-NET
 10
-117.269423
 20
-271.25
 30
879.322237
 70
    64
  0
VERTEX
  5
523
  8
TEAM-NET
 10
-122.724104
 20
-260.610011
 30
878.360429
 70
    64
  0
VERTEX
  5
524
  8
TEAM-NET
 10
-127.24478
 20
-249.52777
 30
877.563312
 70
    64
  0
VERTEX
  5
525
  8
TEAM-NET
 10
-130.797046
 20
-238.087619
 30
876.936952
 70
    64
  0
VERTEX
  5
526
  8
TEAM-NET
 10
-133.353868
 20
-226.376624
 30
876.486115
 70
    64
  0
VERTEX
  5
527
  8
TEAM-NET
 10
-134.895786
 20
-214.483915
 30
876.214233
 70
    64
  0
VERTEX
  5
528
  8
TEAM-NET
 10
-135.411066
 20
-202.5
 30
876.123376
 70
    64
  0
VERTEX
  5
529
  8
TEAM-NET
 10
-134.895786
 20
-190.516085
 30
876.214233
 70
    64
  0
VERTEX
  5
52A
  8
TEAM-NET
 10
-133.353868
 20
-178.623376
 30
876.486115
 70
    64
  0
VERTEX
  5
52B
  8
TEAM-NET
 10
-130.797046
 20
-166.912381
 30
876.936952
 70
    64
  0
VERTEX
  5
52C
  8
TEAM-NET
 10
-127.24478
 20
-155.47223
 30
877.563312
 70
    64
  0
VERTEX
  5
52D
  8
TEAM-NET
 10
-122.724104
 20
-144.389989
 30
878.360429
 70
    64
  0
VERTEX
  5
52E
  8
TEAM-NET
 10
-117.269423
 20
-133.75
 30
879.322237
 70
    64
  0
VERTEX
  5
52F
  8
TEAM-NET
 10
-110.922252
 20
-123.63324
 30
880.441414
 70
    64
  0
VERTEX
  5
530
  8
TEAM-NET
 10
-103.730895
 20
-114.116704
 30
881.709445
 70
    64
  0
VERTEX
  5
531
  8
TEAM-NET
 10
-95.750083
 20
-105.272818
 30
883.116677
 70
    64
  0
VERTEX
  5
532
  8
TEAM-NET
 10
-87.040555
 20
-97.168889
 30
884.652402
 70
    64
  0
VERTEX
  5
533
  8
TEAM-NET
 10
-77.668597
 20
-89.866594
 30
886.304931
 70
    64
  0
VERTEX
  5
534
  8
TEAM-NET
 10
-67.705533
 20
-83.421507
 30
888.061688
 70
    64
  0
VERTEX
  5
535
  8
TEAM-NET
 10
-57.227189
 20
-77.882679
 30
889.909302
 70
    64
  0
VERTEX
  5
536
  8
TEAM-NET
 10
-46.313312
 20
-73.292265
 30
891.833713
 70
    64
  0
VERTEX
  5
537
  8
TEAM-NET
 10
-35.046963
 20
-69.685199
 30
893.820275
 70
    64
  0
VERTEX
  5
538
  8
TEAM-NET
 10
-23.513885
 20
-67.088934
 30
895.853868
 70
    64
  0
VERTEX
  5
539
  8
TEAM-NET
 10
-11.801852
 20
-65.523229
 30
897.919015
 70
    64
  0
VERTEX
  5
53A
  8
TEAM-NET
 10
0.0
 20
-65.0
 30
900.0
 70
    64
  0
VERTEX
  5
53B
  8
TEAM-NET
 10
0.0
 20
-340.0
 30
900.0
 70
    64
  0
VERTEX
  5
53C
  8
TEAM-NET
 10
-11.938312
 20
-339.476771
 30
898.955533
 70
    64
  0
VERTEX
  5
53D
  8
TEAM-NET
 10
-23.785767
 20
-337.911066
 30
897.919015
 70
    64
  0
VERTEX
  5
53E
  8
TEAM-NET
 10
-35.452197
 20
-335.314801
 30
896.898335
 70
    64
  0
VERTEX
  5
53F
  8
TEAM-NET
 10
-46.848815
 20
-331.707735
 30
895.90126
 70
    64
  0
VERTEX
  5
540
  8
TEAM-NET
 10
-57.888885
 20
-327.117321
 30
894.935379
 70
    64
  0
VERTEX
  5
541
  8
TEAM-NET
 10
-68.488385
 20
-321.578493
 30
894.008043
 70
    64
  0
VERTEX
  5
542
  8
TEAM-NET
 10
-78.566648
 20
-315.133406
 30
893.126309
 70
    64
  0
VERTEX
  5
543
  8
TEAM-NET
 10
-88.046971
 20
-307.831111
 30
892.296888
 70
    64
  0
VERTEX
  5
544
  8
TEAM-NET
 10
-96.857204
 20
-299.727182
 30
891.526093
 70
    64
  0
VERTEX
  5
545
  8
TEAM-NET
 10
-104.930294
 20
-290.883296
 30
890.819789
 70
    64
  0
VERTEX
  5
546
  8
TEAM-NET
 10
-112.204802
 20
-281.36676
 30
890.183352
 70
    64
  0
VERTEX
  5
547
  8
TEAM-NET
 10
-118.625363
 20
-271.25
 30
889.621625
 70
    64
  0
VERTEX
  5
548
  8
TEAM-NET
 10
-124.143114
 20
-260.610011
 30
889.138885
 70
    64
  0
VERTEX
  5
549
  8
TEAM-NET
 10
-128.716061
 20
-249.52777
 30
888.738804
 70
    64
  0
VERTEX
  5
54A
  8
TEAM-NET
 10
-132.309401
 20
-238.087619
 30
888.424427
 70
    64
  0
VERTEX
  5
54B
  8
TEAM-NET
 10
-134.895786
 20
-226.376624
 30
888.198148
 70
    64
  0
VERTEX
  5
54C
  8
TEAM-NET
 10
-136.455533
 20
-214.483915
 30
888.061688
 70
    64
  0
VERTEX
  5
54D
  8
TEAM-NET
 10
-136.976771
 20
-202.5
 30
888.016085
 70
    64
  0
VERTEX
  5
54E
  8
TEAM-NET
 10
-136.455533
 20
-190.516085
 30
888.061688
 70
    64
  0
VERTEX
  5
54F
  8
TEAM-NET
 10
-134.895786
 20
-178.623376
 30
888.198148
 70
    64
  0
VERTEX
  5
550
  8
TEAM-NET
 10
-132.309401
 20
-166.912381
 30
888.424427
 70
    64
  0
VERTEX
  5
551
  8
TEAM-NET
 10
-128.716061
 20
-155.47223
 30
888.738804
 70
    64
  0
VERTEX
  5
552
  8
TEAM-NET
 10
-124.143114
 20
-144.389989
 30
889.138885
 70
    64
  0
VERTEX
  5
553
  8
TEAM-NET
 10
-118.625363
 20
-133.75
 30
889.621625
 70
    64
  0
VERTEX
  5
554
  8
TEAM-NET
 10
-112.204802
 20
-123.63324
 30
890.183352
 70
    64
  0
VERTEX
  5
555
  8
TEAM-NET
 10
-104.930294
 20
-114.116704
 30
890.819789
 70
    64
  0
VERTEX
  5
556
  8
TEAM-NET
 10
-96.857204
 20
-105.272818
 30
891.526093
 70
    64
  0
VERTEX
  5
557
  8
TEAM-NET
 10
-88.046971
 20
-97.168889
 30
892.296888
 70
    64
  0
VERTEX
  5
558
  8
TEAM-NET
 10
-78.566648
 20
-89.866594
 30
893.126309
 70
    64
  0
VERTEX
  5
559
  8
TEAM-NET
 10
-68.488385
 20
-83.421507
 30
894.008043
 70
    64
  0
VERTEX
  5
55A
  8
TEAM-NET
 10
-57.888885
 20
-77.882679
 30
894.935379
 70
    64
  0
VERTEX
  5
55B
  8
TEAM-NET
 10
-46.848815
 20
-73.292265
 30
895.90126
 70
    64
  0
VERTEX
  5
55C
  8
TEAM-NET
 10
-35.452197
 20
-69.685199
 30
896.898335
 70
    64
  0
VERTEX
  5
55D
  8
TEAM-NET
 10
-23.785767
 20
-67.088934
 30
897.919015
 70
    64
  0
VERTEX
  5
55E
  8
TEAM-NET
 10
-11.938312
 20
-65.523229
 30
898.955533
 70
    64
  0
VERTEX
  5
55F
  8
TEAM-NET
 10
0.0
 20
-65.0
 30
900.0
 70
    64
  0
VERTEX
  5
560
  8
TEAM-NET
 10
0.0
 20
-340.0
 30
900.0
 70
    64
  0
VERTEX
  5
561
  8
TEAM-NET
 10
-11.983915
 20
-339.476771
 30
900.0
 70
    64
  0
VERTEX
  5
562
  8
TEAM-NET
 10
-23.876624
 20
-337.911066
 30
900.0
 70
    64
  0
VERTEX
  5
563
  8
TEAM-NET
 10
-35.587619
 20
-335.314801
 30
900.0
 70
    64
  0
VERTEX
  5
564
  8
TEAM-NET
 10
-47.02777
 20
-331.707735
 30
900.0
 70
    64
  0
VERTEX
  5
565
  8
TEAM-NET
 10
-58.110011
 20
-327.117321
 30
900.0
 70
    64
  0
VERTEX
  5
566
  8
TEAM-NET
 10
-68.75
 20
-321.578493
 30
900.0
 70
    64
  0
VERTEX
  5
567
  8
TEAM-NET
 10
-78.86676
 20
-315.133406
 30
900.0
 70
    64
  0
VERTEX
  5
568
  8
TEAM-NET
 10
-88.383296
 20
-307.831111
 30
900.0
 70
    64
  0
VERTEX
  5
569
  8
TEAM-NET
 10
-97.227182
 20
-299.727182
 30
900.0
 70
    64
  0
VERTEX
  5
56A
  8
TEAM-NET
 10
-105.331111
 20
-290.883296
 30
900.0
 70
    64
  0
VERTEX
  5
56B
  8
TEAM-NET
 10
-112.633406
 20
-281.36676
 30
900.0
 70
    64
  0
VERTEX
  5
56C
  8
TEAM-NET
 10
-119.078493
 20
-271.25
 30
900.0
 70
    64
  0
VERTEX
  5
56D
  8
TEAM-NET
 10
-124.617321
 20
-260.610011
 30
900.0
 70
    64
  0
VERTEX
  5
56E
  8
TEAM-NET
 10
-129.207735
 20
-249.52777
 30
900.0
 70
    64
  0
VERTEX
  5
56F
  8
TEAM-NET
 10
-132.814801
 20
-238.087619
 30
900.0
 70
    64
  0
VERTEX
  5
570
  8
TEAM-NET
 10
-135.411066
 20
-226.376624
 30
900.0
 70
    64
  0
VERTEX
  5
571
  8
TEAM-NET
 10
-136.976771
 20
-214.483915
 30
900.0
 70
    64
  0
VERTEX
  5
572
  8
TEAM-NET
 10
-137.5
 20
-202.5
 30
900.0
 70
    64
  0
VERTEX
  5
573
  8
TEAM-NET
 10
-136.976771
 20
-190.516085
 30
900.0
 70
    64
  0
VERTEX
  5
574
  8
TEAM-NET
 10
-135.411066
 20
-178.623376
 30
900.0
 70
    64
  0
VERTEX
  5
575
  8
TEAM-NET
 10
-132.814801
 20
-166.912381
 30
900.0
 70
    64
  0
VERTEX
  5
576
  8
TEAM-NET
 10
-129.207735
 20
-155.47223
 30
900.0
 70
    64
  0
VERTEX
  5
577
  8
TEAM-NET
 10
-124.617321
 20
-144.389989
 30
900.0
 70
    64
  0
VERTEX
  5
578
  8
TEAM-NET
 10
-119.078493
 20
-133.75
 30
900.0
 70
    64
  0
VERTEX
  5
579
  8
TEAM-NET
 10
-112.633406
 20
-123.63324
 30
900.0
 70
    64
  0
VERTEX
  5
57A
  8
TEAM-NET
 10
-105.331111
 20
-114.116704
 30
900.0
 70
    64
  0
VERTEX
  5
57B
  8
TEAM-NET
 10
-97.227182
 20
-105.272818
 30
900.0
 70
    64
  0
VERTEX
  5
57C
  8
TEAM-NET
 10
-88.383296
 20
-97.168889
 30
900.0
 70
    64
  0
VERTEX
  5
57D
  8
TEAM-NET
 10
-78.86676
 20
-89.866594
 30
900.0
 70
    64
  0
VERTEX
  5
57E
  8
TEAM-NET
 10
-68.75
 20
-83.421507
 30
900.0
 70
    64
  0
VERTEX
  5
57F
  8
TEAM-NET
 10
-58.110011
 20
-77.882679
 30
900.0
 70
    64
  0
VERTEX
  5
580
  8
TEAM-NET
 10
-47.02777
 20
-73.292265
 30
900.0
 70
    64
  0
VERTEX
  5
581
  8
TEAM-NET
 10
-35.587619
 20
-69.685199
 30
900.0
 70
    64
  0
VERTEX
  5
582
  8
TEAM-NET
 10
-23.876624
 20
-67.088934
 30
900.0
 70
    64
  0
VERTEX
  5
583
  8
TEAM-NET
 10
-11.983915
 20
-65.523229
 30
900.0
 70
    64
  0
VERTEX
  5
584
  8
TEAM-NET
 10
0.0
 20
-65.0
 30
900.0
 70
    64
  0
SEQEND
  5
586
  8
TEAM-NET
  0
CIRCLE
  5
587
  8
TEAM-KAN
 39
-15.0
 10
0.0
 20
-202.5
 30
775.0
 40
20.0
  0
CIRCLE
  5
589
  8
TEAM-DET1
 39
-15.0
 10
0.0
 20
-202.5
 30
775.0
 40
30.0
  0
POLYLINE
  5
58B
  8
TEAM-NET
 66
     1
 10
0.0
 20
0.0
 30
0.0
 70
    16
 71
     2
 72
    13
  0
VERTEX
  5
58C
  8
TEAM-NET
 10
-73.0
 20
0.0
 30
750.0
 70
    64
  0
VERTEX
  5
58D
  8
TEAM-NET
 10
-73.0
 20
-4.483208
 30
750.0
 70
    64
  0
VERTEX
  5
58E
  8
TEAM-NET
 10
-73.0
 20
-8.966416
 30
750.0
 70
    64
  0
VERTEX
  5
58F
  8
TEAM-NET
 10
-73.0
 20
-13.449624
 30
750.0
 70
    64
  0
VERTEX
  5
590
  8
TEAM-NET
 10
-73.0
 20
-17.932832
 30
750.0
 70
    64
  0
VERTEX
  5
591
  8
TEAM-NET
 10
-73.0
 20
-22.41604
 30
750.0
 70
    64
  0
VERTEX
  5
592
  8
TEAM-NET
 10
-73.0
 20
-26.899248
 30
750.0
 70
    64
  0
VERTEX
  5
593
  8
TEAM-NET
 10
-73.0
 20
-31.382456
 30
750.0
 70
    64
  0
VERTEX
  5
594
  8
TEAM-NET
 10
-73.0
 20
-35.865664
 30
750.0
 70
    64
  0
VERTEX
  5
595
  8
TEAM-NET
 10
-73.0
 20
-40.348872
 30
750.0
 70
    64
  0
VERTEX
  5
596
  8
TEAM-NET
 10
-73.0
 20
-44.83208
 30
750.0
 70
    64
  0
VERTEX
  5
597
  8
TEAM-NET
 10
-73.0
 20
-49.315288
 30
750.0
 70
    64
  0
VERTEX
  5
598
  8
TEAM-NET
 10
-73.0
 20
-53.798496
 30
750.0
 70
    64
  0
VERTEX
  5
599
  8
TEAM-NET
 10
73.0
 20
0.0
 30
750.0
 70
    64
  0
VERTEX
  5
59A
  8
TEAM-NET
 10
73.0
 20
-4.483208
 30
750.0
 70
    64
  0
VERTEX
  5
59B
  8
TEAM-NET
 10
73.0
 20
-8.966416
 30
750.0
 70
    64
  0
VERTEX
  5
59C
  8
TEAM-NET
 10
73.0
 20
-13.449624
 30
750.0
 70
    64
  0
VERTEX
  5
59D
  8
TEAM-NET
 10
73.0
 20
-17.932832
 30
750.0
 70
    64
  0
VERTEX
  5
59E
  8
TEAM-NET
 10
73.0
 20
-22.41604
 30
750.0
 70
    64
  0
VERTEX
  5
59F
  8
TEAM-NET
 10
73.0
 20
-26.899248
 30
750.0
 70
    64
  0
VERTEX
  5
5A0
  8
TEAM-NET
 10
73.0
 20
-31.382456
 30
750.0
 70
    64
  0
VERTEX
  5
5A1
  8
TEAM-NET
 10
73.0
 20
-35.865664
 30
750.0
 70
    64
  0
VERTEX
  5
5A2
  8
TEAM-NET
 10
73.0
 20
-40.348872
 30
750.0
 70
    64
  0
VERTEX
  5
5A3
  8
TEAM-NET
 10
73.0
 20
-44.83208
 30
750.0
 70
    64
  0
VERTEX
  5
5A4
  8
TEAM-NET
 10
73.0
 20
-49.315288
 30
750.0
 70
    64
  0
VERTEX
  5
5A5
  8
TEAM-NET
 10
73.0
 20
-53.798496
 30
750.0
 70
    64
  0
SEQEND
  5
5A6
  8
TEAM-NET
  0
LINE
  5
5A7
  8
TEAM-AXE
 10
35.0
 20
-202.5
 30
775.0
 11
-35.0
 21
-202.5
 31
775.0
  0
LINE
  5
5AA
  8
TEAM-AXE
 10
0.0
 20
-237.5
 30
775.0
 11
0.0
 21
-167.5
 31
775.0
  0
ARC
  5
5AB
  8
TEAM-BODY
 10
0.0
 20
-202.5
 30
900.0
 40
137.5
 50
90.0
 51
270.0
  0
ARC
  5
5AC
  8
TEAM-BODY
 10
0.0
 20
-202.5
 30
900.0
 40
137.5
 50
270.0
 51
90.0
  0
TEXT
  5
5AD
  8
TEAM-TXT
 10
-148.627029
 20
-160.232722
 30
900.0
 40
30.0
  1
team 217074
 41
0.8
 51
15.0
  7
TEAM
  0
POLYLINE
  5
5B0
  8
TEAM-NET
 66
     1
 10
0.0
 20
0.0
 30
0.0
 70
    16
 71
     2
 72
    37
  0
VERTEX
  5
5B1
  8
TEAM-NET
 10
0.0
 20
-365.0
 30
900.0
 70
    64
  0
VERTEX
  5
5B2
  8
TEAM-NET
 10
14.162808
 20
-364.381638
 30
900.0
 70
    64
  0
VERTEX
  5
5B3
  8
TEAM-NET
 10
28.217829
 20
-362.53126
 30
900.0
 70
    64
  0
VERTEX
  5
5B4
  8
TEAM-NET
 10
42.058095
 20
-359.462947
 30
900.0
 70
    64
  0
VERTEX
  5
5B5
  8
TEAM-NET
 10
55.578273
 20
-355.200051
 30
900.0
 70
    64
  0
VERTEX
  5
5B6
  8
TEAM-NET
 10
68.675468
 20
-349.775015
 30
900.0
 70
    64
  0
VERTEX
  5
5B7
  8
TEAM-NET
 10
81.25
 20
-343.229128
 30
900.0
 70
    64
  0
VERTEX
  5
5B8
  8
TEAM-NET
 10
93.206171
 20
-335.612207
 30
900.0
 70
    64
  0
VERTEX
  5
5B9
  8
TEAM-NET
 10
104.452987
 20
-326.982222
 30
900.0
 70
    64
  0
VERTEX
  5
5BA
  8
TEAM-NET
 10
114.904852
 20
-317.404852
 30
900.0
 70
    64
  0
VERTEX
  5
5BB
  8
TEAM-NET
 10
124.482222
 20
-306.952987
 30
900.0
 70
    64
  0
VERTEX
  5
5BC
  8
TEAM-NET
 10
133.112207
 20
-295.706171
 30
900.0
 70
    64
  0
VERTEX
  5
5BD
  8
TEAM-NET
 10
140.729128
 20
-283.75
 30
900.0
 70
    64
  0
VERTEX
  5
5BE
  8
TEAM-NET
 10
147.275015
 20
-271.175468
 30
900.0
 70
    64
  0
VERTEX
  5
5BF
  8
TEAM-NET
 10
152.700051
 20
-258.078273
 30
900.0
 70
    64
  0
VERTEX
  5
5C0
  8
TEAM-NET
 10
156.962947
 20
-244.558095
 30
900.0
 70
    64
  0
VERTEX
  5
5C1
  8
TEAM-NET
 10
160.03126
 20
-230.717829
 30
900.0
 70
    64
  0
VERTEX
  5
5C2
  8
TEAM-NET
 10
161.881638
 20
-216.662808
 30
900.0
 70
    64
  0
VERTEX
  5
5C3
  8
TEAM-NET
 10
162.5
 20
-202.5
 30
900.0
 70
    64
  0
VERTEX
  5
5C4
  8
TEAM-NET
 10
161.881638
 20
-188.337192
 30
900.0
 70
    64
  0
VERTEX
  5
5C5
  8
TEAM-NET
 10
160.03126
 20
-174.282171
 30
900.0
 70
    64
  0
VERTEX
  5
5C6
  8
TEAM-NET
 10
156.962947
 20
-160.441905
 30
900.0
 70
    64
  0
VERTEX
  5
5C7
  8
TEAM-NET
 10
152.700051
 20
-146.921727
 30
900.0
 70
    64
  0
VERTEX
  5
5C8
  8
TEAM-NET
 10
147.275015
 20
-133.824532
 30
900.0
 70
    64
  0
VERTEX
  5
5C9
  8
TEAM-NET
 10
140.729128
 20
-121.25
 30
900.0
 70
    64
  0
VERTEX
  5
5CA
  8
TEAM-NET
 10
133.112207
 20
-109.293829
 30
900.0
 70
    64
  0
VERTEX
  5
5CB
  8
TEAM-NET
 10
124.482222
 20
-98.047013
 30
900.0
 70
    64
  0
VERTEX
  5
5CC
  8
TEAM-NET
 10
114.904852
 20
-87.595148
 30
900.0
 70
    64
  0
VERTEX
  5
5CD
  8
TEAM-NET
 10
104.452987
 20
-78.017778
 30
900.0
 70
    64
  0
VERTEX
  5
5CE
  8
TEAM-NET
 10
93.206171
 20
-69.387793
 30
900.0
 70
    64
  0
VERTEX
  5
5CF
  8
TEAM-NET
 10
81.25
 20
-61.770872
 30
900.0
 70
    64
  0
VERTEX
  5
5D0
  8
TEAM-NET
 10
68.675468
 20
-55.224985
 30
900.0
 70
    64
  0
VERTEX
  5
5D1
  8
TEAM-NET
 10
55.578273
 20
-49.799949
 30
900.0
 70
    64
  0
VERTEX
  5
5D2
  8
TEAM-NET
 10
42.058095
 20
-45.537053
 30
900.0
 70
    64
  0
VERTEX
  5
5D3
  8
TEAM-NET
 10
28.217829
 20
-42.46874
 30
900.0
 70
    64
  0
VERTEX
  5
5D4
  8
TEAM-NET
 10
14.162808
 20
-40.618362
 30
900.0
 70
    64
  0
VERTEX
  5
5D5
  8
TEAM-NET
 10
0.0
 20
-40.0
 30
900.0
 70
    64
  0
VERTEX
  5
5D6
  8
TEAM-NET
 10
0.0
 20
-340.0
 30
900.0
 70
    64
  0
VERTEX
  5
5D7
  8
TEAM-NET
 10
11.983915
 20
-339.476771
 30
900.0
 70
    64
  0
VERTEX
  5
5D8
  8
TEAM-NET
 10
23.876624
 20
-337.911066
 30
900.0
 70
    64
  0
VERTEX
  5
5D9
  8
TEAM-NET
 10
35.587619
 20
-335.314801
 30
900.0
 70
    64
  0
VERTEX
  5
5DA
  8
TEAM-NET
 10
47.02777
 20
-331.707735
 30
900.0
 70
    64
  0
VERTEX
  5
5DB
  8
TEAM-NET
 10
58.110011
 20
-327.117321
 30
900.0
 70
    64
  0
VERTEX
  5
5DC
  8
TEAM-NET
 10
68.75
 20
-321.578493
 30
900.0
 70
    64
  0
VERTEX
  5
5DD
  8
TEAM-NET
 10
78.86676
 20
-315.133406
 30
900.0
 70
    64
  0
VERTEX
  5
5DE
  8
TEAM-NET
 10
88.383296
 20
-307.831111
 30
900.0
 70
    64
  0
VERTEX
  5
5DF
  8
TEAM-NET
 10
97.227182
 20
-299.727182
 30
900.0
 70
    64
  0
VERTEX
  5
5E0
  8
TEAM-NET
 10
105.331111
 20
-290.883296
 30
900.0
 70
    64
  0
VERTEX
  5
5E1
  8
TEAM-NET
 10
112.633406
 20
-281.36676
 30
900.0
 70
    64
  0
VERTEX
  5
5E2
  8
TEAM-NET
 10
119.078493
 20
-271.25
 30
900.0
 70
    64
  0
VERTEX
  5
5E3
  8
TEAM-NET
 10
124.617321
 20
-260.610011
 30
900.0
 70
    64
  0
VERTEX
  5
5E4
  8
TEAM-NET
 10
129.207735
 20
-249.52777
 30
900.0
 70
    64
  0
VERTEX
  5
5E5
  8
TEAM-NET
 10
132.814801
 20
-238.087619
 30
900.0
 70
    64
  0
VERTEX
  5
5E6
  8
TEAM-NET
 10
135.411066
 20
-226.376624
 30
900.0
 70
    64
  0
VERTEX
  5
5E7
  8
TEAM-NET
 10
136.976771
 20
-214.483915
 30
900.0
 70
    64
  0
VERTEX
  5
5E8
  8
TEAM-NET
 10
137.5
 20
-202.5
 30
900.0
 70
    64
  0
VERTEX
  5
5E9
  8
TEAM-NET
 10
136.976771
 20
-190.516085
 30
900.0
 70
    64
  0
VERTEX
  5
5EA
  8
TEAM-NET
 10
135.411066
 20
-178.623376
 30
900.0
 70
    64
  0
VERTEX
  5
5EB
  8
TEAM-NET
 10
132.814801
 20
-166.912381
 30
900.0
 70
    64
  0
VERTEX
  5
5EC
  8
TEAM-NET
 10
129.207735
 20
-155.47223
 30
900.0
 70
    64
  0
VERTEX
  5
5ED
  8
TEAM-NET
 10
124.617321
 20
-144.389989
 30
900.0
 70
    64
  0
VERTEX
  5
5EE
  8
TEAM-NET
 10
119.078493
 20
-133.75
 30
900.0
 70
    64
  0
VERTEX
  5
5EF
  8
TEAM-NET
 10
112.633406
 20
-123.63324
 30
900.0
 70
    64
  0
VERTEX
  5
5F0
  8
TEAM-NET
 10
105.331111
 20
-114.116704
 30
900.0
 70
    64
  0
VERTEX
  5
5F1
  8
TEAM-NET
 10
97.227182
 20
-105.272818
 30
900.0
 70
    64
  0
VERTEX
  5
5F2
  8
TEAM-NET
 10
88.383296
 20
-97.168889
 30
900.0
 70
    64
  0
VERTEX
  5
5F3
  8
TEAM-NET
 10
78.86676
 20
-89.866594
 30
900.0
 70
    64
  0
VERTEX
  5
5F4
  8
TEAM-NET
 10
68.75
 20
-83.421507
 30
900.0
 70
    64
  0
VERTEX
  5
5F5
  8
TEAM-NET
 10
58.110011
 20
-77.882679
 30
900.0
 70
    64
  0
VERTEX
  5
5F6
  8
TEAM-NET
 10
47.02777
 20
-73.292265
 30
900.0
 70
    64
  0
VERTEX
  5
5F7
  8
TEAM-NET
 10
35.587619
 20
-69.685199
 30
900.0
 70
    64
  0
VERTEX
  5
5F8
  8
TEAM-NET
 10
23.876624
 20
-67.088934
 30
900.0
 70
    64
  0
VERTEX
  5
5F9
  8
TEAM-NET
 10
11.983915
 20
-65.523229
 30
900.0
 70
    64
  0
VERTEX
  5
5FA
  8
TEAM-NET
 10
0.0
 20
-65.0
 30
900.0
 70
    64
  0
SEQEND
  5
5FB
  8
TEAM-NET
  0
POLYLINE
  5
5FC
  8
TEAM-NET
 66
     1
 10
0.0
 20
0.0
 30
0.0
 70
    16
 71
     2
 72
    37
  0
VERTEX
  5
5FD
  8
TEAM-NET
 10
0.0
 20
-340.0
 30
900.0
 70
    64
  0
VERTEX
  5
5FE
  8
TEAM-NET
 10
-11.983915
 20
-339.476771
 30
900.0
 70
    64
  0
VERTEX
  5
5FF
  8
TEAM-NET
 10
-23.876624
 20
-337.911066
 30
900.0
 70
    64
  0
VERTEX
  5
600
  8
TEAM-NET
 10
-35.587619
 20
-335.314801
 30
900.0
 70
    64
  0
VERTEX
  5
601
  8
TEAM-NET
 10
-47.02777
 20
-331.707735
 30
900.0
 70
    64
  0
VERTEX
  5
602
  8
TEAM-NET
 10
-58.110011
 20
-327.117321
 30
900.0
 70
    64
  0
VERTEX
  5
603
  8
TEAM-NET
 10
-68.75
 20
-321.578493
 30
900.0
 70
    64
  0
VERTEX
  5
604
  8
TEAM-NET
 10
-78.86676
 20
-315.133406
 30
900.0
 70
    64
  0
VERTEX
  5
605
  8
TEAM-NET
 10
-88.383296
 20
-307.831111
 30
900.0
 70
    64
  0
VERTEX
  5
606
  8
TEAM-NET
 10
-97.227182
 20
-299.727182
 30
900.0
 70
    64
  0
VERTEX
  5
607
  8
TEAM-NET
 10
-105.331111
 20
-290.883296
 30
900.0
 70
    64
  0
VERTEX
  5
608
  8
TEAM-NET
 10
-112.633406
 20
-281.36676
 30
900.0
 70
    64
  0
VERTEX
  5
609
  8
TEAM-NET
 10
-119.078493
 20
-271.25
 30
900.0
 70
    64
  0
VERTEX
  5
60A
  8
TEAM-NET
 10
-124.617321
 20
-260.610011
 30
900.0
 70
    64
  0
VERTEX
  5
60B
  8
TEAM-NET
 10
-129.207735
 20
-249.52777
 30
900.0
 70
    64
  0
VERTEX
  5
60C
  8
TEAM-NET
 10
-132.814801
 20
-238.087619
 30
900.0
 70
    64
  0
VERTEX
  5
60D
  8
TEAM-NET
 10
-135.411066
 20
-226.376624
 30
900.0
 70
    64
  0
VERTEX
  5
60E
  8
TEAM-NET
 10
-136.976771
 20
-214.483915
 30
900.0
 70
    64
  0
VERTEX
  5
60F
  8
TEAM-NET
 10
-137.5
 20
-202.5
 30
900.0
 70
    64
  0
VERTEX
  5
610
  8
TEAM-NET
 10
-136.976771
 20
-190.516085
 30
900.0
 70
    64
  0
VERTEX
  5
611
  8
TEAM-NET
 10
-135.411066
 20
-178.623376
 30
900.0
 70
    64
  0
VERTEX
  5
612
  8
TEAM-NET
 10
-132.814801
 20
-166.912381
 30
900.0
 70
    64
  0
VERTEX
  5
613
  8
TEAM-NET
 10
-129.207735
 20
-155.47223
 30
900.0
 70
    64
  0
VERTEX
  5
614
  8
TEAM-NET
 10
-124.617321
 20
-144.389989
 30
900.0
 70
    64
  0
VERTEX
  5
615
  8
TEAM-NET
 10
-119.078493
 20
-133.75
 30
900.0
 70
    64
  0
VERTEX
  5
616
  8
TEAM-NET
 10
-112.633406
 20
-123.63324
 30
900.0
 70
    64
  0
VERTEX
  5
617
  8
TEAM-NET
 10
-105.331111
 20
-114.116704
 30
900.0
 70
    64
  0
VERTEX
  5
618
  8
TEAM-NET
 10
-97.227182
 20
-105.272818
 30
900.0
 70
    64
  0
VERTEX
  5
619
  8
TEAM-NET
 10
-88.383296
 20
-97.168889
 30
900.0
 70
    64
  0
VERTEX
  5
61A
  8
TEAM-NET
 10
-78.86676
 20
-89.866594
 30
900.0
 70
    64
  0
VERTEX
  5
61B
  8
TEAM-NET
 10
-68.75
 20
-83.421507
 30
900.0
 70
    64
  0
VERTEX
  5
61C
  8
TEAM-NET
 10
-58.110011
 20
-77.882679
 30
900.0
 70
    64
  0
VERTEX
  5
61D
  8
TEAM-NET
 10
-47.02777
 20
-73.292265
 30
900.0
 70
    64
  0
VERTEX
  5
61E
  8
TEAM-NET
 10
-35.587619
 20
-69.685199
 30
900.0
 70
    64
  0
VERTEX
  5
61F
  8
TEAM-NET
 10
-23.876624
 20
-67.088934
 30
900.0
 70
    64
  0
VERTEX
  5
620
  8
TEAM-NET
 10
-11.983915
 20
-65.523229
 30
900.0
 70
    64
  0
VERTEX
  5
621
  8
TEAM-NET
 10
0.0
 20
-65.0
 30
900.0
 70
    64
  0
VERTEX
  5
622
  8
TEAM-NET
 10
0.0
 20
-365.0
 30
900.0
 70
    64
  0
VERTEX
  5
623
  8
TEAM-NET
 10
-14.162808
 20
-364.381638
 30
900.0
 70
    64
  0
VERTEX
  5
624
  8
TEAM-NET
 10
-28.217829
 20
-362.53126
 30
900.0
 70
    64
  0
VERTEX
  5
625
  8
TEAM-NET
 10
-42.058095
 20
-359.462947
 30
900.0
 70
    64
  0
VERTEX
  5
626
  8
TEAM-NET
 10
-55.578273
 20
-355.200051
 30
900.0
 70
    64
  0
VERTEX
  5
627
  8
TEAM-NET
 10
-68.675468
 20
-349.775015
 30
900.0
 70
    64
  0
VERTEX
  5
628
  8
TEAM-NET
 10
-81.25
 20
-343.229128
 30
900.0
 70
    64
  0
VERTEX
  5
629
  8
TEAM-NET
 10
-93.206171
 20
-335.612207
 30
900.0
 70
    64
  0
VERTEX
  5
62A
  8
TEAM-NET
 10
-104.452987
 20
-326.982222
 30
900.0
 70
    64
  0
VERTEX
  5
62B
  8
TEAM-NET
 10
-114.904852
 20
-317.404852
 30
900.0
 70
    64
  0
VERTEX
  5
62C
  8
TEAM-NET
 10
-124.482222
 20
-306.952987
 30
900.0
 70
    64
  0
VERTEX
  5
62D
  8
TEAM-NET
 10
-133.112207
 20
-295.706171
 30
900.0
 70
    64
  0
VERTEX
  5
62E
  8
TEAM-NET
 10
-140.729128
 20
-283.75
 30
900.0
 70
    64
  0
VERTEX
  5
62F
  8
TEAM-NET
 10
-147.275015
 20
-271.175468
 30
900.0
 70
    64
  0
VERTEX
  5
630
  8
TEAM-NET
 10
-152.700051
 20
-258.078273
 30
900.0
 70
    64
  0
VERTEX
  5
631
  8
TEAM-NET
 10
-156.962947
 20
-244.558095
 30
900.0
 70
    64
  0
VERTEX
  5
632
  8
TEAM-NET
 10
-160.03126
 20
-230.717829
 30
900.0
 70
    64
  0
VERTEX
  5
633
  8
TEAM-NET
 10
-161.881638
 20
-216.662808
 30
900.0
 70
    64
  0
VERTEX
  5
634
  8
TEAM-NET
 10
-162.5
 20
-202.5
 30
900.0
 70
    64
  0
VERTEX
  5
635
  8
TEAM-NET
 10
-161.881638
 20
-188.337192
 30
900.0
 70
    64
  0
VERTEX
  5
636
  8
TEAM-NET
 10
-160.03126
 20
-174.282171
 30
900.0
 70
    64
  0
VERTEX
  5
637
  8
TEAM-NET
 10
-156.962947
 20
-160.441905
 30
900.0
 70
    64
  0
VERTEX
  5
638
  8
TEAM-NET
 10
-152.700051
 20
-146.921727
 30
900.0
 70
    64
  0
VERTEX
  5
639
  8
TEAM-NET
 10
-147.275015
 20
-133.824532
 30
900.0
 70
    64
  0
VERTEX
  5
63A
  8
TEAM-NET
 10
-140.729128
 20
-121.25
 30
900.0
 70
    64
  0
VERTEX
  5
63B
  8
TEAM-NET
 10
-133.112207
 20
-109.293829
 30
900.0
 70
    64
  0
VERTEX
  5
63C
  8
TEAM-NET
 10
-124.482222
 20
-98.047013
 30
900.0
 70
    64
  0
VERTEX
  5
63D
  8
TEAM-NET
 10
-114.904852
 20
-87.595148
 30
900.0
 70
    64
  0
VERTEX
  5
63E
  8
TEAM-NET
 10
-104.452987
 20
-78.017778
 30
900.0
 70
    64
  0
VERTEX
  5
63F
  8
TEAM-NET
 10
-93.206171
 20
-69.387793
 30
900.0
 70
    64
  0
VERTEX
  5
640
  8
TEAM-NET
 10
-81.25
 20
-61.770872
 30
900.0
 70
    64
  0
VERTEX
  5
641
  8
TEAM-NET
 10
-68.675468
 20
-55.224985
 30
900.0
 70
    64
  0
VERTEX
  5
642
  8
TEAM-NET
 10
-55.578273
 20
-49.799949
 30
900.0
 70
    64
  0
VERTEX
  5
643
  8
TEAM-NET
 10
-42.058095
 20
-45.537053
 30
900.0
 70
    64
  0
VERTEX
  5
644
  8
TEAM-NET
 10
-28.217829
 20
-42.46874
 30
900.0
 70
    64
  0
VERTEX
  5
645
  8
TEAM-NET
 10
-14.162808
 20
-40.618362
 30
900.0
 70
    64
  0
VERTEX
  5
646
  8
TEAM-NET
 10
0.0
 20
-40.0
 30
900.0
 70
    64
  0
SEQEND
  5
647
  8
TEAM-NET
  0
ENDSEC
  0
EOF
