  0
SECTION
  2
HEADER
  9
$ACADVER
  1
AC1009
  9
$INSBASE
 10
0.0
 20
0.0
 30
0.0
  9
$EXTMIN
 10
-229.330361
 20
-348.620383
 30
-0.030999
  9
$EXTMAX
 10
229.310395
 20
6.938349
 30
850.008902
  9
$LIMMIN
 10
-229.330361
 20
-348.620383
  9
$LIMMAX
 10
229.310395
 20
6.938349
  9
$ORTHOMODE
 70
     1
  9
$REGENMODE
 70
     1
  9
$FILLMODE
 70
     1
  9
$QTEXTMODE
 70
     0
  9
$MIRRTEXT
 70
     0
  9
$DRAGMODE
 70
     2
  9
$LTSCALE
 40
50.0
  9
$OSMODE
 70
     0
  9
$ATTMODE
 70
     1
  9
$TEXTSIZE
 40
200.0
  9
$TRACEWID
 40
1.0
  9
$TEXTSTYLE
  7
STANDARD
  9
$CLAYER
  8
TEAM-MAS
  9
$CELTYPE
  6
BYLAYER
  9
$CECOLOR
 62
   256
  9
$DIMSCALE
 40
0.0
  9
$DIMASZ
 40
20.0
  9
$DIMEXO
 40
10.0
  9
$DIMDLI
 40
1.0
  9
$DIMRND
 40
0.0
  9
$DIMDLE
 40
0.0
  9
$DIMEXE
 40
1.0
  9
$DIMTP
 40
0.0
  9
$DIMTM
 40
0.0
  9
$DIMTXT
 40
35.0
  9
$DIMCEN
 40
1.0
  9
$DIMTSZ
 40
0.0
  9
$DIMTOL
 70
     0
  9
$DIMLIM
 70
     0
  9
$DIMTIH
 70
     0
  9
$DIMTOH
 70
     0
  9
$DIMSE1
 70
     0
  9
$DIMSE2
 70
     0
  9
$DIMTAD
 70
     0
  9
$DIMZIN
 70
     0
  9
$DIMBLK
  1

  9
$DIMASO
 70
     1
  9
$DIMSHO
 70
     0
  9
$DIMPOST
  1

  9
$DIMAPOST
  1

  9
$DIMALT
 70
     0
  9
$DIMALTD
 70
     2
  9
$DIMALTF
 40
25.4
  9
$DIMLFAC
 40
1.0
  9
$DIMTOFL
 70
     0
  9
$DIMTVP
 40
0.0
  9
$DIMTIX
 70
     0
  9
$DIMSOXD
 70
     0
  9
$DIMSAH
 70
     0
  9
$DIMBLK1
  1

  9
$DIMBLK2
  1

  9
$DIMSTYLE
  2
TEAM
  9
$DIMCLRD
 70
     9
  9
$DIMCLRE
 70
     9
  9
$DIMCLRT
 70
    11
  9
$DIMTFAC
 40
1.0
  9
$DIMGAP
 40
7.0
  9
$LUNITS
 70
     2
  9
$LUPREC
 70
     1
  9
$SKETCHINC
 40
1.0
  9
$FILLETRAD
 40
50.0
  9
$AUNITS
 70
     0
  9
$AUPREC
 70
     0
  9
$MENU
  1
ROPLANS
  9
$ELEVATION
 40
0.0
  9
$PELEVATION
 40
0.0
  9
$THICKNESS
 40
0.0
  9
$LIMCHECK
 70
     0
  9
$BLIPMODE
 70
     1
  9
$CHAMFERA
 40
0.0
  9
$CHAMFERB
 40
0.0
  9
$SKPOLY
 70
     0
  9
$TDCREATE
 40
2450392.957851
  9
$TDUPDATE
 40
2456035.547602
  9
$TDINDWG
 40
2.458439
  9
$TDUSRTIMER
 40
2.458439
  9
$USRTIMER
 70
     1
  9
$ANGBASE
 50
0.0
  9
$ANGDIR
 70
     0
  9
$PDMODE
 70
     0
  9
$PDSIZE
 40
0.0
  9
$PLINEWID
 40
0.0
  9
$COORDS
 70
     2
  9
$SPLFRAME
 70
     0
  9
$SPLINETYPE
 70
     6
  9
$SPLINESEGS
 70
     8
  9
$ATTDIA
 70
     0
  9
$ATTREQ
 70
     0
  9
$HANDLING
 70
     1
  9
$HANDSEED
  5
246
  9
$SURFTAB1
 70
    36
  9
$SURFTAB2
 70
    36
  9
$SURFTYPE
 70
     6
  9
$SURFU
 70
     6
  9
$SURFV
 70
     6
  9
$UCSNAME
  2

  9
$UCSORG
 10
0.0
 20
0.0
 30
0.0
  9
$UCSXDIR
 10
1.0
 20
0.0
 30
0.0
  9
$UCSYDIR
 10
0.0
 20
1.0
 30
0.0
  9
$PUCSNAME
  2

  9
$PUCSORG
 10
0.0
 20
0.0
 30
0.0
  9
$PUCSXDIR
 10
1.0
 20
0.0
 30
0.0
  9
$PUCSYDIR
 10
0.0
 20
1.0
 30
0.0
  9
$USERI1
 70
     0
  9
$USERI2
 70
     0
  9
$USERI3
 70
     0
  9
$USERI4
 70
     0
  9
$USERI5
 70
     0
  9
$USERR1
 40
0.0
  9
$USERR2
 40
0.0
  9
$USERR3
 40
0.0
  9
$USERR4
 40
0.0
  9
$USERR5
 40
0.0
  9
$WORLDVIEW
 70
     1
  9
$SHADEDGE
 70
     0
  9
$SHADEDIF
 70
    70
  9
$TILEMODE
 70
     1
  9
$MAXACTVP
 70
    16
  9
$PLIMCHECK
 70
     0
  9
$PEXTMIN
 10
-0.805942
 20
0.005011
 30
0.0
  9
$PEXTMAX
 10
20.250094
 20
11.356329
 30
0.0
  9
$PLIMMIN
 10
0.0
 20
0.0
  9
$PLIMMAX
 10
12.0
 20
9.0
  9
$UNITMODE
 70
     0
  9
$VISRETAIN
 70
     0
  9
$PLINEGEN
 70
     0
  9
$PSLTSCALE
 70
     0
  0
ENDSEC
  0
SECTION
  2
TABLES
  0
TABLE
  2
VPORT
 70
     2
  0
VPORT
  2
*ACTIVE
 70
     0
 10
0.0
 20
0.0
 11
1.0
 21
1.0
 12
-0.009983
 22
-170.841017
 13
0.0
 23
0.0
 14
1.0
 24
1.0
 15
50.0
 25
50.0
 16
0.0
 26
0.0
 36
1.0
 17
0.0
 27
0.0
 37
0.0
 40
357.797298
 41
1.911765
 42
50.0
 43
0.0
 44
0.0
 50
0.0
 51
0.0
 71
     0
 72
   100
 73
     1
 74
     1
 75
     0
 76
     0
 77
     0
 78
     0
  0
ENDTAB
  0
TABLE
  2
LTYPE
 70
     2
  0
LTYPE
  2
CONTINUOUS
 70
     0
  3
Solid Line
 72
    65
 73
     0
 40
0.0
  0
LTYPE
  2
31
 70
     0
  3

 72
    65
 73
     4
 40
2.1
 49
1.5
 49
-0.3
 49
0.0
 49
-0.3
  0
ENDTAB
  0
TABLE
  2
LAYER
 70
    10
  0
LAYER
  2
0
 70
     0
 62
     7
  6
CONTINUOUS
  0
LAYER
  2
TEAM-BODY
 70
     0
 62
     2
  6
CONTINUOUS
  0
LAYER
  2
TEAM-AXE
 70
     0
 62
    10
  6
31
  0
LAYER
  2
TEAM-MAS
 70
     0
 62
     9
  6
CONTINUOUS
  0
LAYER
  2
TEAM-TXT
 70
     0
 62
    11
  6
CONTINUOUS
  0
LAYER
  2
TEAM-DET1
 70
     0
 62
     4
  6
CONTINUOUS
  0
LAYER
  2
TEAM-KAN
 70
     0
 62
     6
  6
CONTINUOUS
  0
LAYER
  2
TEAM-DET3
 70
     0
 62
    14
  6
CONTINUOUS
  0
LAYER
  2
TEAM-NET
 70
     0
 62
    15
  6
CONTINUOUS
  0
LAYER
  2
TEAM-INSP
 70
     0
 62
     5
  6
CONTINUOUS
  0
ENDTAB
  0
TABLE
  2
STYLE
 70
     2
  0
STYLE
  2
STANDARD
 70
     0
 40
0.0
 41
1.0
 50
0.0
 71
     0
 42
200.0
  3
txt
  4

  0
STYLE
  2
TEAM
 70
     0
 40
0.0
 41
0.8
 50
15.0
 71
     0
 42
7.0
  3
ROMANS.shx
  4

  0
ENDTAB
  0
TABLE
  2
VIEW
 70
     0
  0
ENDTAB
  0
TABLE
  2
UCS
 70
     0
  0
ENDTAB
  0
TABLE
  2
APPID
 70
     1
  0
APPID
  2
ACAD
 70
     0
  0
ENDTAB
  0
TABLE
  2
DIMSTYLE
 70
     1
  0
DIMSTYLE
  2
TEAM
 70
     0
  3

  4

  5

  6

  7

 40
0.0
 41
20.0
 42
10.0
 43
1.0
 44
1.0
 45
0.0
 46
0.0
 47
0.0
 48
0.0
140
35.0
141
1.0
142
0.0
143
25.4
144
1.0
145
0.0
146
1.0
147
7.0
 71
     0
 72
     0
 73
     0
 74
     0
 75
     0
 76
     0
 77
     0
 78
     0
170
     0
171
     2
172
     0
173
     0
174
     0
175
     0
176
     9
177
     9
178
    11
  0
ENDTAB
  0
ENDSEC
  0
SECTION
  2
BLOCKS
  0
BLOCK
  8
0
  2
$MODEL_SPACE
 70
     0
 10
0.0
 20
0.0
 30
0.0
  3
$MODEL_SPACE
  1

  0
ENDBLK
  5
20B
  8
0
  0
BLOCK
 67
     1
  8
0
  2
$PAPER_SPACE
 70
     0
 10
0.0
 20
0.0
 30
0.0
  3
$PAPER_SPACE
  1

  0
ENDBLK
  5
209
 67
     1
  8
0
  0
ENDSEC
  0
SECTION
  2
ENTITIES
  0
CIRCLE
  5
20
  8
TEAM-INSP
 10
0.0
 20
0.0
 30
0.0
 40
6.923077
  0
POLYLINE
  5
22
  8
TEAM-BODY
 66
     1
 10
0.0
 20
0.0
 30
849.961538
 39
-115.0
  0
VERTEX
  5
211
  8
TEAM-BODY
 10
-225.0
 20
-123.282695
 30
849.961538
  0
VERTEX
  5
212
  8
TEAM-BODY
 10
-225.0
 20
-323.538462
 30
849.961538
 42
0.414214
  0
VERTEX
  5
213
  8
TEAM-BODY
 10
-204.230769
 20
-344.307692
 30
849.961538
  0
VERTEX
  5
214
  8
TEAM-BODY
 10
204.230769
 20
-344.307692
 30
849.961538
 42
0.414214
  0
VERTEX
  5
215
  8
TEAM-BODY
 10
225.0
 20
-323.538462
 30
849.961538
  0
VERTEX
  5
216
  8
TEAM-BODY
 10
225.0
 20
-123.282695
 30
849.961538
  0
SEQEND
  5
217
  8
TEAM-BODY
  0
POLYLINE
  5
24
  8
TEAM-BODY
 66
     1
 10
0.0
 20
0.0
 30
849.961538
 39
-115.0
  0
VERTEX
  5
218
  8
TEAM-BODY
 10
225.0
 20
-123.282695
 30
849.961538
  0
VERTEX
  5
219
  8
TEAM-BODY
 10
225.0
 20
-20.769231
 30
849.961538
 42
0.414214
  0
VERTEX
  5
21A
  8
TEAM-BODY
 10
204.230769
 20
0.0
 30
849.961538
  0
VERTEX
  5
21B
  8
TEAM-BODY
 10
-204.230769
 20
0.0
 30
849.961538
 42
0.414214
  0
VERTEX
  5
21C
  8
TEAM-BODY
 10
-225.0
 20
-20.769231
 30
849.961538
  0
VERTEX
  5
21D
  8
TEAM-BODY
 10
-225.0
 20
-123.282695
 30
849.961538
  0
SEQEND
  5
21E
  8
TEAM-BODY
  0
POLYLINE
  5
25
  8
TEAM-NET
 66
     1
 10
0.0
 20
0.0
 30
0.0
 70
    16
 71
     2
 72
    25
  0
VERTEX
  5
26
  8
TEAM-NET
 10
204.230769
 20
-129.701046
 30
849.961538
 70
    64
  0
VERTEX
  5
27
  8
TEAM-NET
 10
204.230769
 20
-167.897973
 30
849.961538
 70
    64
  0
VERTEX
  5
28
  8
TEAM-NET
 10
204.230769
 20
-200.094901
 30
849.961538
 70
    64
  0
VERTEX
  5
29
  8
TEAM-NET
 10
204.230769
 20
-232.291828
 30
849.961538
 70
    64
  0
VERTEX
  5
2A
  8
TEAM-NET
 10
204.230769
 20
-264.488756
 30
849.961538
 70
    64
  0
VERTEX
  5
2B
  8
TEAM-NET
 10
204.230769
 20
-296.685683
 30
849.961538
 70
    64
  0
VERTEX
  5
2C
  8
TEAM-NET
 10
189.866272
 20
-322.526263
 30
849.961538
 70
    64
  0
VERTEX
  5
2D
  8
TEAM-NET
 10
157.775462
 20
-323.538462
 30
849.961538
 70
    64
  0
VERTEX
  5
2E
  8
TEAM-NET
 10
125.578535
 20
-323.538462
 30
849.961538
 70
    64
  0
VERTEX
  5
2F
  8
TEAM-NET
 10
93.381607
 20
-323.538462
 30
849.961538
 70
    64
  0
VERTEX
  5
30
  8
TEAM-NET
 10
61.18468
 20
-323.538462
 30
849.961538
 70
    64
  0
VERTEX
  5
31
  8
TEAM-NET
 10
28.987752
 20
-323.538462
 30
849.961538
 70
    64
  0
VERTEX
  5
32
  8
TEAM-NET
 10
-3.209175
 20
-323.538462
 30
849.961538
 70
    64
  0
VERTEX
  5
33
  8
TEAM-NET
 10
-35.406103
 20
-323.538462
 30
849.961538
 70
    64
  0
VERTEX
  5
34
  8
TEAM-NET
 10
-67.60303
 20
-323.538462
 30
849.961538
 70
    64
  0
VERTEX
  5
35
  8
TEAM-NET
 10
-99.799958
 20
-323.538462
 30
849.961538
 70
    64
  0
VERTEX
  5
36
  8
TEAM-NET
 10
-131.996885
 20
-323.538462
 30
849.961538
 70
    64
  0
VERTEX
  5
37
  8
TEAM-NET
 10
-164.193813
 20
-323.538462
 30
849.961538
 70
    64
  0
VERTEX
  5
38
  8
TEAM-NET
 10
-195.571702
 20
-319.642431
 30
849.961538
 70
    64
  0
VERTEX
  5
39
  8
TEAM-NET
 10
-204.230769
 20
-290.267333
 30
849.961538
 70
    64
  0
VERTEX
  5
3A
  8
TEAM-NET
 10
-204.230769
 20
-258.070405
 30
849.961538
 70
    64
  0
VERTEX
  5
3B
  8
TEAM-NET
 10
-204.230769
 20
-225.873478
 30
849.961538
 70
    64
  0
VERTEX
  5
3C
  8
TEAM-NET
 10
-204.230769
 20
-193.67655
 30
849.961538
 70
    64
  0
VERTEX
  5
3D
  8
TEAM-NET
 10
-204.230769
 20
-161.479622
 30
849.961538
 70
    64
  0
VERTEX
  5
3E
  8
TEAM-NET
 10
-204.230769
 20
-123.282695
 30
849.961538
 70
    64
  0
VERTEX
  5
3F
  8
TEAM-NET
 10
204.230769
 20
-123.282695
 30
732.269231
 70
    64
  0
VERTEX
  5
40
  8
TEAM-NET
 10
204.230769
 20
-161.747054
 30
732.269231
 70
    64
  0
VERTEX
  5
41
  8
TEAM-NET
 10
204.230769
 20
-194.211413
 30
732.269231
 70
    64
  0
VERTEX
  5
42
  8
TEAM-NET
 10
204.230769
 20
-226.675771
 30
732.269231
 70
    64
  0
VERTEX
  5
43
  8
TEAM-NET
 10
204.230769
 20
-259.14013
 30
732.269231
 70
    64
  0
VERTEX
  5
44
  8
TEAM-NET
 10
204.230769
 20
-291.604489
 30
732.269231
 70
    64
  0
VERTEX
  5
45
  8
TEAM-NET
 10
194.233287
 20
-320.526775
 30
732.269231
 70
    64
  0
VERTEX
  5
46
  8
TEAM-NET
 10
162.321794
 20
-323.538462
 30
732.269231
 70
    64
  0
VERTEX
  5
47
  8
TEAM-NET
 10
129.857435
 20
-323.538462
 30
732.269231
 70
    64
  0
VERTEX
  5
48
  8
TEAM-NET
 10
97.393076
 20
-323.538462
 30
732.269231
 70
    64
  0
VERTEX
  5
49
  8
TEAM-NET
 10
64.928718
 20
-323.538462
 30
732.269231
 70
    64
  0
VERTEX
  5
4A
  8
TEAM-NET
 10
32.464359
 20
-323.538462
 30
732.269231
 70
    64
  0
VERTEX
  5
4B
  8
TEAM-NET
 10
0.0
 20
-323.538462
 30
732.269231
 70
    64
  0
VERTEX
  5
4C
  8
TEAM-NET
 10
-32.464359
 20
-323.538462
 30
732.269231
 70
    64
  0
VERTEX
  5
4D
  8
TEAM-NET
 10
-64.928718
 20
-323.538462
 30
732.269231
 70
    64
  0
VERTEX
  5
4E
  8
TEAM-NET
 10
-97.393076
 20
-323.538462
 30
732.269231
 70
    64
  0
VERTEX
  5
4F
  8
TEAM-NET
 10
-129.857435
 20
-323.538462
 30
732.269231
 70
    64
  0
VERTEX
  5
50
  8
TEAM-NET
 10
-162.321794
 20
-323.538462
 30
732.269231
 70
    64
  0
VERTEX
  5
51
  8
TEAM-NET
 10
-194.233287
 20
-320.526775
 30
732.269231
 70
    64
  0
VERTEX
  5
52
  8
TEAM-NET
 10
-204.230769
 20
-291.604489
 30
732.269231
 70
    64
  0
VERTEX
  5
53
  8
TEAM-NET
 10
-204.230769
 20
-259.14013
 30
732.269231
 70
    64
  0
VERTEX
  5
54
  8
TEAM-NET
 10
-204.230769
 20
-226.675771
 30
732.269231
 70
    64
  0
VERTEX
  5
55
  8
TEAM-NET
 10
-204.230769
 20
-194.211413
 30
732.269231
 70
    64
  0
VERTEX
  5
56
  8
TEAM-NET
 10
-204.230769
 20
-161.747054
 30
732.269231
 70
    64
  0
VERTEX
  5
57
  8
TEAM-NET
 10
-204.230769
 20
-123.282695
 30
732.269231
 70
    64
  0
SEQEND
  5
59
  8
TEAM-NET
  0
POLYLINE
  5
5A
  8
TEAM-NET
 66
     1
 10
0.0
 20
0.0
 30
0.0
 70
    16
 71
     2
 72
    25
  0
VERTEX
  5
5B
  8
TEAM-NET
 10
204.230769
 20
-123.282695
 30
849.961538
 70
    64
  0
VERTEX
  5
5C
  8
TEAM-NET
 10
196.901482
 20
-107.448275
 30
849.961538
 70
    64
  0
VERTEX
  5
5D
  8
TEAM-NET
 10
180.071475
 20
-102.513464
 30
849.961538
 70
    64
  0
VERTEX
  5
5E
  8
TEAM-NET
 10
162.064327
 20
-102.513464
 30
849.961538
 70
    64
  0
VERTEX
  5
5F
  8
TEAM-NET
 10
144.05718
 20
-102.513464
 30
849.961538
 70
    64
  0
VERTEX
  5
60
  8
TEAM-NET
 10
126.050032
 20
-102.513464
 30
849.961538
 70
    64
  0
VERTEX
  5
61
  8
TEAM-NET
 10
108.042885
 20
-102.513464
 30
849.961538
 70
    64
  0
VERTEX
  5
62
  8
TEAM-NET
 10
90.035737
 20
-102.513464
 30
849.961538
 70
    64
  0
VERTEX
  5
63
  8
TEAM-NET
 10
72.02859
 20
-102.513464
 30
849.961538
 70
    64
  0
VERTEX
  5
64
  8
TEAM-NET
 10
54.021442
 20
-102.513464
 30
849.961538
 70
    64
  0
VERTEX
  5
65
  8
TEAM-NET
 10
36.014295
 20
-102.513464
 30
849.961538
 70
    64
  0
VERTEX
  5
66
  8
TEAM-NET
 10
18.007147
 20
-102.513464
 30
849.961538
 70
    64
  0
VERTEX
  5
67
  8
TEAM-NET
 10
0.0
 20
-102.513464
 30
849.961538
 70
    64
  0
VERTEX
  5
68
  8
TEAM-NET
 10
-18.007147
 20
-102.513464
 30
849.961538
 70
    64
  0
VERTEX
  5
69
  8
TEAM-NET
 10
-36.014295
 20
-102.513464
 30
849.961538
 70
    64
  0
VERTEX
  5
6A
  8
TEAM-NET
 10
-54.021442
 20
-102.513464
 30
849.961538
 70
    64
  0
VERTEX
  5
6B
  8
TEAM-NET
 10
-72.02859
 20
-102.513464
 30
849.961538
 70
    64
  0
VERTEX
  5
6C
  8
TEAM-NET
 10
-90.035737
 20
-102.513464
 30
849.961538
 70
    64
  0
VERTEX
  5
6D
  8
TEAM-NET
 10
-108.042885
 20
-102.513464
 30
849.961538
 70
    64
  0
VERTEX
  5
6E
  8
TEAM-NET
 10
-126.050032
 20
-102.513464
 30
849.961538
 70
    64
  0
VERTEX
  5
6F
  8
TEAM-NET
 10
-144.05718
 20
-102.513464
 30
849.961538
 70
    64
  0
VERTEX
  5
70
  8
TEAM-NET
 10
-162.064327
 20
-102.513464
 30
849.961538
 70
    64
  0
VERTEX
  5
71
  8
TEAM-NET
 10
-180.071475
 20
-102.513464
 30
849.961538
 70
    64
  0
VERTEX
  5
72
  8
TEAM-NET
 10
-196.901482
 20
-107.448275
 30
849.961538
 70
    64
  0
VERTEX
  5
73
  8
TEAM-NET
 10
-204.230769
 20
-123.282695
 30
849.961538
 70
    64
  0
VERTEX
  5
74
  8
TEAM-NET
 10
204.230769
 20
-123.282695
 30
732.269231
 70
    64
  0
VERTEX
  5
75
  8
TEAM-NET
 10
196.901482
 20
-107.448275
 30
732.269231
 70
    64
  0
VERTEX
  5
76
  8
TEAM-NET
 10
180.071475
 20
-102.513464
 30
732.269231
 70
    64
  0
VERTEX
  5
77
  8
TEAM-NET
 10
162.064327
 20
-102.513464
 30
732.269231
 70
    64
  0
VERTEX
  5
78
  8
TEAM-NET
 10
144.05718
 20
-102.513464
 30
732.269231
 70
    64
  0
VERTEX
  5
79
  8
TEAM-NET
 10
126.050032
 20
-102.513464
 30
732.269231
 70
    64
  0
VERTEX
  5
7A
  8
TEAM-NET
 10
108.042885
 20
-102.513464
 30
732.269231
 70
    64
  0
VERTEX
  5
7B
  8
TEAM-NET
 10
90.035737
 20
-102.513464
 30
732.269231
 70
    64
  0
VERTEX
  5
7C
  8
TEAM-NET
 10
72.02859
 20
-102.513464
 30
732.269231
 70
    64
  0
VERTEX
  5
7D
  8
TEAM-NET
 10
54.021442
 20
-102.513464
 30
732.269231
 70
    64
  0
VERTEX
  5
7E
  8
TEAM-NET
 10
36.014295
 20
-102.513464
 30
732.269231
 70
    64
  0
VERTEX
  5
7F
  8
TEAM-NET
 10
18.007147
 20
-102.513464
 30
732.269231
 70
    64
  0
VERTEX
  5
80
  8
TEAM-NET
 10
0.0
 20
-102.513464
 30
732.269231
 70
    64
  0
VERTEX
  5
81
  8
TEAM-NET
 10
-18.007147
 20
-102.513464
 30
732.269231
 70
    64
  0
VERTEX
  5
82
  8
TEAM-NET
 10
-36.014295
 20
-102.513464
 30
732.269231
 70
    64
  0
VERTEX
  5
83
  8
TEAM-NET
 10
-54.021442
 20
-102.513464
 30
732.269231
 70
    64
  0
VERTEX
  5
84
  8
TEAM-NET
 10
-72.02859
 20
-102.513464
 30
732.269231
 70
    64
  0
VERTEX
  5
85
  8
TEAM-NET
 10
-90.035737
 20
-102.513464
 30
732.269231
 70
    64
  0
VERTEX
  5
86
  8
TEAM-NET
 10
-108.042885
 20
-102.513464
 30
732.269231
 70
    64
  0
VERTEX
  5
87
  8
TEAM-NET
 10
-126.050032
 20
-102.513464
 30
732.269231
 70
    64
  0
VERTEX
  5
88
  8
TEAM-NET
 10
-144.05718
 20
-102.513464
 30
732.269231
 70
    64
  0
VERTEX
  5
89
  8
TEAM-NET
 10
-162.064327
 20
-102.513464
 30
732.269231
 70
    64
  0
VERTEX
  5
8A
  8
TEAM-NET
 10
-180.071475
 20
-102.513464
 30
732.269231
 70
    64
  0
VERTEX
  5
8B
  8
TEAM-NET
 10
-196.901482
 20
-107.448275
 30
732.269231
 70
    64
  0
VERTEX
  5
8C
  8
TEAM-NET
 10
-204.230769
 20
-123.282695
 30
732.269231
 70
    64
  0
SEQEND
  5
8D
  8
TEAM-NET
  0
POLYLINE
  5
8E
  8
TEAM-NET
 66
     1
 10
0.0
 20
0.0
 30
0.0
 70
    16
 71
     2
 72
    25
  0
VERTEX
  5
8F
  8
TEAM-NET
 10
204.230769
 20
-129.701046
 30
732.269231
 70
    64
  0
VERTEX
  5
90
  8
TEAM-NET
 10
204.230769
 20
-167.897973
 30
732.269231
 70
    64
  0
VERTEX
  5
91
  8
TEAM-NET
 10
204.230769
 20
-200.094901
 30
732.269231
 70
    64
  0
VERTEX
  5
92
  8
TEAM-NET
 10
204.230769
 20
-232.291828
 30
732.269231
 70
    64
  0
VERTEX
  5
93
  8
TEAM-NET
 10
204.230769
 20
-264.488756
 30
732.269231
 70
    64
  0
VERTEX
  5
94
  8
TEAM-NET
 10
204.230769
 20
-296.685683
 30
732.269231
 70
    64
  0
VERTEX
  5
95
  8
TEAM-NET
 10
189.866272
 20
-322.526263
 30
732.269231
 70
    64
  0
VERTEX
  5
96
  8
TEAM-NET
 10
157.775462
 20
-323.538462
 30
732.269231
 70
    64
  0
VERTEX
  5
97
  8
TEAM-NET
 10
125.578535
 20
-323.538462
 30
732.269231
 70
    64
  0
VERTEX
  5
98
  8
TEAM-NET
 10
93.381607
 20
-323.538462
 30
732.269231
 70
    64
  0
VERTEX
  5
99
  8
TEAM-NET
 10
61.18468
 20
-323.538462
 30
732.269231
 70
    64
  0
VERTEX
  5
9A
  8
TEAM-NET
 10
28.987752
 20
-323.538462
 30
732.269231
 70
    64
  0
VERTEX
  5
9B
  8
TEAM-NET
 10
-3.209175
 20
-323.538462
 30
732.269231
 70
    64
  0
VERTEX
  5
9C
  8
TEAM-NET
 10
-35.406103
 20
-323.538462
 30
732.269231
 70
    64
  0
VERTEX
  5
9D
  8
TEAM-NET
 10
-67.60303
 20
-323.538462
 30
732.269231
 70
    64
  0
VERTEX
  5
9E
  8
TEAM-NET
 10
-99.799958
 20
-323.538462
 30
732.269231
 70
    64
  0
VERTEX
  5
9F
  8
TEAM-NET
 10
-131.996885
 20
-323.538462
 30
732.269231
 70
    64
  0
VERTEX
  5
A0
  8
TEAM-NET
 10
-164.193813
 20
-323.538462
 30
732.269231
 70
    64
  0
VERTEX
  5
A1
  8
TEAM-NET
 10
-195.571702
 20
-319.642431
 30
732.269231
 70
    64
  0
VERTEX
  5
A2
  8
TEAM-NET
 10
-204.230769
 20
-290.267333
 30
732.269231
 70
    64
  0
VERTEX
  5
A3
  8
TEAM-NET
 10
-204.230769
 20
-258.070405
 30
732.269231
 70
    64
  0
VERTEX
  5
A4
  8
TEAM-NET
 10
-204.230769
 20
-225.873478
 30
732.269231
 70
    64
  0
VERTEX
  5
A5
  8
TEAM-NET
 10
-204.230769
 20
-193.67655
 30
732.269231
 70
    64
  0
VERTEX
  5
A6
  8
TEAM-NET
 10
-204.230769
 20
-161.479622
 30
732.269231
 70
    64
  0
VERTEX
  5
A7
  8
TEAM-NET
 10
-204.230769
 20
-123.282695
 30
732.269231
 70
    64
  0
VERTEX
  5
A8
  8
TEAM-NET
 10
204.230769
 20
-123.282695
 30
732.269231
 70
    64
  0
VERTEX
  5
A9
  8
TEAM-NET
 10
196.901482
 20
-107.448275
 30
732.269231
 70
    64
  0
VERTEX
  5
AA
  8
TEAM-NET
 10
180.071475
 20
-102.513464
 30
732.269231
 70
    64
  0
VERTEX
  5
AB
  8
TEAM-NET
 10
162.064327
 20
-102.513464
 30
732.269231
 70
    64
  0
VERTEX
  5
AC
  8
TEAM-NET
 10
144.05718
 20
-102.513464
 30
732.269231
 70
    64
  0
VERTEX
  5
AD
  8
TEAM-NET
 10
126.050032
 20
-102.513464
 30
732.269231
 70
    64
  0
VERTEX
  5
AE
  8
TEAM-NET
 10
108.042885
 20
-102.513464
 30
732.269231
 70
    64
  0
VERTEX
  5
AF
  8
TEAM-NET
 10
90.035737
 20
-102.513464
 30
732.269231
 70
    64
  0
VERTEX
  5
B0
  8
TEAM-NET
 10
72.02859
 20
-102.513464
 30
732.269231
 70
    64
  0
VERTEX
  5
B1
  8
TEAM-NET
 10
54.021442
 20
-102.513464
 30
732.269231
 70
    64
  0
VERTEX
  5
B2
  8
TEAM-NET
 10
36.014295
 20
-102.513464
 30
732.269231
 70
    64
  0
VERTEX
  5
B3
  8
TEAM-NET
 10
18.007147
 20
-102.513464
 30
732.269231
 70
    64
  0
VERTEX
  5
B4
  8
TEAM-NET
 10
0.0
 20
-102.513464
 30
732.269231
 70
    64
  0
VERTEX
  5
B5
  8
TEAM-NET
 10
-18.007147
 20
-102.513464
 30
732.269231
 70
    64
  0
VERTEX
  5
B6
  8
TEAM-NET
 10
-36.014295
 20
-102.513464
 30
732.269231
 70
    64
  0
VERTEX
  5
B7
  8
TEAM-NET
 10
-54.021442
 20
-102.513464
 30
732.269231
 70
    64
  0
VERTEX
  5
B8
  8
TEAM-NET
 10
-72.02859
 20
-102.513464
 30
732.269231
 70
    64
  0
VERTEX
  5
B9
  8
TEAM-NET
 10
-90.035737
 20
-102.513464
 30
732.269231
 70
    64
  0
VERTEX
  5
BA
  8
TEAM-NET
 10
-108.042885
 20
-102.513464
 30
732.269231
 70
    64
  0
VERTEX
  5
BB
  8
TEAM-NET
 10
-126.050032
 20
-102.513464
 30
732.269231
 70
    64
  0
VERTEX
  5
BC
  8
TEAM-NET
 10
-144.05718
 20
-102.513464
 30
732.269231
 70
    64
  0
VERTEX
  5
BD
  8
TEAM-NET
 10
-162.064327
 20
-102.513464
 30
732.269231
 70
    64
  0
VERTEX
  5
BE
  8
TEAM-NET
 10
-180.071475
 20
-102.513464
 30
732.269231
 70
    64
  0
VERTEX
  5
BF
  8
TEAM-NET
 10
-196.901482
 20
-107.448275
 30
732.269231
 70
    64
  0
VERTEX
  5
C0
  8
TEAM-NET
 10
-204.230769
 20
-123.282695
 30
732.269231
 70
    64
  0
SEQEND
  5
C1
  8
TEAM-NET
  0
POLYLINE
  5
C2
  8
TEAM-DET3
 66
     1
 10
0.0
 20
0.0
 30
734.969231
  0
VERTEX
  5
21F
  8
TEAM-DET3
 10
-204.230769
 20
-123.282695
 30
734.969231
  0
VERTEX
  5
220
  8
TEAM-DET3
 10
-204.230769
 20
-302.769231
 30
734.969231
 42
0.414214
  0
VERTEX
  5
221
  8
TEAM-DET3
 10
-183.461538
 20
-323.538462
 30
734.969231
  0
VERTEX
  5
222
  8
TEAM-DET3
 10
183.461538
 20
-323.538462
 30
734.969231
 42
0.414214
  0
VERTEX
  5
223
  8
TEAM-DET3
 10
204.230769
 20
-302.769231
 30
734.969231
  0
VERTEX
  5
224
  8
TEAM-DET3
 10
204.230769
 20
-123.282695
 30
734.969231
  0
SEQEND
  5
225
  8
TEAM-DET3
  0
POLYLINE
  5
C4
  8
TEAM-DET3
 66
     1
 10
0.0
 20
0.0
 30
734.969231
  0
VERTEX
  5
226
  8
TEAM-DET3
 10
204.230769
 20
-123.282695
 30
734.969231
 42
0.414214
  0
VERTEX
  5
227
  8
TEAM-DET3
 10
183.461538
 20
-102.513464
 30
734.969231
  0
VERTEX
  5
228
  8
TEAM-DET3
 10
-183.461538
 20
-102.513464
 30
734.969231
 42
0.414214
  0
VERTEX
  5
229
  8
TEAM-DET3
 10
-204.230769
 20
-123.282695
 30
734.969231
  0
SEQEND
  5
22A
  8
TEAM-DET3
  0
CIRCLE
  5
C5
  8
TEAM-KAN
 10
0.0
 20
-170.992022
 30
746.115385
 40
13.846154
  0
LINE
  5
C7
  8
TEAM-AXE
 10
-24.230769
 20
-170.992022
 30
746.115385
 11
24.230769
 21
-170.992022
 31
746.115385
  0
CIRCLE
  5
CA
  8
TEAM-DET1
 10
0.0
 20
-170.992022
 30
746.115385
 40
20.769231
  0
LINE
  5
CC
  8
TEAM-AXE
 10
0.0
 20
-195.222791
 30
746.115385
 11
0.0
 21
-140.761253
 31
746.115385
  0
POLYLINE
  5
CD
  8
TEAM-NET
 66
     1
 10
0.0
 20
0.0
 30
0.0
 70
    16
 71
     2
 72
    25
  0
VERTEX
  5
CE
  8
TEAM-NET
 10
204.230769
 20
-123.282695
 30
849.961538
 70
    64
  0
VERTEX
  5
CF
  8
TEAM-NET
 10
204.230769
 20
-97.493724
 30
849.961538
 70
    64
  0
VERTEX
  5
D0
  8
TEAM-NET
 10
204.230769
 20
-65.704754
 30
849.961538
 70
    64
  0
VERTEX
  5
D1
  8
TEAM-NET
 10
204.230769
 20
-39.915784
 30
849.961538
 70
    64
  0
VERTEX
  5
D2
  8
TEAM-NET
 10
201.973076
 20
-14.483605
 30
849.961538
 70
    64
  0
VERTEX
  5
D3
  8
TEAM-NET
 10
180.522793
 20
-3.131589
 30
849.961538
 70
    64
  0
VERTEX
  5
D4
  8
TEAM-NET
 10
154.733823
 20
-3.131589
 30
849.961538
 70
    64
  0
VERTEX
  5
D5
  8
TEAM-NET
 10
128.944852
 20
-3.131589
 30
849.961538
 70
    64
  0
VERTEX
  5
D6
  8
TEAM-NET
 10
103.155882
 20
-3.131589
 30
849.961538
 70
    64
  0
VERTEX
  5
D7
  8
TEAM-NET
 10
77.366911
 20
-3.131589
 30
849.961538
 70
    64
  0
VERTEX
  5
D8
  8
TEAM-NET
 10
51.577941
 20
-3.131589
 30
849.961538
 70
    64
  0
VERTEX
  5
D9
  8
TEAM-NET
 10
25.78897
 20
-3.131589
 30
849.961538
 70
    64
  0
VERTEX
  5
DA
  8
TEAM-NET
 10
0.0
 20
-3.131589
 30
849.961538
 70
    64
  0
VERTEX
  5
DB
  8
TEAM-NET
 10
-25.78897
 20
-3.131589
 30
849.961538
 70
    64
  0
VERTEX
  5
DC
  8
TEAM-NET
 10
-51.577941
 20
-3.131589
 30
849.961538
 70
    64
  0
VERTEX
  5
DD
  8
TEAM-NET
 10
-77.366911
 20
-3.131589
 30
849.961538
 70
    64
  0
VERTEX
  5
DE
  8
TEAM-NET
 10
-103.155882
 20
-3.131589
 30
849.961538
 70
    64
  0
VERTEX
  5
DF
  8
TEAM-NET
 10
-128.944852
 20
-3.131589
 30
849.961538
 70
    64
  0
VERTEX
  5
E0
  8
TEAM-NET
 10
-154.733823
 20
-3.131589
 30
849.961538
 70
    64
  0
VERTEX
  5
E1
  8
TEAM-NET
 10
-180.522793
 20
-3.131589
 30
849.961538
 70
    64
  0
VERTEX
  5
E2
  8
TEAM-NET
 10
-201.973076
 20
-14.483605
 30
849.961538
 70
    64
  0
VERTEX
  5
E3
  8
TEAM-NET
 10
-204.230769
 20
-39.915784
 30
849.961538
 70
    64
  0
VERTEX
  5
E4
  8
TEAM-NET
 10
-204.230769
 20
-65.704754
 30
849.961538
 70
    64
  0
VERTEX
  5
E5
  8
TEAM-NET
 10
-204.230769
 20
-97.493724
 30
849.961538
 70
    64
  0
VERTEX
  5
E6
  8
TEAM-NET
 10
-204.230769
 20
-123.282695
 30
849.961538
 70
    64
  0
VERTEX
  5
E7
  8
TEAM-NET
 10
225.0
 20
-123.282695
 30
849.961538
 70
    64
  0
VERTEX
  5
E8
  8
TEAM-NET
 10
225.0
 20
-95.50199
 30
849.961538
 70
    64
  0
VERTEX
  5
E9
  8
TEAM-NET
 10
225.0
 20
-61.721284
 30
849.961538
 70
    64
  0
VERTEX
  5
EA
  8
TEAM-NET
 10
225.0
 20
-33.940579
 30
849.961538
 70
    64
  0
VERTEX
  5
EB
  8
TEAM-NET
 10
220.070188
 20
-7.335179
 30
849.961538
 70
    64
  0
VERTEX
  5
EC
  8
TEAM-NET
 10
194.464938
 20
0.0
 30
849.961538
 70
    64
  0
VERTEX
  5
ED
  8
TEAM-NET
 10
166.684232
 20
0.0
 30
849.961538
 70
    64
  0
VERTEX
  5
EE
  8
TEAM-NET
 10
138.903527
 20
0.0
 30
849.961538
 70
    64
  0
VERTEX
  5
EF
  8
TEAM-NET
 10
111.122822
 20
0.0
 30
849.961538
 70
    64
  0
VERTEX
  5
F0
  8
TEAM-NET
 10
83.342116
 20
0.0
 30
849.961538
 70
    64
  0
VERTEX
  5
F1
  8
TEAM-NET
 10
55.561411
 20
0.0
 30
849.961538
 70
    64
  0
VERTEX
  5
F2
  8
TEAM-NET
 10
27.780705
 20
0.0
 30
849.961538
 70
    64
  0
VERTEX
  5
F3
  8
TEAM-NET
 10
0.0
 20
0.0
 30
849.961538
 70
    64
  0
VERTEX
  5
F4
  8
TEAM-NET
 10
-27.780705
 20
0.0
 30
849.961538
 70
    64
  0
VERTEX
  5
F5
  8
TEAM-NET
 10
-55.561411
 20
0.0
 30
849.961538
 70
    64
  0
VERTEX
  5
F6
  8
TEAM-NET
 10
-83.342116
 20
0.0
 30
849.961538
 70
    64
  0
VERTEX
  5
F7
  8
TEAM-NET
 10
-111.122822
 20
0.0
 30
849.961538
 70
    64
  0
VERTEX
  5
F8
  8
TEAM-NET
 10
-138.903527
 20
0.0
 30
849.961538
 70
    64
  0
VERTEX
  5
F9
  8
TEAM-NET
 10
-166.684232
 20
0.0
 30
849.961538
 70
    64
  0
VERTEX
  5
FA
  8
TEAM-NET
 10
-194.464938
 20
0.0
 30
849.961538
 70
    64
  0
VERTEX
  5
FB
  8
TEAM-NET
 10
-220.070188
 20
-7.335179
 30
849.961538
 70
    64
  0
VERTEX
  5
FC
  8
TEAM-NET
 10
-225.0
 20
-33.940579
 30
849.961538
 70
    64
  0
VERTEX
  5
FD
  8
TEAM-NET
 10
-225.0
 20
-61.721284
 30
849.961538
 70
    64
  0
VERTEX
  5
FE
  8
TEAM-NET
 10
-225.0
 20
-95.50199
 30
849.961538
 70
    64
  0
VERTEX
  5
FF
  8
TEAM-NET
 10
-225.0
 20
-123.282695
 30
849.961538
 70
    64
  0
SEQEND
  5
100
  8
TEAM-NET
  0
POLYLINE
  5
101
  8
TEAM-NET
 66
     1
 10
0.0
 20
0.0
 30
0.0
 70
    16
 71
     2
 72
    25
  0
VERTEX
  5
102
  8
TEAM-NET
 10
204.230769
 20
-123.282695
 30
849.961538
 70
    64
  0
VERTEX
  5
103
  8
TEAM-NET
 10
196.901482
 20
-107.448275
 30
849.961538
 70
    64
  0
VERTEX
  5
104
  8
TEAM-NET
 10
180.071475
 20
-102.513464
 30
849.961538
 70
    64
  0
VERTEX
  5
105
  8
TEAM-NET
 10
162.064327
 20
-102.513464
 30
849.961538
 70
    64
  0
VERTEX
  5
106
  8
TEAM-NET
 10
144.05718
 20
-102.513464
 30
849.961538
 70
    64
  0
VERTEX
  5
107
  8
TEAM-NET
 10
126.050032
 20
-102.513464
 30
849.961538
 70
    64
  0
VERTEX
  5
108
  8
TEAM-NET
 10
108.042885
 20
-102.513464
 30
849.961538
 70
    64
  0
VERTEX
  5
109
  8
TEAM-NET
 10
90.035737
 20
-102.513464
 30
849.961538
 70
    64
  0
VERTEX
  5
10A
  8
TEAM-NET
 10
72.02859
 20
-102.513464
 30
849.961538
 70
    64
  0
VERTEX
  5
10B
  8
TEAM-NET
 10
54.021442
 20
-102.513464
 30
849.961538
 70
    64
  0
VERTEX
  5
10C
  8
TEAM-NET
 10
36.014295
 20
-102.513464
 30
849.961538
 70
    64
  0
VERTEX
  5
10D
  8
TEAM-NET
 10
18.007147
 20
-102.513464
 30
849.961538
 70
    64
  0
VERTEX
  5
10E
  8
TEAM-NET
 10
0.0
 20
-102.513464
 30
849.961538
 70
    64
  0
VERTEX
  5
10F
  8
TEAM-NET
 10
-18.007147
 20
-102.513464
 30
849.961538
 70
    64
  0
VERTEX
  5
110
  8
TEAM-NET
 10
-36.014295
 20
-102.513464
 30
849.961538
 70
    64
  0
VERTEX
  5
111
  8
TEAM-NET
 10
-54.021442
 20
-102.513464
 30
849.961538
 70
    64
  0
VERTEX
  5
112
  8
TEAM-NET
 10
-72.02859
 20
-102.513464
 30
849.961538
 70
    64
  0
VERTEX
  5
113
  8
TEAM-NET
 10
-90.035737
 20
-102.513464
 30
849.961538
 70
    64
  0
VERTEX
  5
114
  8
TEAM-NET
 10
-108.042885
 20
-102.513464
 30
849.961538
 70
    64
  0
VERTEX
  5
115
  8
TEAM-NET
 10
-126.050032
 20
-102.513464
 30
849.961538
 70
    64
  0
VERTEX
  5
116
  8
TEAM-NET
 10
-144.05718
 20
-102.513464
 30
849.961538
 70
    64
  0
VERTEX
  5
117
  8
TEAM-NET
 10
-162.064327
 20
-102.513464
 30
849.961538
 70
    64
  0
VERTEX
  5
118
  8
TEAM-NET
 10
-180.071475
 20
-102.513464
 30
849.961538
 70
    64
  0
VERTEX
  5
119
  8
TEAM-NET
 10
-196.901482
 20
-107.448275
 30
849.961538
 70
    64
  0
VERTEX
  5
11A
  8
TEAM-NET
 10
-204.230769
 20
-123.282695
 30
849.961538
 70
    64
  0
VERTEX
  5
11B
  8
TEAM-NET
 10
204.230769
 20
-123.282695
 30
849.961538
 70
    64
  0
VERTEX
  5
11C
  8
TEAM-NET
 10
204.230769
 20
-97.493724
 30
849.961538
 70
    64
  0
VERTEX
  5
11D
  8
TEAM-NET
 10
204.230769
 20
-65.704754
 30
849.961538
 70
    64
  0
VERTEX
  5
11E
  8
TEAM-NET
 10
204.230769
 20
-39.915784
 30
849.961538
 70
    64
  0
VERTEX
  5
11F
  8
TEAM-NET
 10
201.973076
 20
-14.483605
 30
849.961538
 70
    64
  0
VERTEX
  5
120
  8
TEAM-NET
 10
180.522793
 20
-3.131589
 30
849.961538
 70
    64
  0
VERTEX
  5
121
  8
TEAM-NET
 10
154.733823
 20
-3.131589
 30
849.961538
 70
    64
  0
VERTEX
  5
122
  8
TEAM-NET
 10
128.944852
 20
-3.131589
 30
849.961538
 70
    64
  0
VERTEX
  5
123
  8
TEAM-NET
 10
103.155882
 20
-3.131589
 30
849.961538
 70
    64
  0
VERTEX
  5
124
  8
TEAM-NET
 10
77.366911
 20
-3.131589
 30
849.961538
 70
    64
  0
VERTEX
  5
125
  8
TEAM-NET
 10
51.577941
 20
-3.131589
 30
849.961538
 70
    64
  0
VERTEX
  5
126
  8
TEAM-NET
 10
25.78897
 20
-3.131589
 30
849.961538
 70
    64
  0
VERTEX
  5
127
  8
TEAM-NET
 10
0.0
 20
-3.131589
 30
849.961538
 70
    64
  0
VERTEX
  5
128
  8
TEAM-NET
 10
-25.78897
 20
-3.131589
 30
849.961538
 70
    64
  0
VERTEX
  5
129
  8
TEAM-NET
 10
-51.577941
 20
-3.131589
 30
849.961538
 70
    64
  0
VERTEX
  5
12A
  8
TEAM-NET
 10
-77.366911
 20
-3.131589
 30
849.961538
 70
    64
  0
VERTEX
  5
12B
  8
TEAM-NET
 10
-103.155882
 20
-3.131589
 30
849.961538
 70
    64
  0
VERTEX
  5
12C
  8
TEAM-NET
 10
-128.944852
 20
-3.131589
 30
849.961538
 70
    64
  0
VERTEX
  5
12D
  8
TEAM-NET
 10
-154.733823
 20
-3.131589
 30
849.961538
 70
    64
  0
VERTEX
  5
12E
  8
TEAM-NET
 10
-180.522793
 20
-3.131589
 30
849.961538
 70
    64
  0
VERTEX
  5
12F
  8
TEAM-NET
 10
-201.973076
 20
-14.483605
 30
849.961538
 70
    64
  0
VERTEX
  5
130
  8
TEAM-NET
 10
-204.230769
 20
-39.915784
 30
849.961538
 70
    64
  0
VERTEX
  5
131
  8
TEAM-NET
 10
-204.230769
 20
-65.704754
 30
849.961538
 70
    64
  0
VERTEX
  5
132
  8
TEAM-NET
 10
-204.230769
 20
-97.493724
 30
849.961538
 70
    64
  0
VERTEX
  5
133
  8
TEAM-NET
 10
-204.230769
 20
-123.282695
 30
849.961538
 70
    64
  0
SEQEND
  5
134
  8
TEAM-NET
  0
POLYLINE
  5
135
  8
TEAM-NET
 66
     1
 10
0.0
 20
0.0
 30
0.0
 70
    16
 71
     2
 72
    25
  0
VERTEX
  5
136
  8
TEAM-NET
 10
204.230769
 20
-129.701046
 30
849.961538
 70
    64
  0
VERTEX
  5
137
  8
TEAM-NET
 10
204.230769
 20
-167.897973
 30
849.961538
 70
    64
  0
VERTEX
  5
138
  8
TEAM-NET
 10
204.230769
 20
-200.094901
 30
849.961538
 70
    64
  0
VERTEX
  5
139
  8
TEAM-NET
 10
204.230769
 20
-232.291828
 30
849.961538
 70
    64
  0
VERTEX
  5
13A
  8
TEAM-NET
 10
204.230769
 20
-264.488756
 30
849.961538
 70
    64
  0
VERTEX
  5
13B
  8
TEAM-NET
 10
204.230769
 20
-296.685683
 30
849.961538
 70
    64
  0
VERTEX
  5
13C
  8
TEAM-NET
 10
189.866272
 20
-322.526263
 30
849.961538
 70
    64
  0
VERTEX
  5
13D
  8
TEAM-NET
 10
157.775462
 20
-323.538462
 30
849.961538
 70
    64
  0
VERTEX
  5
13E
  8
TEAM-NET
 10
125.578535
 20
-323.538462
 30
849.961538
 70
    64
  0
VERTEX
  5
13F
  8
TEAM-NET
 10
93.381607
 20
-323.538462
 30
849.961538
 70
    64
  0
VERTEX
  5
140
  8
TEAM-NET
 10
61.18468
 20
-323.538462
 30
849.961538
 70
    64
  0
VERTEX
  5
141
  8
TEAM-NET
 10
28.987752
 20
-323.538462
 30
849.961538
 70
    64
  0
VERTEX
  5
142
  8
TEAM-NET
 10
-3.209175
 20
-323.538462
 30
849.961538
 70
    64
  0
VERTEX
  5
143
  8
TEAM-NET
 10
-35.406103
 20
-323.538462
 30
849.961538
 70
    64
  0
VERTEX
  5
144
  8
TEAM-NET
 10
-67.60303
 20
-323.538462
 30
849.961538
 70
    64
  0
VERTEX
  5
145
  8
TEAM-NET
 10
-99.799958
 20
-323.538462
 30
849.961538
 70
    64
  0
VERTEX
  5
146
  8
TEAM-NET
 10
-131.996885
 20
-323.538462
 30
849.961538
 70
    64
  0
VERTEX
  5
147
  8
TEAM-NET
 10
-164.193813
 20
-323.538462
 30
849.961538
 70
    64
  0
VERTEX
  5
148
  8
TEAM-NET
 10
-195.571702
 20
-319.642431
 30
849.961538
 70
    64
  0
VERTEX
  5
149
  8
TEAM-NET
 10
-204.230769
 20
-290.267333
 30
849.961538
 70
    64
  0
VERTEX
  5
14A
  8
TEAM-NET
 10
-204.230769
 20
-258.070405
 30
849.961538
 70
    64
  0
VERTEX
  5
14B
  8
TEAM-NET
 10
-204.230769
 20
-225.873478
 30
849.961538
 70
    64
  0
VERTEX
  5
14C
  8
TEAM-NET
 10
-204.230769
 20
-193.67655
 30
849.961538
 70
    64
  0
VERTEX
  5
14D
  8
TEAM-NET
 10
-204.230769
 20
-161.479622
 30
849.961538
 70
    64
  0
VERTEX
  5
14E
  8
TEAM-NET
 10
-204.230769
 20
-123.282695
 30
849.961538
 70
    64
  0
VERTEX
  5
14F
  8
TEAM-NET
 10
225.0
 20
-123.282695
 30
849.961538
 70
    64
  0
VERTEX
  5
150
  8
TEAM-NET
 10
225.0
 20
-165.208592
 30
849.961538
 70
    64
  0
VERTEX
  5
151
  8
TEAM-NET
 10
225.0
 20
-201.134489
 30
849.961538
 70
    64
  0
VERTEX
  5
152
  8
TEAM-NET
 10
225.0
 20
-237.060387
 30
849.961538
 70
    64
  0
VERTEX
  5
153
  8
TEAM-NET
 10
225.0
 20
-272.986284
 30
849.961538
 70
    64
  0
VERTEX
  5
154
  8
TEAM-NET
 10
225.0
 20
-308.912181
 30
849.961538
 70
    64
  0
VERTEX
  5
155
  8
TEAM-NET
 10
215.002518
 20
-341.296006
 30
849.961538
 70
    64
  0
VERTEX
  5
156
  8
TEAM-NET
 10
179.629486
 20
-344.307692
 30
849.961538
 70
    64
  0
VERTEX
  5
157
  8
TEAM-NET
 10
143.703589
 20
-344.307692
 30
849.961538
 70
    64
  0
VERTEX
  5
158
  8
TEAM-NET
 10
107.777692
 20
-344.307692
 30
849.961538
 70
    64
  0
VERTEX
  5
159
  8
TEAM-NET
 10
71.851795
 20
-344.307692
 30
849.961538
 70
    64
  0
VERTEX
  5
15A
  8
TEAM-NET
 10
35.925897
 20
-344.307692
 30
849.961538
 70
    64
  0
VERTEX
  5
15B
  8
TEAM-NET
 10
0.0
 20
-344.307692
 30
849.961538
 70
    64
  0
VERTEX
  5
15C
  8
TEAM-NET
 10
-35.925897
 20
-344.307692
 30
849.961538
 70
    64
  0
VERTEX
  5
15D
  8
TEAM-NET
 10
-71.851795
 20
-344.307692
 30
849.961538
 70
    64
  0
VERTEX
  5
15E
  8
TEAM-NET
 10
-107.777692
 20
-344.307692
 30
849.961538
 70
    64
  0
VERTEX
  5
15F
  8
TEAM-NET
 10
-143.703589
 20
-344.307692
 30
849.961538
 70
    64
  0
VERTEX
  5
160
  8
TEAM-NET
 10
-179.629486
 20
-344.307692
 30
849.961538
 70
    64
  0
VERTEX
  5
161
  8
TEAM-NET
 10
-215.002518
 20
-341.296006
 30
849.961538
 70
    64
  0
VERTEX
  5
162
  8
TEAM-NET
 10
-225.0
 20
-308.912181
 30
849.961538
 70
    64
  0
VERTEX
  5
163
  8
TEAM-NET
 10
-225.0
 20
-272.986284
 30
849.961538
 70
    64
  0
VERTEX
  5
164
  8
TEAM-NET
 10
-225.0
 20
-237.060387
 30
849.961538
 70
    64
  0
VERTEX
  5
165
  8
TEAM-NET
 10
-225.0
 20
-201.134489
 30
849.961538
 70
    64
  0
VERTEX
  5
166
  8
TEAM-NET
 10
-225.0
 20
-165.208592
 30
849.961538
 70
    64
  0
VERTEX
  5
167
  8
TEAM-NET
 10
-225.0
 20
-123.282695
 30
849.961538
 70
    64
  0
SEQEND
  5
168
  8
TEAM-NET
  0
POLYLINE
  5
169
  8
TEAM-BODY
 66
     1
 10
0.0
 20
0.0
 30
849.961538
  0
VERTEX
  5
22B
  8
TEAM-BODY
 10
204.230769
 20
-123.282695
 30
849.961538
 42
0.414214
  0
VERTEX
  5
22C
  8
TEAM-BODY
 10
183.461538
 20
-102.513464
 30
849.961538
  0
VERTEX
  5
22D
  8
TEAM-BODY
 10
-183.461538
 20
-102.513464
 30
849.961538
 42
0.414214
  0
VERTEX
  5
22E
  8
TEAM-BODY
 10
-204.230769
 20
-123.282695
 30
849.961538
  0
SEQEND
  5
22F
  8
TEAM-BODY
  0
POLYLINE
  5
16A
  8
TEAM-BODY
 66
     1
 10
0.0
 20
0.0
 30
849.961538
  0
VERTEX
  5
230
  8
TEAM-BODY
 10
204.230769
 20
-123.282695
 30
849.961538
  0
VERTEX
  5
231
  8
TEAM-BODY
 10
204.230769
 20
-23.90082
 30
849.961538
 42
0.414214
  0
VERTEX
  5
232
  8
TEAM-BODY
 10
183.461538
 20
-3.131589
 30
849.961538
  0
VERTEX
  5
233
  8
TEAM-BODY
 10
-183.461538
 20
-3.131589
 30
849.961538
 42
0.414214
  0
VERTEX
  5
234
  8
TEAM-BODY
 10
-204.230769
 20
-23.90082
 30
849.961538
  0
VERTEX
  5
235
  8
TEAM-BODY
 10
-204.230769
 20
-123.282695
 30
849.961538
  0
SEQEND
  5
236
  8
TEAM-BODY
  0
POLYLINE
  5
16B
  8
TEAM-BODY
 66
     1
 10
0.0
 20
0.0
 30
849.961538
  0
VERTEX
  5
237
  8
TEAM-BODY
 10
-204.230769
 20
-123.282695
 30
849.961538
  0
VERTEX
  5
238
  8
TEAM-BODY
 10
-204.230769
 20
-302.769231
 30
849.961538
 42
0.414214
  0
VERTEX
  5
239
  8
TEAM-BODY
 10
-183.461538
 20
-323.538462
 30
849.961538
  0
VERTEX
  5
23A
  8
TEAM-BODY
 10
183.461538
 20
-323.538462
 30
849.961538
 42
0.414214
  0
VERTEX
  5
23B
  8
TEAM-BODY
 10
204.230769
 20
-302.769231
 30
849.961538
  0
VERTEX
  5
23C
  8
TEAM-BODY
 10
204.230769
 20
-129.701046
 30
849.961538
  0
SEQEND
  5
23D
  8
TEAM-BODY
  0
POLYLINE
  5
16C
  8
TEAM-BODY
 66
     1
 10
0.0
 20
0.0
 30
849.961538
  0
VERTEX
  5
23E
  8
TEAM-BODY
 10
-204.230769
 20
-123.282695
 30
849.961538
  0
VERTEX
  5
23F
  8
TEAM-BODY
 10
-204.230769
 20
-302.769231
 30
849.961538
 42
0.414214
  0
VERTEX
  5
240
  8
TEAM-BODY
 10
-183.461538
 20
-323.538462
 30
849.961538
  0
VERTEX
  5
241
  8
TEAM-BODY
 10
183.461538
 20
-323.538462
 30
849.961538
 42
0.414214
  0
VERTEX
  5
242
  8
TEAM-BODY
 10
204.230769
 20
-302.769231
 30
849.961538
  0
VERTEX
  5
243
  8
TEAM-BODY
 10
204.230769
 20
-123.282695
 30
849.961538
  0
SEQEND
  5
244
  8
TEAM-BODY
  0
TEXT
  5
16D
  8
TEAM-TXT
 10
-200.556437
 20
-40.131642
 30
849.961538
 40
17.307692
  1
team 221035
 41
0.8
 51
15.0
  7
TEAM
  0
CIRCLE
  5
170
  8
TEAM-DET1
 10
0.0
 20
-46.63366
 30
849.961538
 40
13.846154
  0
LINE
  5
171
  8
TEAM-AXE
 10
0.0
 20
-63.941352
 30
849.961538
 11
0.0
 21
-29.325968
 31
849.961538
  0
LINE
  5
172
  8
TEAM-AXE
 10
-17.307692
 20
-46.63366
 30
849.961538
 11
17.307692
 21
-46.63366
 31
849.961538
  0
ENDSEC
  0
EOF
