  0
SECTION
  2
HEADER
  9
$ACADVER
  1
AC1009
  9
$INSBASE
 10
0.0
 20
0.0
 30
0.0
  9
$EXTMIN
 10
-232.134221
 20
-326.213397
 30
-0.060371
  9
$EXTMAX
 10
230.349754
 20
10.020334
 30
989.296228
  9
$LIMMIN
 10
-232.134221
 20
-326.213397
  9
$LIMMAX
 10
230.349754
 20
10.020334
  9
$ORTHOMODE
 70
     1
  9
$REGENMODE
 70
     1
  9
$FILLMODE
 70
     1
  9
$QTEXTMODE
 70
     0
  9
$MIRRTEXT
 70
     0
  9
$DRAGMODE
 70
     2
  9
$LTSCALE
 40
25.0
  9
$OSMODE
 70
     0
  9
$ATTMODE
 70
     1
  9
$TEXTSIZE
 40
200.0
  9
$TRACEWID
 40
1.0
  9
$TEXTSTYLE
  7
STANDARD
  9
$CLAYER
  8
TEAM-MAS
  9
$CELTYPE
  6
BYLAYER
  9
$CECOLOR
 62
   256
  9
$DIMSCALE
 40
1.0
  9
$DIMASZ
 40
20.0
  9
$DIMEXO
 40
10.0
  9
$DIMDLI
 40
1.0
  9
$DIMRND
 40
0.0
  9
$DIMDLE
 40
0.0
  9
$DIMEXE
 40
1.0
  9
$DIMTP
 40
0.0
  9
$DIMTM
 40
0.0
  9
$DIMTXT
 40
35.0
  9
$DIMCEN
 40
1.0
  9
$DIMTSZ
 40
0.0
  9
$DIMTOL
 70
     0
  9
$DIMLIM
 70
     0
  9
$DIMTIH
 70
     0
  9
$DIMTOH
 70
     0
  9
$DIMSE1
 70
     0
  9
$DIMSE2
 70
     0
  9
$DIMTAD
 70
     0
  9
$DIMZIN
 70
     0
  9
$DIMBLK
  1

  9
$DIMASO
 70
     1
  9
$DIMSHO
 70
     0
  9
$DIMPOST
  1

  9
$DIMAPOST
  1

  9
$DIMALT
 70
     0
  9
$DIMALTD
 70
     2
  9
$DIMALTF
 40
25.4
  9
$DIMLFAC
 40
1.0
  9
$DIMTOFL
 70
     0
  9
$DIMTVP
 40
0.0
  9
$DIMTIX
 70
     0
  9
$DIMSOXD
 70
     0
  9
$DIMSAH
 70
     0
  9
$DIMBLK1
  1

  9
$DIMBLK2
  1

  9
$DIMSTYLE
  2
TEAM
  9
$DIMCLRD
 70
     9
  9
$DIMCLRE
 70
     9
  9
$DIMCLRT
 70
    11
  9
$DIMTFAC
 40
1.0
  9
$DIMGAP
 40
15.0
  9
$LUNITS
 70
     2
  9
$LUPREC
 70
     1
  9
$SKETCHINC
 40
1.0
  9
$FILLETRAD
 40
50.0
  9
$AUNITS
 70
     0
  9
$AUPREC
 70
     0
  9
$MENU
  1
ROPLANS
  9
$ELEVATION
 40
0.0
  9
$PELEVATION
 40
0.0
  9
$THICKNESS
 40
0.0
  9
$LIMCHECK
 70
     0
  9
$BLIPMODE
 70
     1
  9
$CHAMFERA
 40
0.0
  9
$CHAMFERB
 40
0.0
  9
$SKPOLY
 70
     0
  9
$TDCREATE
 40
2450392.957851
  9
$TDUPDATE
 40
2455523.423855
  9
$TDINDWG
 40
2.626044
  9
$TDUSRTIMER
 40
2.626044
  9
$USRTIMER
 70
     1
  9
$ANGBASE
 50
0.0
  9
$ANGDIR
 70
     0
  9
$PDMODE
 70
     0
  9
$PDSIZE
 40
0.0
  9
$PLINEWID
 40
0.0
  9
$COORDS
 70
     2
  9
$SPLFRAME
 70
     0
  9
$SPLINETYPE
 70
     6
  9
$SPLINESEGS
 70
     8
  9
$ATTDIA
 70
     0
  9
$ATTREQ
 70
     0
  9
$HANDLING
 70
     1
  9
$HANDSEED
  5
F82
  9
$SURFTAB1
 70
    36
  9
$SURFTAB2
 70
    36
  9
$SURFTYPE
 70
     6
  9
$SURFU
 70
     6
  9
$SURFV
 70
     6
  9
$UCSNAME
  2

  9
$UCSORG
 10
0.0
 20
0.0
 30
0.0
  9
$UCSXDIR
 10
1.0
 20
0.0
 30
0.0
  9
$UCSYDIR
 10
0.0
 20
1.0
 30
0.0
  9
$PUCSNAME
  2

  9
$PUCSORG
 10
0.0
 20
0.0
 30
0.0
  9
$PUCSXDIR
 10
1.0
 20
0.0
 30
0.0
  9
$PUCSYDIR
 10
0.0
 20
1.0
 30
0.0
  9
$USERI1
 70
     0
  9
$USERI2
 70
     0
  9
$USERI3
 70
     0
  9
$USERI4
 70
     0
  9
$USERI5
 70
     0
  9
$USERR1
 40
0.0
  9
$USERR2
 40
0.0
  9
$USERR3
 40
0.0
  9
$USERR4
 40
0.0
  9
$USERR5
 40
0.0
  9
$WORLDVIEW
 70
     1
  9
$SHADEDGE
 70
     0
  9
$SHADEDIF
 70
    70
  9
$TILEMODE
 70
     1
  9
$MAXACTVP
 70
    16
  9
$PLIMCHECK
 70
     0
  9
$PEXTMIN
 10
-0.805942
 20
0.005011
 30
0.0
  9
$PEXTMAX
 10
20.250094
 20
11.356329
 30
0.0
  9
$PLIMMIN
 10
0.0
 20
0.0
  9
$PLIMMAX
 10
12.0
 20
9.0
  9
$UNITMODE
 70
     0
  9
$VISRETAIN
 70
     0
  9
$PLINEGEN
 70
     0
  9
$PSLTSCALE
 70
     0
  0
ENDSEC
  0
SECTION
  2
TABLES
  0
TABLE
  2
VPORT
 70
     2
  0
VPORT
  2
*ACTIVE
 70
     0
 10
0.0
 20
0.0
 11
1.0
 21
1.0
 12
-0.892233
 22
-158.096532
 13
0.0
 23
0.0
 14
1.0
 24
1.0
 15
50.0
 25
50.0
 16
0.0
 26
0.0
 36
1.0
 17
0.0
 27
0.0
 37
0.0
 40
338.298625
 41
1.865779
 42
50.0
 43
0.0
 44
0.0
 50
0.0
 51
0.0
 71
     0
 72
   100
 73
     1
 74
     1
 75
     0
 76
     0
 77
     0
 78
     0
  0
ENDTAB
  0
TABLE
  2
LTYPE
 70
     1
  0
LTYPE
  2
CONTINUOUS
 70
     0
  3
Solid Line
 72
    65
 73
     0
 40
0.0
  0
ENDTAB
  0
TABLE
  2
LAYER
 70
     5
  0
LAYER
  2
0
 70
     0
 62
     7
  6
CONTINUOUS
  0
LAYER
  2
TEAM-MAS
 70
     0
 62
     9
  6
CONTINUOUS
  0
LAYER
  2
TEAM-TXT
 70
     0
 62
    11
  6
CONTINUOUS
  0
LAYER
  2
TEAM-NET
 70
     0
 62
    15
  6
CONTINUOUS
  0
LAYER
  2
TEAM-INSP
 70
     0
 62
     5
  6
CONTINUOUS
  0
ENDTAB
  0
TABLE
  2
STYLE
 70
     2
  0
STYLE
  2
STANDARD
 70
     0
 40
0.0
 41
1.0
 50
0.0
 71
     0
 42
200.0
  3
txt
  4

  0
STYLE
  2
TEAM
 70
     0
 40
0.0
 41
0.8
 50
15.0
 71
     0
 42
7.0
  3
ROMANS.shx
  4

  0
ENDTAB
  0
TABLE
  2
VIEW
 70
     0
  0
ENDTAB
  0
TABLE
  2
UCS
 70
     0
  0
ENDTAB
  0
TABLE
  2
APPID
 70
     1
  0
APPID
  2
ACAD
 70
     0
  0
ENDTAB
  0
TABLE
  2
DIMSTYLE
 70
     1
  0
DIMSTYLE
  2
TEAM
 70
     0
  3

  4

  5

  6

  7

 40
1.0
 41
20.0
 42
10.0
 43
1.0
 44
1.0
 45
0.0
 46
0.0
 47
0.0
 48
0.0
140
35.0
141
1.0
142
0.0
143
25.4
144
1.0
145
0.0
146
1.0
147
15.0
 71
     0
 72
     0
 73
     0
 74
     0
 75
     0
 76
     0
 77
     0
 78
     0
170
     0
171
     2
172
     0
173
     0
174
     0
175
     0
176
     9
177
     9
178
    11
  0
ENDTAB
  0
ENDSEC
  0
SECTION
  2
BLOCKS
  0
BLOCK
  8
0
  2
$MODEL_SPACE
 70
     0
 10
0.0
 20
0.0
 30
0.0
  3
$MODEL_SPACE
  1

  0
ENDBLK
  5
E1F
  8
0
  0
BLOCK
 67
     1
  8
0
  2
$PAPER_SPACE
 70
     0
 10
0.0
 20
0.0
 30
0.0
  3
$PAPER_SPACE
  1

  0
ENDBLK
  5
E1D
 67
     1
  8
0
  0
ENDSEC
  0
SECTION
  2
ENTITIES
  0
CIRCLE
  5
20
  8
TEAM-INSP
 10
0.0
 20
0.0
 30
0.0
 40
10.0
  0
ARC
  5
22
  8
TEAM-NET
 10
100.892236
 20
794.711059
 30
-35.0
 40
7.5
210
0.0
220
1.0
230
0.0
 50
0.0
 51
180.0
  0
ARC
  5
24
  8
TEAM-NET
 10
-100.892236
 20
794.711059
 30
0.0
 40
7.5
210
0.0
220
-1.0
230
0.0
 50
360.0
 51
180.0
  0
ARC
  5
25
  8
TEAM-NET
 10
-99.107764
 20
794.711059
 30
-35.0
 40
7.5
210
0.0
220
1.0
230
0.0
 50
359.685127
 51
179.685127
  0
ARC
  5
26
  8
TEAM-NET
 10
99.107764
 20
794.711059
 30
0.0
 40
7.5
210
0.0
220
-1.0
230
0.0
 50
0.314873
 51
180.314873
  0
ARC
  5
27
  8
TEAM-NET
 10
99.107764
 20
794.711059
 30
0.0
 40
7.5
210
0.0
220
-1.0
230
0.0
 50
180.314873
 51
0.314873
  0
ARC
  5
28
  8
TEAM-NET
 10
-99.107764
 20
794.711059
 30
-35.0
 40
7.5
210
0.0
220
1.0
230
0.0
 50
179.685127
 51
359.685127
  0
ARC
  5
29
  8
TEAM-NET
 10
-100.892236
 20
794.711059
 30
0.0
 40
7.5
210
0.0
220
-1.0
230
0.0
 50
180.0
 51
0.0
  0
ARC
  5
2A
  8
TEAM-NET
 10
100.892236
 20
794.711059
 30
-35.0
 40
7.5
210
0.0
220
1.0
230
0.0
 50
180.0
 51
0.0
  0
POLYLINE
  5
2B
  8
TEAM-NET
 66
     1
 10
0.0
 20
0.0
 30
0.0
 70
     8
  0
VERTEX
  5
356
  8
TEAM-NET
 10
-133.495479
 20
-263.024795
 30
708.659467
 70
    32
  0
VERTEX
  5
357
  8
TEAM-NET
 10
-139.478769
 20
-266.15533
 30
713.15877
 70
    32
  0
VERTEX
  5
358
  8
TEAM-NET
 10
-145.147584
 20
-269.39436
 30
718.051623
 70
    32
  0
VERTEX
  5
359
  8
TEAM-NET
 10
-150.482107
 20
-272.688548
 30
723.305374
 70
    32
  0
VERTEX
  5
35A
  8
TEAM-NET
 10
-155.51231
 20
-276.020713
 30
728.940853
 70
    32
  0
VERTEX
  5
35B
  8
TEAM-NET
 10
-160.233696
 20
-279.359051
 30
734.958298
 70
    32
  0
VERTEX
  5
35C
  8
TEAM-NET
 10
-164.621346
 20
-282.660583
 30
741.335325
 70
    32
  0
VERTEX
  5
35D
  8
TEAM-NET
 10
-168.651422
 20
-285.884518
 30
748.045675
 70
    32
  0
VERTEX
  5
35E
  8
TEAM-NET
 10
-172.301169
 20
-288.991806
 30
755.061814
 70
    32
  0
VERTEX
  5
35F
  8
TEAM-NET
 10
-175.550412
 20
-291.947582
 30
762.352915
 70
    32
  0
VERTEX
  5
360
  8
TEAM-NET
 10
-178.390417
 20
-294.729876
 30
769.914414
 70
    32
  0
VERTEX
  5
361
  8
TEAM-NET
 10
-180.814819
 20
-297.32474
 30
777.765917
 70
    32
  0
VERTEX
  5
362
  8
TEAM-NET
 10
-182.792922
 20
-299.696792
 30
785.861596
 70
    32
  0
VERTEX
  5
363
  8
TEAM-NET
 10
-184.298802
 20
-301.814791
 30
794.146277
 70
    32
  0
VERTEX
  5
364
  8
TEAM-NET
 10
-185.313679
 20
-303.654367
 30
802.56268
 70
    32
  0
VERTEX
  5
365
  8
TEAM-NET
 10
-185.827096
 20
-305.204067
 30
811.086291
 70
    32
  0
VERTEX
  5
366
  8
TEAM-NET
 10
-185.827047
 20
-306.457513
 30
819.711949
 70
    32
  0
SEQEND
  5
367
  8
TEAM-NET
  0
POLYLINE
  5
2C
  8
TEAM-NET
 66
     1
 10
0.0
 20
0.0
 30
0.0
 70
     8
  0
VERTEX
  5
368
  8
TEAM-NET
 10
-215.892234
 20
-276.181666
 30
819.711949
 70
    32
  0
VERTEX
  5
369
  8
TEAM-NET
 10
-215.583451
 20
-274.992728
 30
810.422839
 70
    32
  0
VERTEX
  5
36A
  8
TEAM-NET
 10
-214.669503
 20
-273.564268
 30
801.257416
 70
    32
  0
VERTEX
  5
36B
  8
TEAM-NET
 10
-213.160544
 20
-271.898939
 30
792.203093
 70
    32
  0
VERTEX
  5
36C
  8
TEAM-NET
 10
-211.072863
 20
-270.011693
 30
783.311361
 70
    32
  0
VERTEX
  5
36D
  8
TEAM-NET
 10
-208.431533
 20
-267.924251
 30
774.63992
 70
    32
  0
VERTEX
  5
36E
  8
TEAM-NET
 10
-205.269186
 20
-265.663157
 30
766.242575
 70
    32
  0
VERTEX
  5
36F
  8
TEAM-NET
 10
-201.618368
 20
-263.254652
 30
758.153792
 70
    32
  0
VERTEX
  5
370
  8
TEAM-NET
 10
-197.477549
 20
-260.705382
 30
750.340109
 70
    32
  0
VERTEX
  5
371
  8
TEAM-NET
 10
-192.864135
 20
-258.038381
 30
742.823129
 70
    32
  0
VERTEX
  5
372
  8
TEAM-NET
 10
-187.80189
 20
-255.281992
 30
735.63329
 70
    32
  0
VERTEX
  5
373
  8
TEAM-NET
 10
-182.317714
 20
-252.467973
 30
728.798054
 70
    32
  0
VERTEX
  5
374
  8
TEAM-NET
 10
-176.439278
 20
-249.628969
 30
722.343854
 70
    32
  0
VERTEX
  5
375
  8
TEAM-NET
 10
-170.195684
 20
-246.799613
 30
716.292638
 70
    32
  0
VERTEX
  5
376
  8
TEAM-NET
 10
-163.584883
 20
-244.002363
 30
710.638392
 70
    32
  0
VERTEX
  5
377
  8
TEAM-NET
 10
-156.574581
 20
-241.252547
 30
705.363346
 70
    32
  0
VERTEX
  5
378
  8
TEAM-NET
 10
-149.18936
 20
-238.593484
 30
700.501954
 70
    32
  0
SEQEND
  5
379
  8
TEAM-NET
  0
POLYLINE
  5
2D
  8
TEAM-NET
 66
     1
 10
0.0
 20
0.0
 30
0.0
 70
     8
  0
VERTEX
  5
37A
  8
TEAM-NET
 10
145.434841
 20
-237.925227
 30
699.314889
 70
    32
  0
VERTEX
  5
37B
  8
TEAM-NET
 10
153.029759
 20
-240.596692
 30
704.142868
 70
    32
  0
VERTEX
  5
37C
  8
TEAM-NET
 10
160.253164
 20
-243.37647
 30
709.414005
 70
    32
  0
VERTEX
  5
37D
  8
TEAM-NET
 10
167.076854
 20
-246.218784
 30
715.093075
 70
    32
  0
VERTEX
  5
37E
  8
TEAM-NET
 10
173.485556
 20
-249.084868
 30
721.152347
 70
    32
  0
VERTEX
  5
37F
  8
TEAM-NET
 10
179.517297
 20
-251.964613
 30
727.623489
 70
    32
  0
VERTEX
  5
380
  8
TEAM-NET
 10
185.154285
 20
-254.827873
 30
734.497449
 70
    32
  0
VERTEX
  5
381
  8
TEAM-NET
 10
190.366455
 20
-257.639997
 30
741.749679
 70
    32
  0
VERTEX
  5
382
  8
TEAM-NET
 10
195.123124
 20
-260.366786
 30
749.351861
 70
    32
  0
VERTEX
  5
383
  8
TEAM-NET
 10
199.397086
 20
-262.977574
 30
757.270489
 70
    32
  0
VERTEX
  5
384
  8
TEAM-NET
 10
203.16301
 20
-265.443414
 30
765.471465
 70
    32
  0
VERTEX
  5
385
  8
TEAM-NET
 10
206.412486
 20
-267.749178
 30
773.956686
 70
    32
  0
VERTEX
  5
386
  8
TEAM-NET
 10
209.133027
 20
-269.881694
 30
782.739915
 70
    32
  0
VERTEX
  5
387
  8
TEAM-NET
 10
211.287557
 20
-271.811941
 30
791.765478
 70
    32
  0
VERTEX
  5
388
  8
TEAM-NET
 10
212.846569
 20
-273.515445
 30
800.970759
 70
    32
  0
VERTEX
  5
389
  8
TEAM-NET
 10
213.790214
 20
-274.974082
 30
810.291544
 70
    32
  0
VERTEX
  5
38A
  8
TEAM-NET
 10
214.10763
 20
-276.181598
 30
819.711959
 70
    32
  0
SEQEND
  5
38B
  8
TEAM-NET
  0
POLYLINE
  5
2E
  8
TEAM-NET
 66
     1
 10
0.0
 20
0.0
 30
0.0
 70
     8
  0
VERTEX
  5
38C
  8
TEAM-NET
 10
184.042576
 20
-306.457513
 30
819.711949
 70
    32
  0
VERTEX
  5
38D
  8
TEAM-NET
 10
184.042884
 20
-305.205789
 30
811.097081
 70
    32
  0
VERTEX
  5
38E
  8
TEAM-NET
 10
183.530791
 20
-303.657946
 30
802.580681
 70
    32
  0
VERTEX
  5
38F
  8
TEAM-NET
 10
182.515123
 20
-301.816029
 30
794.151505
 70
    32
  0
VERTEX
  5
390
  8
TEAM-NET
 10
181.008397
 20
-299.696756
 30
785.861564
 70
    32
  0
VERTEX
  5
391
  8
TEAM-NET
 10
179.03167
 20
-297.326222
 30
777.770674
 70
    32
  0
VERTEX
  5
392
  8
TEAM-NET
 10
176.612619
 20
-294.736687
 30
769.933942
 70
    32
  0
VERTEX
  5
393
  8
TEAM-NET
 10
173.775327
 20
-291.956472
 30
762.375625
 70
    32
  0
VERTEX
  5
394
  8
TEAM-NET
 10
170.520554
 20
-288.99513
 30
755.07016
 70
    32
  0
VERTEX
  5
395
  8
TEAM-NET
 10
166.866478
 20
-285.884106
 30
748.044697
 70
    32
  0
VERTEX
  5
396
  8
TEAM-NET
 10
162.834845
 20
-282.659095
 30
741.331722
 70
    32
  0
VERTEX
  5
397
  8
TEAM-NET
 10
158.45007
 20
-279.35964
 30
734.959465
 70
    32
  0
VERTEX
  5
398
  8
TEAM-NET
 10
153.737022
 20
-276.026982
 30
728.951963
 70
    32
  0
VERTEX
  5
399
  8
TEAM-NET
 10
148.71979
 20
-272.702726
 30
723.328668
 70
    32
  0
VERTEX
  5
39A
  8
TEAM-NET
 10
143.372404
 20
-269.399904
 30
718.060167
 70
    32
  0
VERTEX
  5
39B
  8
TEAM-NET
 10
137.69534
 20
-266.155969
 30
713.15928
 70
    32
  0
VERTEX
  5
39C
  8
TEAM-NET
 10
131.711009
 20
-263.024791
 30
708.659468
 70
    32
  0
SEQEND
  5
39D
  8
TEAM-NET
  0
ARC
  5
2F
  8
TEAM-NET
 10
76.015982
 20
819.711949
 30
0.0
 40
139.876253
210
0.0
220
1.0
230
0.0
 50
301.542399
 51
0.0
  0
POLYLINE
  5
30
  8
TEAM-NET
 66
     1
 10
0.0
 20
0.0
 30
0.0
 70
     8
  0
VERTEX
  5
39E
  8
TEAM-NET
 10
-215.892234
 20
-276.181666
 30
819.711949
 70
    32
  0
VERTEX
  5
39F
  8
TEAM-NET
 10
-215.583451
 20
-274.992728
 30
810.422839
 70
    32
  0
VERTEX
  5
3A0
  8
TEAM-NET
 10
-214.669503
 20
-273.564268
 30
801.257416
 70
    32
  0
VERTEX
  5
3A1
  8
TEAM-NET
 10
-213.160544
 20
-271.898939
 30
792.203093
 70
    32
  0
VERTEX
  5
3A2
  8
TEAM-NET
 10
-211.072863
 20
-270.011693
 30
783.311361
 70
    32
  0
VERTEX
  5
3A3
  8
TEAM-NET
 10
-208.431533
 20
-267.924251
 30
774.63992
 70
    32
  0
VERTEX
  5
3A4
  8
TEAM-NET
 10
-205.269186
 20
-265.663157
 30
766.242575
 70
    32
  0
VERTEX
  5
3A5
  8
TEAM-NET
 10
-201.618368
 20
-263.254652
 30
758.153792
 70
    32
  0
VERTEX
  5
3A6
  8
TEAM-NET
 10
-197.477549
 20
-260.705382
 30
750.340109
 70
    32
  0
VERTEX
  5
3A7
  8
TEAM-NET
 10
-192.864135
 20
-258.038381
 30
742.823129
 70
    32
  0
VERTEX
  5
3A8
  8
TEAM-NET
 10
-187.80189
 20
-255.281992
 30
735.63329
 70
    32
  0
VERTEX
  5
3A9
  8
TEAM-NET
 10
-182.317714
 20
-252.467973
 30
728.798054
 70
    32
  0
VERTEX
  5
3AA
  8
TEAM-NET
 10
-176.439278
 20
-249.628969
 30
722.343854
 70
    32
  0
VERTEX
  5
3AB
  8
TEAM-NET
 10
-170.195684
 20
-246.799613
 30
716.292638
 70
    32
  0
VERTEX
  5
3AC
  8
TEAM-NET
 10
-163.584883
 20
-244.002363
 30
710.638392
 70
    32
  0
VERTEX
  5
3AD
  8
TEAM-NET
 10
-156.574581
 20
-241.252547
 30
705.363346
 70
    32
  0
VERTEX
  5
3AE
  8
TEAM-NET
 10
-149.18936
 20
-238.593484
 30
700.501954
 70
    32
  0
SEQEND
  5
3AF
  8
TEAM-NET
  0
POLYLINE
  5
31
  8
TEAM-NET
 66
     1
 10
0.0
 20
0.0
 30
0.0
 70
     8
  0
VERTEX
  5
3B0
  8
TEAM-NET
 10
184.042576
 20
-306.457513
 30
819.711949
 70
    32
  0
VERTEX
  5
3B1
  8
TEAM-NET
 10
184.042884
 20
-305.205789
 30
811.097081
 70
    32
  0
VERTEX
  5
3B2
  8
TEAM-NET
 10
183.530791
 20
-303.657946
 30
802.580681
 70
    32
  0
VERTEX
  5
3B3
  8
TEAM-NET
 10
182.515123
 20
-301.816029
 30
794.151505
 70
    32
  0
VERTEX
  5
3B4
  8
TEAM-NET
 10
181.008397
 20
-299.696756
 30
785.861564
 70
    32
  0
VERTEX
  5
3B5
  8
TEAM-NET
 10
179.03167
 20
-297.326222
 30
777.770674
 70
    32
  0
VERTEX
  5
3B6
  8
TEAM-NET
 10
176.612619
 20
-294.736687
 30
769.933942
 70
    32
  0
VERTEX
  5
3B7
  8
TEAM-NET
 10
173.775327
 20
-291.956472
 30
762.375625
 70
    32
  0
VERTEX
  5
3B8
  8
TEAM-NET
 10
170.520554
 20
-288.99513
 30
755.07016
 70
    32
  0
VERTEX
  5
3B9
  8
TEAM-NET
 10
166.866478
 20
-285.884106
 30
748.044697
 70
    32
  0
VERTEX
  5
3BA
  8
TEAM-NET
 10
162.834845
 20
-282.659095
 30
741.331722
 70
    32
  0
VERTEX
  5
3BB
  8
TEAM-NET
 10
158.45007
 20
-279.35964
 30
734.959465
 70
    32
  0
VERTEX
  5
3BC
  8
TEAM-NET
 10
153.737022
 20
-276.026982
 30
728.951963
 70
    32
  0
VERTEX
  5
3BD
  8
TEAM-NET
 10
148.71979
 20
-272.702726
 30
723.328668
 70
    32
  0
VERTEX
  5
3BE
  8
TEAM-NET
 10
143.372404
 20
-269.399904
 30
718.060167
 70
    32
  0
VERTEX
  5
3BF
  8
TEAM-NET
 10
137.69534
 20
-266.155969
 30
713.15928
 70
    32
  0
VERTEX
  5
3C0
  8
TEAM-NET
 10
131.711009
 20
-263.024791
 30
708.659468
 70
    32
  0
SEQEND
  5
3C1
  8
TEAM-NET
  0
POLYLINE
  5
32
  8
TEAM-NET
 66
     1
 10
0.0
 20
0.0
 30
0.0
 70
     8
  0
VERTEX
  5
3C2
  8
TEAM-NET
 10
-133.495479
 20
-263.024795
 30
708.659467
 70
    32
  0
VERTEX
  5
3C3
  8
TEAM-NET
 10
-139.478769
 20
-266.15533
 30
713.15877
 70
    32
  0
VERTEX
  5
3C4
  8
TEAM-NET
 10
-145.147584
 20
-269.39436
 30
718.051623
 70
    32
  0
VERTEX
  5
3C5
  8
TEAM-NET
 10
-150.482107
 20
-272.688548
 30
723.305374
 70
    32
  0
VERTEX
  5
3C6
  8
TEAM-NET
 10
-155.51231
 20
-276.020713
 30
728.940853
 70
    32
  0
VERTEX
  5
3C7
  8
TEAM-NET
 10
-160.233696
 20
-279.359051
 30
734.958298
 70
    32
  0
VERTEX
  5
3C8
  8
TEAM-NET
 10
-164.621346
 20
-282.660583
 30
741.335325
 70
    32
  0
VERTEX
  5
3C9
  8
TEAM-NET
 10
-168.651422
 20
-285.884518
 30
748.045675
 70
    32
  0
VERTEX
  5
3CA
  8
TEAM-NET
 10
-172.301169
 20
-288.991806
 30
755.061814
 70
    32
  0
VERTEX
  5
3CB
  8
TEAM-NET
 10
-175.550412
 20
-291.947582
 30
762.352915
 70
    32
  0
VERTEX
  5
3CC
  8
TEAM-NET
 10
-178.390417
 20
-294.729876
 30
769.914414
 70
    32
  0
VERTEX
  5
3CD
  8
TEAM-NET
 10
-180.814819
 20
-297.32474
 30
777.765917
 70
    32
  0
VERTEX
  5
3CE
  8
TEAM-NET
 10
-182.792922
 20
-299.696792
 30
785.861596
 70
    32
  0
VERTEX
  5
3CF
  8
TEAM-NET
 10
-184.298802
 20
-301.814791
 30
794.146277
 70
    32
  0
VERTEX
  5
3D0
  8
TEAM-NET
 10
-185.313679
 20
-303.654367
 30
802.56268
 70
    32
  0
VERTEX
  5
3D1
  8
TEAM-NET
 10
-185.827096
 20
-305.204067
 30
811.086291
 70
    32
  0
VERTEX
  5
3D2
  8
TEAM-NET
 10
-185.827047
 20
-306.457513
 30
819.711949
 70
    32
  0
SEQEND
  5
3D3
  8
TEAM-NET
  0
ARC
  5
33
  8
TEAM-NET
 10
-74.231511
 20
819.711949
 30
0.0
 40
139.876253
210
0.0
220
1.0
230
0.0
 50
180.0
 51
239.399751
  0
POLYLINE
  5
34
  8
TEAM-NET
 66
     1
 10
0.0
 20
0.0
 30
0.0
 70
     8
  0
VERTEX
  5
3D4
  8
TEAM-NET
 10
145.434841
 20
-237.925227
 30
699.314889
 70
    32
  0
VERTEX
  5
3D5
  8
TEAM-NET
 10
153.029759
 20
-240.596692
 30
704.142868
 70
    32
  0
VERTEX
  5
3D6
  8
TEAM-NET
 10
160.253164
 20
-243.37647
 30
709.414005
 70
    32
  0
VERTEX
  5
3D7
  8
TEAM-NET
 10
167.076854
 20
-246.218784
 30
715.093075
 70
    32
  0
VERTEX
  5
3D8
  8
TEAM-NET
 10
173.485556
 20
-249.084868
 30
721.152347
 70
    32
  0
VERTEX
  5
3D9
  8
TEAM-NET
 10
179.517297
 20
-251.964613
 30
727.623489
 70
    32
  0
VERTEX
  5
3DA
  8
TEAM-NET
 10
185.154285
 20
-254.827873
 30
734.497449
 70
    32
  0
VERTEX
  5
3DB
  8
TEAM-NET
 10
190.366455
 20
-257.639997
 30
741.749679
 70
    32
  0
VERTEX
  5
3DC
  8
TEAM-NET
 10
195.123124
 20
-260.366786
 30
749.351861
 70
    32
  0
VERTEX
  5
3DD
  8
TEAM-NET
 10
199.397086
 20
-262.977574
 30
757.270489
 70
    32
  0
VERTEX
  5
3DE
  8
TEAM-NET
 10
203.16301
 20
-265.443414
 30
765.471465
 70
    32
  0
VERTEX
  5
3DF
  8
TEAM-NET
 10
206.412486
 20
-267.749178
 30
773.956686
 70
    32
  0
VERTEX
  5
3E0
  8
TEAM-NET
 10
209.133027
 20
-269.881694
 30
782.739915
 70
    32
  0
VERTEX
  5
3E1
  8
TEAM-NET
 10
211.287557
 20
-271.811941
 30
791.765478
 70
    32
  0
VERTEX
  5
3E2
  8
TEAM-NET
 10
212.846569
 20
-273.515445
 30
800.970759
 70
    32
  0
VERTEX
  5
3E3
  8
TEAM-NET
 10
213.790214
 20
-274.974082
 30
810.291544
 70
    32
  0
VERTEX
  5
3E4
  8
TEAM-NET
 10
214.10763
 20
-276.181598
 30
819.711959
 70
    32
  0
SEQEND
  5
3E5
  8
TEAM-NET
  0
ARC
  5
35
  8
TEAM-NET
 10
100.892236
 20
794.711059
 30
0.0
 40
7.5
210
0.0
220
1.0
230
0.0
 50
180.0
 51
0.0
  0
ARC
  5
36
  8
TEAM-NET
 10
100.892236
 20
794.711059
 30
0.0
 40
7.5
210
0.0
220
1.0
230
0.0
 50
0.0
 51
180.0
  0
ARC
  5
37
  8
TEAM-NET
 10
-99.107764
 20
794.711059
 30
0.0
 40
7.5
210
0.0
220
1.0
230
0.0
 50
179.685127
 51
359.685127
  0
ARC
  5
38
  8
TEAM-NET
 10
-99.107764
 20
794.711059
 30
0.0
 40
7.5
210
0.0
220
1.0
230
0.0
 50
359.685127
 51
179.685127
  0
ARC
  5
39
  8
TEAM-NET
 10
-74.231511
 20
819.711949
 30
0.0
 40
139.876253
210
0.0
220
1.0
230
0.0
 50
180.0
 51
239.399751
  0
ARC
  5
3A
  8
TEAM-NET
 10
76.015982
 20
819.711949
 30
0.0
 40
139.876253
210
0.0
220
1.0
230
0.0
 50
301.542399
 51
0.0
  0
LINE
  5
3B
  8
TEAM-NET
 10
-115.892236
 20
-110.0
 30
702.517812
 11
-115.892236
 21
-110.0
 31
829.711059
210
1.0
220
0.0
230
0.0
  0
LINE
  5
3C
  8
TEAM-NET
 10
-115.892236
 20
-35.0
 30
702.517812
 11
-115.892236
 21
-35.0
 31
829.711059
210
1.0
220
0.0
230
0.0
  0
LINE
  5
3D
  8
TEAM-NET
 10
114.107764
 20
-35.0
 30
702.517812
 11
114.107764
 21
-35.0
 31
829.711059
210
-1.0
220
0.0
230
0.0
  0
LINE
  5
3E
  8
TEAM-NET
 10
114.107764
 20
-110.0
 30
702.517812
 11
114.107764
 21
-110.0
 31
829.711059
210
-1.0
220
0.0
230
0.0
  0
ARC
  5
3F
  8
TEAM-NET
 10
-100.892236
 20
794.711059
 30
35.0
 40
7.5
210
0.0
220
-1.0
230
0.0
 50
360.0
 51
180.0
  0
ARC
  5
40
  8
TEAM-NET
 10
-100.892236
 20
794.711059
 30
35.0
 40
7.5
210
0.0
220
-1.0
230
0.0
 50
180.0
 51
0.0
  0
ARC
  5
41
  8
TEAM-NET
 10
99.107764
 20
794.711059
 30
35.0
 40
7.5
210
0.0
220
-1.0
230
0.0
 50
0.314873
 51
180.314873
  0
ARC
  5
42
  8
TEAM-NET
 10
99.107764
 20
794.711059
 30
35.0
 40
7.5
210
0.0
220
-1.0
230
0.0
 50
180.314873
 51
0.314873
  0
LINE
  5
43
  8
TEAM-NET
 10
-115.892236
 20
-35.0
 30
702.517812
 11
-115.892236
 21
-35.0
 31
829.711059
210
0.0
220
-1.0
230
0.0
  0
LINE
  5
44
  8
TEAM-NET
 10
114.107764
 20
-35.0
 30
702.517812
 11
114.107764
 21
-35.0
 31
829.711059
210
0.0
220
-1.0
230
0.0
  0
ARC
  5
45
  8
TEAM-NET
 10
41.992645
 20
877.273904
 30
-125.0
 40
146.348311
210
0.0
220
1.0
230
0.0
 50
272.3266
 51
343.092197
  0
ARC
  5
46
  8
TEAM-NET
 10
-41.992645
 20
877.273904
 30
135.0
 40
156.348311
210
0.0
220
-1.0
230
0.0
 50
192.215538
 51
267.749044
  0
ARC
  5
47
  8
TEAM-NET
 10
-41.992645
 20
877.273904
 30
135.0
 40
156.348311
210
0.0
220
-1.0
230
0.0
 50
192.215538
 51
267.749044
  0
POLYLINE
  5
48
  8
TEAM-NET
 66
     1
 10
0.0
 20
0.0
 30
0.0
 70
     8
  0
VERTEX
  5
3E6
  8
TEAM-NET
 10
-48.133458
 20
-229.740634
 30
721.046234
 70
    32
  0
VERTEX
  5
3E7
  8
TEAM-NET
 10
-54.767916
 20
-230.129926
 30
721.448408
 70
    32
  0
VERTEX
  5
3E8
  8
TEAM-NET
 10
-61.335813
 20
-230.779945
 30
722.126728
 70
    32
  0
VERTEX
  5
3E9
  8
TEAM-NET
 10
-67.851221
 20
-231.678886
 30
723.07885
 70
    32
  0
VERTEX
  5
3EA
  8
TEAM-NET
 10
-74.297518
 20
-232.80866
 30
724.299473
 70
    32
  0
VERTEX
  5
3EB
  8
TEAM-NET
 10
-86.905724
 20
-235.669553
 30
727.515407
 70
    32
  0
VERTEX
  5
3EC
  8
TEAM-NET
 10
-99.016538
 20
-239.155336
 30
731.695485
 70
    32
  0
VERTEX
  5
3ED
  8
TEAM-NET
 10
-110.536012
 20
-243.052578
 30
736.751321
 70
    32
  0
VERTEX
  5
3EE
  8
TEAM-NET
 10
-121.551608
 20
-247.223528
 30
742.681296
 70
    32
  0
VERTEX
  5
3EF
  8
TEAM-NET
 10
-132.042298
 20
-251.51927
 30
749.462118
 70
    32
  0
VERTEX
  5
3F0
  8
TEAM-NET
 10
-141.957947
 20
-255.792953
 30
757.058568
 70
    32
  0
VERTEX
  5
3F1
  8
TEAM-NET
 10
-151.244177
 20
-259.909942
 30
765.430689
 70
    32
  0
VERTEX
  5
3F2
  8
TEAM-NET
 10
-159.909384
 20
-263.774564
 30
774.607258
 70
    32
  0
VERTEX
  5
3F3
  8
TEAM-NET
 10
-167.919036
 20
-267.279994
 30
784.606028
 70
    32
  0
VERTEX
  5
3F4
  8
TEAM-NET
 10
-175.158975
 20
-270.288623
 30
795.350029
 70
    32
  0
VERTEX
  5
3F5
  8
TEAM-NET
 10
-181.528949
 20
-272.675914
 30
806.74438
 70
    32
  0
VERTEX
  5
3F6
  8
TEAM-NET
 10
-186.972624
 20
-274.340678
 30
818.745301
 70
    32
  0
VERTEX
  5
3F7
  8
TEAM-NET
 10
-189.331912
 20
-274.871196
 30
824.967701
 70
    32
  0
VERTEX
  5
3F8
  8
TEAM-NET
 10
-191.429786
 20
-275.18168
 30
831.302777
 70
    32
  0
VERTEX
  5
3F9
  8
TEAM-NET
 10
-193.254957
 20
-275.261243
 30
837.721
 70
    32
  0
VERTEX
  5
3FA
  8
TEAM-NET
 10
-194.801004
 20
-275.103096
 30
844.192188
 70
    32
  0
SEQEND
  5
3FB
  8
TEAM-NET
  0
POLYLINE
  5
49
  8
TEAM-NET
 66
     1
 10
0.0
 20
0.0
 30
0.0
 70
     8
  0
VERTEX
  5
3FC
  8
TEAM-NET
 10
-48.133458
 20
-229.740634
 30
721.046234
 70
    32
  0
VERTEX
  5
3FD
  8
TEAM-NET
 10
-54.767916
 20
-230.129926
 30
721.448408
 70
    32
  0
VERTEX
  5
3FE
  8
TEAM-NET
 10
-61.335813
 20
-230.779945
 30
722.126728
 70
    32
  0
VERTEX
  5
3FF
  8
TEAM-NET
 10
-67.851221
 20
-231.678886
 30
723.07885
 70
    32
  0
VERTEX
  5
400
  8
TEAM-NET
 10
-74.297518
 20
-232.80866
 30
724.299473
 70
    32
  0
VERTEX
  5
401
  8
TEAM-NET
 10
-86.905724
 20
-235.669553
 30
727.515407
 70
    32
  0
VERTEX
  5
402
  8
TEAM-NET
 10
-99.016538
 20
-239.155336
 30
731.695485
 70
    32
  0
VERTEX
  5
403
  8
TEAM-NET
 10
-110.536012
 20
-243.052578
 30
736.751321
 70
    32
  0
VERTEX
  5
404
  8
TEAM-NET
 10
-121.551608
 20
-247.223528
 30
742.681296
 70
    32
  0
VERTEX
  5
405
  8
TEAM-NET
 10
-132.042298
 20
-251.51927
 30
749.462118
 70
    32
  0
VERTEX
  5
406
  8
TEAM-NET
 10
-141.957947
 20
-255.792953
 30
757.058568
 70
    32
  0
VERTEX
  5
407
  8
TEAM-NET
 10
-151.244177
 20
-259.909942
 30
765.430689
 70
    32
  0
VERTEX
  5
408
  8
TEAM-NET
 10
-159.909384
 20
-263.774564
 30
774.607258
 70
    32
  0
VERTEX
  5
409
  8
TEAM-NET
 10
-167.919036
 20
-267.279994
 30
784.606028
 70
    32
  0
VERTEX
  5
40A
  8
TEAM-NET
 10
-175.158975
 20
-270.288623
 30
795.350029
 70
    32
  0
VERTEX
  5
40B
  8
TEAM-NET
 10
-181.528949
 20
-272.675914
 30
806.74438
 70
    32
  0
VERTEX
  5
40C
  8
TEAM-NET
 10
-186.972624
 20
-274.340678
 30
818.745301
 70
    32
  0
VERTEX
  5
40D
  8
TEAM-NET
 10
-189.331912
 20
-274.871196
 30
824.967701
 70
    32
  0
VERTEX
  5
40E
  8
TEAM-NET
 10
-191.429786
 20
-275.18168
 30
831.302777
 70
    32
  0
VERTEX
  5
40F
  8
TEAM-NET
 10
-193.254957
 20
-275.261243
 30
837.721
 70
    32
  0
VERTEX
  5
410
  8
TEAM-NET
 10
-194.801004
 20
-275.103096
 30
844.192188
 70
    32
  0
SEQEND
  5
411
  8
TEAM-NET
  0
POLYLINE
  5
4A
  8
TEAM-NET
 66
     1
 10
0.0
 20
0.0
 30
0.0
 70
     8
  0
VERTEX
  5
412
  8
TEAM-NET
 10
-178.977808
 20
-290.2511
 30
842.620492
 70
    32
  0
VERTEX
  5
413
  8
TEAM-NET
 10
-177.415041
 20
-290.208543
 30
836.376295
 70
    32
  0
VERTEX
  5
414
  8
TEAM-NET
 10
-175.618085
 20
-289.923332
 30
830.205388
 70
    32
  0
VERTEX
  5
415
  8
TEAM-NET
 10
-171.358476
 20
-288.668525
 30
818.191363
 70
    32
  0
VERTEX
  5
416
  8
TEAM-NET
 10
-166.286264
 20
-286.596012
 30
806.749783
 70
    32
  0
VERTEX
  5
417
  8
TEAM-NET
 10
-160.43089
 20
-283.801001
 30
795.877407
 70
    32
  0
VERTEX
  5
418
  8
TEAM-NET
 10
-153.857218
 20
-280.395681
 30
785.648437
 70
    32
  0
VERTEX
  5
419
  8
TEAM-NET
 10
-146.652432
 20
-276.510925
 30
776.14567
 70
    32
  0
VERTEX
  5
41A
  8
TEAM-NET
 10
-138.910039
 20
-272.287201
 30
767.43075
 70
    32
  0
VERTEX
  5
41B
  8
TEAM-NET
 10
-130.626563
 20
-267.816674
 30
759.456656
 70
    32
  0
VERTEX
  5
41C
  8
TEAM-NET
 10
-121.814754
 20
-263.209744
 30
752.22279
 70
    32
  0
VERTEX
  5
41D
  8
TEAM-NET
 10
-112.519306
 20
-258.60498
 30
745.765057
 70
    32
  0
VERTEX
  5
41E
  8
TEAM-NET
 10
-102.781295
 20
-254.153308
 30
740.115166
 70
    32
  0
VERTEX
  5
41F
  8
TEAM-NET
 10
-92.607271
 20
-250.003554
 30
735.290202
 70
    32
  0
VERTEX
  5
420
  8
TEAM-NET
 10
-81.927001
 20
-246.299657
 30
731.296173
 70
    32
  0
VERTEX
  5
421
  8
TEAM-NET
 10
-70.828587
 20
-243.262229
 30
728.217685
 70
    32
  0
VERTEX
  5
422
  8
TEAM-NET
 10
-65.159645
 20
-242.060317
 30
727.045049
 70
    32
  0
VERTEX
  5
423
  8
TEAM-NET
 10
-59.432251
 20
-241.100292
 30
726.126158
 70
    32
  0
VERTEX
  5
424
  8
TEAM-NET
 10
-53.660277
 20
-240.400379
 30
725.465819
 70
    32
  0
VERTEX
  5
425
  8
TEAM-NET
 10
-47.831339
 20
-239.972477
 30
725.066082
 70
    32
  0
SEQEND
  5
426
  8
TEAM-NET
  0
POLYLINE
  5
4B
  8
TEAM-NET
 66
     1
 10
0.0
 20
0.0
 30
0.0
 70
     8
  0
VERTEX
  5
427
  8
TEAM-NET
 10
-178.977808
 20
-290.2511
 30
842.620492
 70
    32
  0
VERTEX
  5
428
  8
TEAM-NET
 10
-177.415041
 20
-290.208543
 30
836.376295
 70
    32
  0
VERTEX
  5
429
  8
TEAM-NET
 10
-175.618085
 20
-289.923332
 30
830.205388
 70
    32
  0
VERTEX
  5
42A
  8
TEAM-NET
 10
-171.358476
 20
-288.668525
 30
818.191363
 70
    32
  0
VERTEX
  5
42B
  8
TEAM-NET
 10
-166.286264
 20
-286.596012
 30
806.749783
 70
    32
  0
VERTEX
  5
42C
  8
TEAM-NET
 10
-160.43089
 20
-283.801001
 30
795.877407
 70
    32
  0
VERTEX
  5
42D
  8
TEAM-NET
 10
-153.857218
 20
-280.395681
 30
785.648437
 70
    32
  0
VERTEX
  5
42E
  8
TEAM-NET
 10
-146.652432
 20
-276.510925
 30
776.14567
 70
    32
  0
VERTEX
  5
42F
  8
TEAM-NET
 10
-138.910039
 20
-272.287201
 30
767.43075
 70
    32
  0
VERTEX
  5
430
  8
TEAM-NET
 10
-130.626563
 20
-267.816674
 30
759.456656
 70
    32
  0
VERTEX
  5
431
  8
TEAM-NET
 10
-121.814754
 20
-263.209744
 30
752.22279
 70
    32
  0
VERTEX
  5
432
  8
TEAM-NET
 10
-112.519306
 20
-258.60498
 30
745.765057
 70
    32
  0
VERTEX
  5
433
  8
TEAM-NET
 10
-102.781295
 20
-254.153308
 30
740.115166
 70
    32
  0
VERTEX
  5
434
  8
TEAM-NET
 10
-92.607271
 20
-250.003554
 30
735.290202
 70
    32
  0
VERTEX
  5
435
  8
TEAM-NET
 10
-81.927001
 20
-246.299657
 30
731.296173
 70
    32
  0
VERTEX
  5
436
  8
TEAM-NET
 10
-70.828587
 20
-243.262229
 30
728.217685
 70
    32
  0
VERTEX
  5
437
  8
TEAM-NET
 10
-65.159645
 20
-242.060317
 30
727.045049
 70
    32
  0
VERTEX
  5
438
  8
TEAM-NET
 10
-59.432251
 20
-241.100292
 30
726.126158
 70
    32
  0
VERTEX
  5
439
  8
TEAM-NET
 10
-53.660277
 20
-240.400379
 30
725.465819
 70
    32
  0
VERTEX
  5
43A
  8
TEAM-NET
 10
-47.831339
 20
-239.972477
 30
725.066082
 70
    32
  0
SEQEND
  5
43B
  8
TEAM-NET
  0
POLYLINE
  5
4C
  8
TEAM-NET
 66
     1
 10
0.0
 20
0.0
 30
0.0
 70
     8
  0
VERTEX
  5
43C
  8
TEAM-NET
 10
46.046867
 20
-239.972478
 30
725.066082
 70
    32
  0
VERTEX
  5
43D
  8
TEAM-NET
 10
51.880149
 20
-240.400792
 30
725.466225
 70
    32
  0
VERTEX
  5
43E
  8
TEAM-NET
 10
57.651565
 20
-241.100862
 30
726.12671
 70
    32
  0
VERTEX
  5
43F
  8
TEAM-NET
 10
63.376507
 20
-242.060666
 30
727.045314
 70
    32
  0
VERTEX
  5
440
  8
TEAM-NET
 10
69.042809
 20
-243.261958
 30
728.217314
 70
    32
  0
VERTEX
  5
441
  8
TEAM-NET
 10
80.138646
 20
-246.298476
 30
731.294993
 70
    32
  0
VERTEX
  5
442
  8
TEAM-NET
 10
90.822807
 20
-250.003593
 30
735.290243
 70
    32
  0
VERTEX
  5
443
  8
TEAM-NET
 10
101.001783
 20
-254.155445
 30
740.117776
 70
    32
  0
VERTEX
  5
444
  8
TEAM-NET
 10
110.735603
 20
-258.605413
 30
745.765552
 70
    32
  0
VERTEX
  5
445
  8
TEAM-NET
 10
120.029586
 20
-263.209369
 30
752.222283
 70
    32
  0
VERTEX
  5
446
  8
TEAM-NET
 10
128.841611
 20
-267.816416
 30
759.456151
 70
    32
  0
VERTEX
  5
447
  8
TEAM-NET
 10
137.127855
 20
-272.28844
 30
767.433115
 70
    32
  0
VERTEX
  5
448
  8
TEAM-NET
 10
144.867407
 20
-276.510644
 30
776.144865
 70
    32
  0
VERTEX
  5
449
  8
TEAM-NET
 10
152.070668
 20
-280.394527
 30
785.645756
 70
    32
  0
VERTEX
  5
44A
  8
TEAM-NET
 10
158.64545
 20
-283.800544
 30
795.875584
 70
    32
  0
VERTEX
  5
44B
  8
TEAM-NET
 10
164.503084
 20
-286.596601
 30
806.752386
 70
    32
  0
VERTEX
  5
44C
  8
TEAM-NET
 10
169.575085
 20
-288.668943
 30
818.193914
 70
    32
  0
VERTEX
  5
44D
  8
TEAM-NET
 10
173.833203
 20
-289.923184
 30
830.204377
 70
    32
  0
VERTEX
  5
44E
  8
TEAM-NET
 10
175.630245
 20
-290.208504
 30
836.375044
 70
    32
  0
VERTEX
  5
44F
  8
TEAM-NET
 10
177.193344
 20
-290.251099
 30
842.62049
 70
    32
  0
SEQEND
  5
450
  8
TEAM-NET
  0
POLYLINE
  5
4D
  8
TEAM-NET
 66
     1
 10
0.0
 20
0.0
 30
0.0
 70
     8
  0
VERTEX
  5
451
  8
TEAM-NET
 10
46.046867
 20
-239.972478
 30
725.066082
 70
    32
  0
VERTEX
  5
452
  8
TEAM-NET
 10
51.880149
 20
-240.400792
 30
725.466225
 70
    32
  0
VERTEX
  5
453
  8
TEAM-NET
 10
57.651565
 20
-241.100862
 30
726.12671
 70
    32
  0
VERTEX
  5
454
  8
TEAM-NET
 10
63.376507
 20
-242.060666
 30
727.045314
 70
    32
  0
VERTEX
  5
455
  8
TEAM-NET
 10
69.042809
 20
-243.261958
 30
728.217314
 70
    32
  0
VERTEX
  5
456
  8
TEAM-NET
 10
80.138646
 20
-246.298476
 30
731.294993
 70
    32
  0
VERTEX
  5
457
  8
TEAM-NET
 10
90.822807
 20
-250.003593
 30
735.290243
 70
    32
  0
VERTEX
  5
458
  8
TEAM-NET
 10
101.001783
 20
-254.155445
 30
740.117776
 70
    32
  0
VERTEX
  5
459
  8
TEAM-NET
 10
110.735603
 20
-258.605413
 30
745.765552
 70
    32
  0
VERTEX
  5
45A
  8
TEAM-NET
 10
120.029586
 20
-263.209369
 30
752.222283
 70
    32
  0
VERTEX
  5
45B
  8
TEAM-NET
 10
128.841611
 20
-267.816416
 30
759.456151
 70
    32
  0
VERTEX
  5
45C
  8
TEAM-NET
 10
137.127855
 20
-272.28844
 30
767.433115
 70
    32
  0
VERTEX
  5
45D
  8
TEAM-NET
 10
144.867407
 20
-276.510644
 30
776.144865
 70
    32
  0
VERTEX
  5
45E
  8
TEAM-NET
 10
152.070668
 20
-280.394527
 30
785.645756
 70
    32
  0
VERTEX
  5
45F
  8
TEAM-NET
 10
158.64545
 20
-283.800544
 30
795.875584
 70
    32
  0
VERTEX
  5
460
  8
TEAM-NET
 10
164.503084
 20
-286.596601
 30
806.752386
 70
    32
  0
VERTEX
  5
461
  8
TEAM-NET
 10
169.575085
 20
-288.668943
 30
818.193914
 70
    32
  0
VERTEX
  5
462
  8
TEAM-NET
 10
173.833203
 20
-289.923184
 30
830.204377
 70
    32
  0
VERTEX
  5
463
  8
TEAM-NET
 10
175.630245
 20
-290.208504
 30
836.375044
 70
    32
  0
VERTEX
  5
464
  8
TEAM-NET
 10
177.193344
 20
-290.251099
 30
842.62049
 70
    32
  0
SEQEND
  5
465
  8
TEAM-NET
  0
POLYLINE
  5
4E
  8
TEAM-NET
 66
     1
 10
0.0
 20
0.0
 30
0.0
 70
     8
  0
VERTEX
  5
466
  8
TEAM-NET
 10
193.016533
 20
-275.103096
 30
844.192188
 70
    32
  0
VERTEX
  5
467
  8
TEAM-NET
 10
191.469987
 20
-275.261254
 30
837.719047
 70
    32
  0
VERTEX
  5
468
  8
TEAM-NET
 10
189.644416
 20
-275.181579
 30
831.299839
 70
    32
  0
VERTEX
  5
469
  8
TEAM-NET
 10
187.546491
 20
-274.870948
 30
824.96543
 70
    32
  0
VERTEX
  5
46A
  8
TEAM-NET
 10
185.187813
 20
-274.340535
 30
818.744746
 70
    32
  0
VERTEX
  5
46B
  8
TEAM-NET
 10
179.746237
 20
-272.676524
 30
806.747839
 70
    32
  0
VERTEX
  5
46C
  8
TEAM-NET
 10
173.373477
 20
-270.288195
 30
795.348405
 70
    32
  0
VERTEX
  5
46D
  8
TEAM-NET
 10
166.131748
 20
-267.278778
 30
784.6023
 70
    32
  0
VERTEX
  5
46E
  8
TEAM-NET
 10
158.122941
 20
-263.773716
 30
774.604838
 70
    32
  0
VERTEX
  5
46F
  8
TEAM-NET
 10
149.462228
 20
-259.911068
 30
765.433135
 70
    32
  0
VERTEX
  5
470
  8
TEAM-NET
 10
140.172771
 20
-255.792661
 30
757.057925
 70
    32
  0
VERTEX
  5
471
  8
TEAM-NET
 10
130.256454
 20
-251.518657
 30
749.461143
 70
    32
  0
VERTEX
  5
472
  8
TEAM-NET
 10
119.767093
 20
-247.223589
 30
742.681296
 70
    32
  0
VERTEX
  5
473
  8
TEAM-NET
 10
108.755949
 20
-243.054123
 30
736.753468
 70
    32
  0
VERTEX
  5
474
  8
TEAM-NET
 10
97.232727
 20
-239.155575
 30
731.695782
 70
    32
  0
VERTEX
  5
475
  8
TEAM-NET
 10
85.116841
 20
-235.668435
 30
727.514161
 70
    32
  0
VERTEX
  5
476
  8
TEAM-NET
 10
72.511377
 20
-232.808365
 30
724.299049
 70
    32
  0
VERTEX
  5
477
  8
TEAM-NET
 10
66.068128
 20
-231.679187
 30
723.079097
 70
    32
  0
VERTEX
  5
478
  8
TEAM-NET
 10
59.555578
 20
-230.780469
 30
722.127289
 70
    32
  0
VERTEX
  5
479
  8
TEAM-NET
 10
52.988295
 20
-230.130302
 30
721.448815
 70
    32
  0
VERTEX
  5
47A
  8
TEAM-NET
 10
46.348987
 20
-229.740634
 30
721.046234
 70
    32
  0
SEQEND
  5
47B
  8
TEAM-NET
  0
ARC
  5
4F
  8
TEAM-NET
 10
-40.208174
 20
877.273904
 30
-125.0
 40
146.348311
210
0.0
220
1.0
230
0.0
 50
196.907803
 51
267.6734
  0
ARC
  5
50
  8
TEAM-NET
 10
40.208174
 20
877.273904
 30
135.0
 40
156.348311
210
0.0
220
-1.0
230
0.0
 50
272.250956
 51
347.784462
  0
POLYLINE
  5
51
  8
TEAM-NET
 66
     1
 10
0.0
 20
0.0
 30
0.0
 70
     8
  0
VERTEX
  5
47C
  8
TEAM-NET
 10
193.016533
 20
-275.103096
 30
844.192188
 70
    32
  0
VERTEX
  5
47D
  8
TEAM-NET
 10
191.469987
 20
-275.261254
 30
837.719047
 70
    32
  0
VERTEX
  5
47E
  8
TEAM-NET
 10
189.644416
 20
-275.181579
 30
831.299839
 70
    32
  0
VERTEX
  5
47F
  8
TEAM-NET
 10
187.546491
 20
-274.870948
 30
824.96543
 70
    32
  0
VERTEX
  5
480
  8
TEAM-NET
 10
185.187813
 20
-274.340535
 30
818.744746
 70
    32
  0
VERTEX
  5
481
  8
TEAM-NET
 10
179.746237
 20
-272.676524
 30
806.747839
 70
    32
  0
VERTEX
  5
482
  8
TEAM-NET
 10
173.373477
 20
-270.288195
 30
795.348405
 70
    32
  0
VERTEX
  5
483
  8
TEAM-NET
 10
166.131748
 20
-267.278778
 30
784.6023
 70
    32
  0
VERTEX
  5
484
  8
TEAM-NET
 10
158.122941
 20
-263.773716
 30
774.604838
 70
    32
  0
VERTEX
  5
485
  8
TEAM-NET
 10
149.462228
 20
-259.911068
 30
765.433135
 70
    32
  0
VERTEX
  5
486
  8
TEAM-NET
 10
140.172771
 20
-255.792661
 30
757.057925
 70
    32
  0
VERTEX
  5
487
  8
TEAM-NET
 10
130.256454
 20
-251.518657
 30
749.461143
 70
    32
  0
VERTEX
  5
488
  8
TEAM-NET
 10
119.767093
 20
-247.223589
 30
742.681296
 70
    32
  0
VERTEX
  5
489
  8
TEAM-NET
 10
108.755949
 20
-243.054123
 30
736.753468
 70
    32
  0
VERTEX
  5
48A
  8
TEAM-NET
 10
97.232727
 20
-239.155575
 30
731.695782
 70
    32
  0
VERTEX
  5
48B
  8
TEAM-NET
 10
85.116841
 20
-235.668435
 30
727.514161
 70
    32
  0
VERTEX
  5
48C
  8
TEAM-NET
 10
72.511377
 20
-232.808365
 30
724.299049
 70
    32
  0
VERTEX
  5
48D
  8
TEAM-NET
 10
66.068128
 20
-231.679187
 30
723.079097
 70
    32
  0
VERTEX
  5
48E
  8
TEAM-NET
 10
59.555578
 20
-230.780469
 30
722.127289
 70
    32
  0
VERTEX
  5
48F
  8
TEAM-NET
 10
52.988295
 20
-230.130302
 30
721.448815
 70
    32
  0
VERTEX
  5
490
  8
TEAM-NET
 10
46.348987
 20
-229.740634
 30
721.046234
 70
    32
  0
SEQEND
  5
491
  8
TEAM-NET
  0
ARC
  5
52
  8
TEAM-NET
 10
40.208174
 20
877.273904
 30
135.0
 40
156.348311
210
0.0
220
-1.0
230
0.0
 50
272.250956
 51
347.784462
  0
ARC
  5
53
  8
TEAM-NET
 10
34.107764
 20
814.711059
 30
125.0
 40
13.0
210
0.0
220
-1.0
230
0.0
 50
270.0
 51
0.0
  0
ARC
  5
54
  8
TEAM-NET
 10
40.208174
 20
877.273904
 30
125.0
 40
146.348311
210
0.0
220
-1.0
230
0.0
 50
272.3266
 51
343.092197
  0
ARC
  5
55
  8
TEAM-NET
 10
-41.992645
 20
877.273904
 30
125.0
 40
146.348311
210
0.0
220
-1.0
230
0.0
 50
196.907803
 51
267.6734
  0
ARC
  5
56
  8
TEAM-NET
 10
34.107764
 20
814.711059
 30
125.0
 40
13.0
210
0.0
220
-1.0
230
0.0
 50
270.0
 51
0.0
  0
LINE
  5
57
  8
TEAM-NET
 10
114.107764
 20
-110.0
 30
702.517812
 11
114.107764
 21
-110.0
 31
829.711059
210
0.0
220
1.0
230
0.0
  0
LINE
  5
58
  8
TEAM-NET
 10
-115.892236
 20
-110.0
 30
702.517812
 11
-115.892236
 21
-110.0
 31
829.711059
210
0.0
220
1.0
230
0.0
  0
TEXT
  5
59
  8
TEAM-TXT
 10
-138.185706
 20
-266.098868
 30
581.0
 40
30.0
  1
team 221066
 41
0.8
 51
15.0
  7
TEAM
  0
LINE
  5
5C
  8
TEAM-NET
 10
-15.11377
 20
-149.548529
 30
728.034168
 11
-15.11377
 21
-149.548529
 31
693.034168
  0
LINE
  5
5D
  8
TEAM-NET
 10
-16.519173
 20
-150.971499
 30
728.034168
 11
-16.519173
 21
-150.971499
 31
693.034168
  0
LINE
  5
5E
  8
TEAM-NET
 10
14.559235
 20
-150.778465
 30
728.034168
 11
14.559235
 21
-150.778465
 31
693.034168
  0
LINE
  5
5F
  8
TEAM-NET
 10
13.136265
 20
-149.373063
 30
728.034168
 11
13.136265
 21
-149.373063
 31
693.034168
  0
LINE
  5
60
  8
TEAM-NET
 10
13.329299
 20
-180.451471
 30
728.034168
 11
13.329299
 21
-180.451471
 31
693.034168
  0
LINE
  5
61
  8
TEAM-NET
 10
14.734702
 20
-179.028501
 30
728.034168
 11
14.734702
 21
-179.028501
 31
693.034168
  0
LINE
  5
62
  8
TEAM-NET
 10
-16.343706
 20
-179.221535
 30
728.034168
 11
-16.343706
 21
-179.221535
 31
693.034168
  0
LINE
  5
63
  8
TEAM-NET
 10
-14.920736
 20
-180.626937
 30
728.034168
 11
-14.920736
 21
-180.626937
 31
693.034168
  0
POLYLINE
  5
64
  8
TEAM-NET
 66
     1
 10
0.0
 20
0.0
 30
0.0
 70
     8
  0
VERTEX
  5
492
  8
TEAM-NET
 10
46.149281
 20
-125.0
 30
731.046234
 70
    32
  0
VERTEX
  5
493
  8
TEAM-NET
 10
46.188828
 20
-125.192764
 30
729.092235
 70
    32
  0
VERTEX
  5
494
  8
TEAM-NET
 10
46.226606
 20
-125.763637
 30
727.213533
 70
    32
  0
VERTEX
  5
495
  8
TEAM-NET
 10
46.261136
 20
-126.68836
 30
725.485968
 70
    32
  0
VERTEX
  5
496
  8
TEAM-NET
 10
46.291229
 20
-127.931754
 30
723.972346
 70
    32
  0
VERTEX
  5
497
  8
TEAM-NET
 10
46.315823
 20
-129.446901
 30
722.729804
 70
    32
  0
VERTEX
  5
498
  8
TEAM-NET
 10
46.334028
 20
-131.174919
 30
721.806713
 70
    32
  0
VERTEX
  5
499
  8
TEAM-NET
 10
46.345216
 20
-133.050087
 30
721.238189
 70
    32
  0
VERTEX
  5
49A
  8
TEAM-NET
 10
46.348987
 20
-135.0
 30
721.046234
 70
    32
  0
SEQEND
  5
49B
  8
TEAM-NET
  0
POLYLINE
  5
65
  8
TEAM-NET
 66
     1
 10
0.0
 20
0.0
 30
0.0
 70
     8
  0
VERTEX
  5
49C
  8
TEAM-NET
 10
-47.933752
 20
-125.0
 30
731.046234
 70
    32
  0
VERTEX
  5
49D
  8
TEAM-NET
 10
-47.973299
 20
-125.192764
 30
729.092235
 70
    32
  0
VERTEX
  5
49E
  8
TEAM-NET
 10
-48.011077
 20
-125.763637
 30
727.213533
 70
    32
  0
VERTEX
  5
49F
  8
TEAM-NET
 10
-48.045607
 20
-126.68836
 30
725.485968
 70
    32
  0
VERTEX
  5
4A0
  8
TEAM-NET
 10
-48.0757
 20
-127.931754
 30
723.972346
 70
    32
  0
VERTEX
  5
4A1
  8
TEAM-NET
 10
-48.100294
 20
-129.446901
 30
722.729804
 70
    32
  0
VERTEX
  5
4A2
  8
TEAM-NET
 10
-48.118499
 20
-131.174919
 30
721.806713
 70
    32
  0
VERTEX
  5
4A3
  8
TEAM-NET
 10
-48.129687
 20
-133.050087
 30
721.238189
 70
    32
  0
VERTEX
  5
4A4
  8
TEAM-NET
 10
-48.133458
 20
-135.0
 30
721.046234
 70
    32
  0
SEQEND
  5
4A5
  8
TEAM-NET
  0
POLYLINE
  5
66
  8
TEAM-NET
 66
     1
 10
0.0
 20
0.0
 30
0.0
 70
     8
  0
VERTEX
  5
4A6
  8
TEAM-NET
 10
-47.831339
 20
-239.972477
 30
725.066082
 70
    32
  0
VERTEX
  5
4A7
  8
TEAM-NET
 10
-47.915425
 20
-237.748224
 30
723.354608
 70
    32
  0
VERTEX
  5
4A8
  8
TEAM-NET
 10
-47.995466
 20
-235.244046
 30
722.087395
 70
    32
  0
VERTEX
  5
4A9
  8
TEAM-NET
 10
-48.06886
 20
-232.547588
 30
721.308849
 70
    32
  0
VERTEX
  5
4AA
  8
TEAM-NET
 10
-48.133327
 20
-229.753071
 30
721.046234
 70
    32
  0
SEQEND
  5
4AB
  8
TEAM-NET
  0
POLYLINE
  5
67
  8
TEAM-NET
 66
     1
 10
0.0
 20
0.0
 30
0.0
 70
     8
  0
VERTEX
  5
4AC
  8
TEAM-NET
 10
46.046868
 20
-239.972477
 30
725.066082
 70
    32
  0
VERTEX
  5
4AD
  8
TEAM-NET
 10
46.130954
 20
-237.748224
 30
723.354608
 70
    32
  0
VERTEX
  5
4AE
  8
TEAM-NET
 10
46.210995
 20
-235.244046
 30
722.087395
 70
    32
  0
VERTEX
  5
4AF
  8
TEAM-NET
 10
46.284389
 20
-232.547588
 30
721.308849
 70
    32
  0
VERTEX
  5
4B0
  8
TEAM-NET
 10
46.348856
 20
-229.753071
 30
721.046234
 70
    32
  0
SEQEND
  5
4B1
  8
TEAM-NET
  0
LINE
  5
68
  8
TEAM-NET
 10
31.003297
 20
-165.0
 30
724.717826
 11
20.107764
 21
-165.0
 31
716.034168
  0
LINE
  5
69
  8
TEAM-NET
 10
-32.787768
 20
-165.0
 30
724.717826
 11
-21.892236
 21
-165.0
 31
716.034168
  0
LINE
  5
6A
  8
TEAM-NET
 10
31.805531
 20
-165.0
 30
724.717826
 11
21.107764
 21
-165.0
 31
716.191786
  0
LINE
  5
6B
  8
TEAM-NET
 10
-33.590002
 20
-165.0
 30
724.717826
 11
-22.892236
 21
-165.0
 31
716.191786
  0
LINE
  5
6C
  8
TEAM-NET
 10
31.805531
 20
-165.0
 30
724.717826
 11
21.107764
 21
-165.0
 31
716.191786
  0
LINE
  5
6D
  8
TEAM-NET
 10
-33.590002
 20
-165.0
 30
724.717826
 11
-22.892236
 21
-165.0
 31
716.191786
  0
LINE
  5
6E
  8
TEAM-NET
 10
31.003297
 20
-165.0
 30
724.717826
 11
20.107764
 21
-165.0
 31
716.034168
  0
LINE
  5
6F
  8
TEAM-NET
 10
-32.787768
 20
-165.0
 30
724.717826
 11
-21.892236
 21
-165.0
 31
716.034168
  0
POLYLINE
  5
70
  8
TEAM-NET
 66
     1
 10
0.0
 20
0.0
 30
0.0
 70
     8
  0
VERTEX
  5
4B2
  8
TEAM-NET
 10
-47.933752
 20
-125.0
 30
731.046234
 70
    32
  0
VERTEX
  5
4B3
  8
TEAM-NET
 10
-47.973299
 20
-125.192764
 30
729.092235
 70
    32
  0
VERTEX
  5
4B4
  8
TEAM-NET
 10
-48.011077
 20
-125.763637
 30
727.213533
 70
    32
  0
VERTEX
  5
4B5
  8
TEAM-NET
 10
-48.045607
 20
-126.68836
 30
725.485968
 70
    32
  0
VERTEX
  5
4B6
  8
TEAM-NET
 10
-48.0757
 20
-127.931754
 30
723.972346
 70
    32
  0
VERTEX
  5
4B7
  8
TEAM-NET
 10
-48.100294
 20
-129.446901
 30
722.729804
 70
    32
  0
VERTEX
  5
4B8
  8
TEAM-NET
 10
-48.118499
 20
-131.174919
 30
721.806713
 70
    32
  0
VERTEX
  5
4B9
  8
TEAM-NET
 10
-48.129687
 20
-133.050087
 30
721.238189
 70
    32
  0
VERTEX
  5
4BA
  8
TEAM-NET
 10
-48.133458
 20
-135.0
 30
721.046234
 70
    32
  0
SEQEND
  5
4BB
  8
TEAM-NET
  0
POLYLINE
  5
71
  8
TEAM-NET
 66
     1
 10
0.0
 20
0.0
 30
0.0
 70
     8
  0
VERTEX
  5
4BC
  8
TEAM-NET
 10
-47.831339
 20
-239.972477
 30
725.066082
 70
    32
  0
VERTEX
  5
4BD
  8
TEAM-NET
 10
-47.915425
 20
-237.748224
 30
723.354608
 70
    32
  0
VERTEX
  5
4BE
  8
TEAM-NET
 10
-47.995466
 20
-235.244046
 30
722.087395
 70
    32
  0
VERTEX
  5
4BF
  8
TEAM-NET
 10
-48.06886
 20
-232.547588
 30
721.308849
 70
    32
  0
VERTEX
  5
4C0
  8
TEAM-NET
 10
-48.133327
 20
-229.753071
 30
721.046234
 70
    32
  0
SEQEND
  5
4C1
  8
TEAM-NET
  0
POLYLINE
  5
72
  8
TEAM-NET
 66
     1
 10
0.0
 20
0.0
 30
0.0
 70
     8
  0
VERTEX
  5
4C2
  8
TEAM-NET
 10
46.046868
 20
-239.972477
 30
725.066082
 70
    32
  0
VERTEX
  5
4C3
  8
TEAM-NET
 10
46.130954
 20
-237.748224
 30
723.354608
 70
    32
  0
VERTEX
  5
4C4
  8
TEAM-NET
 10
46.210995
 20
-235.244046
 30
722.087395
 70
    32
  0
VERTEX
  5
4C5
  8
TEAM-NET
 10
46.284389
 20
-232.547588
 30
721.308849
 70
    32
  0
VERTEX
  5
4C6
  8
TEAM-NET
 10
46.348856
 20
-229.753071
 30
721.046234
 70
    32
  0
SEQEND
  5
4C7
  8
TEAM-NET
  0
POLYLINE
  5
73
  8
TEAM-NET
 66
     1
 10
0.0
 20
0.0
 30
0.0
 70
     8
  0
VERTEX
  5
4C8
  8
TEAM-NET
 10
46.149281
 20
-125.0
 30
731.046234
 70
    32
  0
VERTEX
  5
4C9
  8
TEAM-NET
 10
46.188828
 20
-125.192764
 30
729.092235
 70
    32
  0
VERTEX
  5
4CA
  8
TEAM-NET
 10
46.226606
 20
-125.763637
 30
727.213533
 70
    32
  0
VERTEX
  5
4CB
  8
TEAM-NET
 10
46.261136
 20
-126.68836
 30
725.485968
 70
    32
  0
VERTEX
  5
4CC
  8
TEAM-NET
 10
46.291229
 20
-127.931754
 30
723.972346
 70
    32
  0
VERTEX
  5
4CD
  8
TEAM-NET
 10
46.315823
 20
-129.446901
 30
722.729804
 70
    32
  0
VERTEX
  5
4CE
  8
TEAM-NET
 10
46.334028
 20
-131.174919
 30
721.806713
 70
    32
  0
VERTEX
  5
4CF
  8
TEAM-NET
 10
46.345216
 20
-133.050087
 30
721.238189
 70
    32
  0
VERTEX
  5
4D0
  8
TEAM-NET
 10
46.348987
 20
-135.0
 30
721.046234
 70
    32
  0
SEQEND
  5
4D1
  8
TEAM-NET
  0
LINE
  5
74
  8
TEAM-NET
 10
-4.398736
 20
-160.131278
 30
688.034168
 11
-4.398736
 21
-160.131278
 31
728.034168
210
0.702701
220
0.711485
230
0.0
  0
LINE
  5
75
  8
TEAM-NET
 10
-15.11377
 20
-149.548529
 30
728.034168
 11
-15.11377
 21
-149.548529
 31
693.034168
210
0.702701
220
0.711485
230
0.0
  0
LINE
  5
76
  8
TEAM-NET
 10
3.976486
 20
-161.493499
 30
688.034168
 11
3.976486
 21
-161.493499
 31
728.034168
210
0.711485
220
-0.702701
230
0.0
  0
LINE
  5
77
  8
TEAM-NET
 10
14.559235
 20
-150.778465
 30
728.034168
 11
14.559235
 21
-150.778465
 31
693.034168
210
0.711485
220
-0.702701
230
0.0
  0
LINE
  5
78
  8
TEAM-NET
 10
2.614265
 20
-169.868722
 30
688.034168
 11
2.614265
 21
-169.868722
 31
728.034168
210
-0.702701
220
-0.711485
230
0.0
  0
LINE
  5
79
  8
TEAM-NET
 10
13.329299
 20
-180.451471
 30
728.034168
 11
13.329299
 21
-180.451471
 31
693.034168
210
-0.702701
220
-0.711485
230
0.0
  0
LINE
  5
7A
  8
TEAM-NET
 10
-5.760957
 20
-168.506501
 30
728.034168
 11
-5.760957
 21
-168.506501
 31
688.034168
210
-0.711485
220
0.702701
230
0.0
  0
LINE
  5
7B
  8
TEAM-NET
 10
-16.343706
 20
-179.221535
 30
728.034168
 11
-16.343706
 21
-179.221535
 31
693.034168
210
-0.711485
220
0.702701
230
0.0
  0
LINE
  5
7C
  8
TEAM-NET
 10
4.019668
 20
-168.445752
 30
728.034168
 11
4.019668
 21
-168.445752
 31
688.034168
210
0.702701
220
0.711485
230
0.0
  0
LINE
  5
7D
  8
TEAM-NET
 10
14.734702
 20
-179.028501
 30
728.034168
 11
14.734702
 21
-179.028501
 31
693.034168
210
0.702701
220
0.711485
230
0.0
  0
LINE
  5
7E
  8
TEAM-NET
 10
-4.337987
 20
-169.911903
 30
728.034168
 11
-4.337987
 21
-169.911903
 31
688.034168
  0
LINE
  5
7F
  8
TEAM-NET
 10
2.614265
 20
-169.868722
 30
688.034168
 11
2.614265
 21
-169.868722
 31
728.034168
  0
LINE
  5
80
  8
TEAM-NET
 10
2.553516
 20
-160.088097
 30
728.034168
 11
2.553516
 21
-160.088097
 31
688.034168
210
-0.711485
220
0.702701
230
0.0
  0
LINE
  5
81
  8
TEAM-NET
 10
13.136265
 20
-149.373063
 30
728.034168
 11
13.136265
 21
-149.373063
 31
693.034168
210
-0.711485
220
0.702701
230
0.0
  0
LINE
  5
82
  8
TEAM-NET
 10
3.976486
 20
-161.493499
 30
688.034168
 11
3.976486
 21
-161.493499
 31
728.034168
  0
LINE
  5
83
  8
TEAM-NET
 10
4.019668
 20
-168.445752
 30
728.034168
 11
4.019668
 21
-168.445752
 31
688.034168
  0
LINE
  5
84
  8
TEAM-NET
 10
-5.804139
 20
-161.554248
 30
728.034168
 11
-5.804139
 21
-161.554248
 31
688.034168
210
-0.702701
220
-0.711485
230
0.0
  0
LINE
  5
85
  8
TEAM-NET
 10
-16.519173
 20
-150.971499
 30
728.034168
 11
-16.519173
 21
-150.971499
 31
693.034168
210
-0.702701
220
-0.711485
230
0.0
  0
LINE
  5
86
  8
TEAM-NET
 10
-5.760957
 20
-168.506501
 30
728.034168
 11
-5.760957
 21
-168.506501
 31
688.034168
  0
LINE
  5
87
  8
TEAM-NET
 10
-5.804139
 20
-161.554248
 30
728.034168
 11
-5.804139
 21
-161.554248
 31
688.034168
  0
LINE
  5
88
  8
TEAM-NET
 10
-4.398736
 20
-160.131278
 30
688.034168
 11
-4.398736
 21
-160.131278
 31
728.034168
  0
LINE
  5
89
  8
TEAM-NET
 10
2.553516
 20
-160.088097
 30
728.034168
 11
2.553516
 21
-160.088097
 31
688.034168
  0
LINE
  5
8A
  8
TEAM-NET
 10
-4.337987
 20
-169.911903
 30
728.034168
 11
-4.337987
 21
-169.911903
 31
688.034168
210
0.711485
220
-0.702701
230
0.0
  0
LINE
  5
8B
  8
TEAM-NET
 10
-14.920736
 20
-180.626937
 30
728.034168
 11
-14.920736
 21
-180.626937
 31
693.034168
210
0.711485
220
-0.702701
230
0.0
  0
POLYLINE
  5
8C
  8
TEAM-NET
 66
     1
 10
0.0
 20
0.0
 30
0.0
 70
     8
  0
VERTEX
  5
4D2
  8
TEAM-NET
 10
-119.284914
 20
-31.0
 30
697.960302
 70
    32
  0
VERTEX
  5
4D3
  8
TEAM-NET
 10
-118.092348
 20
-32.239666
 30
698.341743
 70
    32
  0
VERTEX
  5
4D4
  8
TEAM-NET
 10
-117.030876
 20
-33.408709
 30
699.118767
 70
    32
  0
VERTEX
  5
4D5
  8
TEAM-NET
 10
-116.223613
 20
-34.38865
 30
700.319758
 70
    32
  0
VERTEX
  5
4D6
  8
TEAM-NET
 10
-115.892236
 20
-34.955146
 30
701.913929
 70
    32
  0
SEQEND
  5
4D7
  8
TEAM-NET
  0
POLYLINE
  5
8D
  8
TEAM-NET
 66
     1
 10
0.0
 20
0.0
 30
0.0
 70
     8
  0
VERTEX
  5
4D8
  8
TEAM-NET
 10
-119.284914
 20
-114.0
 30
697.960302
 70
    32
  0
VERTEX
  5
4D9
  8
TEAM-NET
 10
-118.092348
 20
-112.760334
 30
698.341743
 70
    32
  0
VERTEX
  5
4DA
  8
TEAM-NET
 10
-117.030876
 20
-111.591291
 30
699.118767
 70
    32
  0
VERTEX
  5
4DB
  8
TEAM-NET
 10
-116.223613
 20
-110.61135
 30
700.319758
 70
    32
  0
VERTEX
  5
4DC
  8
TEAM-NET
 10
-115.892236
 20
-110.044854
 30
701.913929
 70
    32
  0
SEQEND
  5
4DD
  8
TEAM-NET
  0
POLYLINE
  5
8E
  8
TEAM-NET
 66
     1
 10
0.0
 20
0.0
 30
0.0
 70
     8
  0
VERTEX
  5
4DE
  8
TEAM-NET
 10
117.500443
 20
-114.0
 30
697.960302
 70
    32
  0
VERTEX
  5
4DF
  8
TEAM-NET
 10
116.307877
 20
-112.760334
 30
698.341743
 70
    32
  0
VERTEX
  5
4E0
  8
TEAM-NET
 10
115.246405
 20
-111.591291
 30
699.118767
 70
    32
  0
VERTEX
  5
4E1
  8
TEAM-NET
 10
114.439142
 20
-110.61135
 30
700.319758
 70
    32
  0
VERTEX
  5
4E2
  8
TEAM-NET
 10
114.107764
 20
-110.044854
 30
701.913929
 70
    32
  0
SEQEND
  5
4E3
  8
TEAM-NET
  0
POLYLINE
  5
8F
  8
TEAM-NET
 66
     1
 10
0.0
 20
0.0
 30
0.0
 70
     8
  0
VERTEX
  5
4E4
  8
TEAM-NET
 10
117.500443
 20
-31.0
 30
697.960302
 70
    32
  0
VERTEX
  5
4E5
  8
TEAM-NET
 10
116.307877
 20
-32.239666
 30
698.341743
 70
    32
  0
VERTEX
  5
4E6
  8
TEAM-NET
 10
115.246405
 20
-33.408709
 30
699.118767
 70
    32
  0
VERTEX
  5
4E7
  8
TEAM-NET
 10
114.439142
 20
-34.38865
 30
700.319758
 70
    32
  0
VERTEX
  5
4E8
  8
TEAM-NET
 10
114.107764
 20
-34.955146
 30
701.913929
 70
    32
  0
SEQEND
  5
4E9
  8
TEAM-NET
  0
ARC
  5
90
  8
TEAM-NET
 10
-0.892236
 20
-72.768689
 30
0.0
 40
779.769199
210
0.0
220
-1.0
230
0.0
 50
80.444
 51
99.424881
  0
ARC
  5
91
  8
TEAM-NET
 10
0.892236
 20
-72.768689
 30
-31.0
 40
779.769199
210
0.0
220
1.0
230
0.0
 50
81.266983
 51
98.733017
  0
ARC
  5
92
  8
TEAM-NET
 10
-0.892236
 20
-72.768689
 30
114.0
 40
779.769199
210
0.0
220
-1.0
230
0.0
 50
81.266983
 51
98.733017
  0
POLYLINE
  5
93
  8
TEAM-NET
 66
     1
 10
0.0
 20
0.0
 30
0.0
 70
     8
  0
VERTEX
  5
4EA
  8
TEAM-NET
 10
131.711008
 20
-263.024795
 30
708.659467
 70
    32
  0
VERTEX
  5
4EB
  8
TEAM-NET
 10
131.267062
 20
-260.829189
 30
705.933877
 70
    32
  0
VERTEX
  5
4EC
  8
TEAM-NET
 10
130.82419
 20
-258.317274
 30
703.476249
 70
    32
  0
VERTEX
  5
4ED
  8
TEAM-NET
 10
130.389505
 20
-255.525204
 30
701.327576
 70
    32
  0
VERTEX
  5
4EE
  8
TEAM-NET
 10
129.966541
 20
-252.467689
 30
699.508565
 70
    32
  0
VERTEX
  5
4EF
  8
TEAM-NET
 10
129.563364
 20
-249.191378
 30
698.058789
 70
    32
  0
VERTEX
  5
4F0
  8
TEAM-NET
 10
129.184484
 20
-245.717259
 30
697.001331
 70
    32
  0
VERTEX
  5
4F1
  8
TEAM-NET
 10
128.836964
 20
-242.087046
 30
696.367475
 70
    32
  0
VERTEX
  5
4F2
  8
TEAM-NET
 10
128.530415
 20
-238.378844
 30
696.185004
 70
    32
  0
SEQEND
  5
4F3
  8
TEAM-NET
  0
POLYLINE
  5
94
  8
TEAM-NET
 66
     1
 10
0.0
 20
0.0
 30
0.0
 70
     8
  0
VERTEX
  5
4F4
  8
TEAM-NET
 10
144.735707
 20
-240.422663
 30
699.032791
 70
    32
  0
VERTEX
  5
4F5
  8
TEAM-NET
 10
143.52614
 20
-243.945599
 30
698.958817
 70
    32
  0
VERTEX
  5
4F6
  8
TEAM-NET
 10
142.144564
 20
-247.363165
 30
699.297904
 70
    32
  0
VERTEX
  5
4F7
  8
TEAM-NET
 10
140.624801
 20
-250.602006
 30
700.028697
 70
    32
  0
VERTEX
  5
4F8
  8
TEAM-NET
 10
138.991233
 20
-253.623769
 30
701.124438
 70
    32
  0
VERTEX
  5
4F9
  8
TEAM-NET
 10
137.258537
 20
-256.409374
 30
702.564563
 70
    32
  0
VERTEX
  5
4FA
  8
TEAM-NET
 10
135.456746
 20
-258.916565
 30
704.315504
 70
    32
  0
VERTEX
  5
4FB
  8
TEAM-NET
 10
133.598164
 20
-261.13232
 30
706.358817
 70
    32
  0
VERTEX
  5
4FC
  8
TEAM-NET
 10
131.711008
 20
-263.024795
 30
708.659467
 70
    32
  0
SEQEND
  5
4FD
  8
TEAM-NET
  0
ARC
  5
95
  8
TEAM-NET
 10
165.09705
 20
526.037748
 30
545.849925
 40
30.0
210
-0.798569
220
-0.349307
230
0.490177
 50
257.898376
 51
318.255433
  0
ARC
  5
96
  8
TEAM-NET
 10
252.623424
 20
733.405042
 30
-14.944542
 40
30.0
210
-0.979852
220
0.115907
230
-0.162651
 50
268.897765
 51
323.97286
  0
ARC
  5
97
  8
TEAM-NET
 10
252.623424
 20
733.405042
 30
-14.944542
 40
30.0
210
-0.979852
220
0.115907
230
-0.162651
 50
268.897765
 51
323.97286
  0
POLYLINE
  5
98
  8
TEAM-NET
 66
     1
 10
0.0
 20
0.0
 30
0.0
 70
     8
  0
VERTEX
  5
4FE
  8
TEAM-NET
 10
131.711008
 20
-263.024795
 30
708.659467
 70
    32
  0
VERTEX
  5
4FF
  8
TEAM-NET
 10
131.267062
 20
-260.829189
 30
705.933877
 70
    32
  0
VERTEX
  5
500
  8
TEAM-NET
 10
130.82419
 20
-258.317274
 30
703.476249
 70
    32
  0
VERTEX
  5
501
  8
TEAM-NET
 10
130.389505
 20
-255.525204
 30
701.327576
 70
    32
  0
VERTEX
  5
502
  8
TEAM-NET
 10
129.966541
 20
-252.467689
 30
699.508565
 70
    32
  0
VERTEX
  5
503
  8
TEAM-NET
 10
129.563364
 20
-249.191378
 30
698.058789
 70
    32
  0
VERTEX
  5
504
  8
TEAM-NET
 10
129.184484
 20
-245.717259
 30
697.001331
 70
    32
  0
VERTEX
  5
505
  8
TEAM-NET
 10
128.836964
 20
-242.087046
 30
696.367475
 70
    32
  0
VERTEX
  5
506
  8
TEAM-NET
 10
128.530415
 20
-238.378844
 30
696.185004
 70
    32
  0
SEQEND
  5
507
  8
TEAM-NET
  0
POLYLINE
  5
99
  8
TEAM-NET
 66
     1
 10
0.0
 20
0.0
 30
0.0
 70
     8
  0
VERTEX
  5
508
  8
TEAM-NET
 10
-119.284914
 20
-31.0
 30
697.960302
 70
    32
  0
VERTEX
  5
509
  8
TEAM-NET
 10
-118.092348
 20
-32.239666
 30
698.341743
 70
    32
  0
VERTEX
  5
50A
  8
TEAM-NET
 10
-117.030876
 20
-33.408709
 30
699.118767
 70
    32
  0
VERTEX
  5
50B
  8
TEAM-NET
 10
-116.223613
 20
-34.38865
 30
700.319758
 70
    32
  0
VERTEX
  5
50C
  8
TEAM-NET
 10
-115.892236
 20
-34.955146
 30
701.913929
 70
    32
  0
SEQEND
  5
50D
  8
TEAM-NET
  0
POLYLINE
  5
9A
  8
TEAM-NET
 66
     1
 10
0.0
 20
0.0
 30
0.0
 70
     8
  0
VERTEX
  5
50E
  8
TEAM-NET
 10
117.500443
 20
-31.0
 30
697.960302
 70
    32
  0
VERTEX
  5
50F
  8
TEAM-NET
 10
116.307877
 20
-32.239666
 30
698.341743
 70
    32
  0
VERTEX
  5
510
  8
TEAM-NET
 10
115.246405
 20
-33.408709
 30
699.118767
 70
    32
  0
VERTEX
  5
511
  8
TEAM-NET
 10
114.439142
 20
-34.38865
 30
700.319758
 70
    32
  0
VERTEX
  5
512
  8
TEAM-NET
 10
114.107764
 20
-34.955146
 30
701.913929
 70
    32
  0
SEQEND
  5
513
  8
TEAM-NET
  0
ARC
  5
9B
  8
TEAM-NET
 10
0.892236
 20
-72.768689
 30
-31.0
 40
779.769199
210
0.0
220
1.0
230
0.0
 50
81.266983
 51
98.733017
  0
POLYLINE
  5
9C
  8
TEAM-NET
 66
     1
 10
0.0
 20
0.0
 30
0.0
 70
     8
  0
VERTEX
  5
514
  8
TEAM-NET
 10
117.500443
 20
-114.0
 30
697.960302
 70
    32
  0
VERTEX
  5
515
  8
TEAM-NET
 10
116.307877
 20
-112.760334
 30
698.341743
 70
    32
  0
VERTEX
  5
516
  8
TEAM-NET
 10
115.246405
 20
-111.591291
 30
699.118767
 70
    32
  0
VERTEX
  5
517
  8
TEAM-NET
 10
114.439142
 20
-110.61135
 30
700.319758
 70
    32
  0
VERTEX
  5
518
  8
TEAM-NET
 10
114.107764
 20
-110.044854
 30
701.913929
 70
    32
  0
SEQEND
  5
519
  8
TEAM-NET
  0
POLYLINE
  5
9D
  8
TEAM-NET
 66
     1
 10
0.0
 20
0.0
 30
0.0
 70
     8
  0
VERTEX
  5
51A
  8
TEAM-NET
 10
-119.284914
 20
-114.0
 30
697.960302
 70
    32
  0
VERTEX
  5
51B
  8
TEAM-NET
 10
-118.092348
 20
-112.760334
 30
698.341743
 70
    32
  0
VERTEX
  5
51C
  8
TEAM-NET
 10
-117.030876
 20
-111.591291
 30
699.118767
 70
    32
  0
VERTEX
  5
51D
  8
TEAM-NET
 10
-116.223613
 20
-110.61135
 30
700.319758
 70
    32
  0
VERTEX
  5
51E
  8
TEAM-NET
 10
-115.892236
 20
-110.044854
 30
701.913929
 70
    32
  0
SEQEND
  5
51F
  8
TEAM-NET
  0
ARC
  5
9E
  8
TEAM-NET
 10
-0.892236
 20
-72.768689
 30
114.0
 40
779.769199
210
0.0
220
-1.0
230
0.0
 50
81.266983
 51
98.733017
  0
LINE
  5
9F
  8
TEAM-NET
 10
21.107764
 20
-165.0
 30
716.191786
 11
21.107764
 21
-165.0
 31
698.821067
  0
LINE
  5
A0
  8
TEAM-NET
 10
-22.892236
 20
-165.0
 30
716.191786
 11
-22.892236
 21
-165.0
 31
698.821067
  0
LINE
  5
A1
  8
TEAM-NET
 10
20.107764
 20
-165.0
 30
716.034168
 11
20.107764
 21
-165.0
 31
698.821067
  0
LINE
  5
A2
  8
TEAM-NET
 10
-21.892236
 20
-165.0
 30
716.034168
 11
-21.892236
 21
-165.0
 31
698.821067
  0
LINE
  5
A3
  8
TEAM-NET
 10
20.107764
 20
-165.0
 30
716.034168
 11
20.107764
 21
-165.0
 31
698.821067
  0
LINE
  5
A4
  8
TEAM-NET
 10
-21.892236
 20
-165.0
 30
716.034168
 11
-21.892236
 21
-165.0
 31
698.821067
  0
LINE
  5
A5
  8
TEAM-NET
 10
21.107764
 20
-165.0
 30
716.191786
 11
21.107764
 21
-165.0
 31
698.821067
  0
LINE
  5
A6
  8
TEAM-NET
 10
-22.892236
 20
-165.0
 30
716.191786
 11
-22.892236
 21
-165.0
 31
698.821067
  0
ARC
  5
A7
  8
TEAM-NET
 10
165.09705
 20
526.037748
 30
545.849925
 40
30.0
210
-0.798569
220
-0.349307
230
0.490177
 50
257.898376
 51
318.255433
  0
POLYLINE
  5
A8
  8
TEAM-NET
 66
     1
 10
0.0
 20
0.0
 30
0.0
 70
     8
  0
VERTEX
  5
520
  8
TEAM-NET
 10
144.735707
 20
-240.422663
 30
699.032791
 70
    32
  0
VERTEX
  5
521
  8
TEAM-NET
 10
143.52614
 20
-243.945599
 30
698.958817
 70
    32
  0
VERTEX
  5
522
  8
TEAM-NET
 10
142.144564
 20
-247.363165
 30
699.297904
 70
    32
  0
VERTEX
  5
523
  8
TEAM-NET
 10
140.624801
 20
-250.602006
 30
700.028697
 70
    32
  0
VERTEX
  5
524
  8
TEAM-NET
 10
138.991233
 20
-253.623769
 30
701.124438
 70
    32
  0
VERTEX
  5
525
  8
TEAM-NET
 10
137.258537
 20
-256.409374
 30
702.564563
 70
    32
  0
VERTEX
  5
526
  8
TEAM-NET
 10
135.456746
 20
-258.916565
 30
704.315504
 70
    32
  0
VERTEX
  5
527
  8
TEAM-NET
 10
133.598164
 20
-261.13232
 30
706.358817
 70
    32
  0
VERTEX
  5
528
  8
TEAM-NET
 10
131.711008
 20
-263.024795
 30
708.659467
 70
    32
  0
SEQEND
  5
529
  8
TEAM-NET
  0
ARC
  5
A9
  8
TEAM-NET
 10
0.892236
 20
-72.768689
 30
0.0
 40
779.769199
210
0.0
220
1.0
230
0.0
 50
80.575119
 51
99.556
  0
LINE
  5
AA
  8
TEAM-NET
 10
36.607764
 20
-165.0
 30
700.833963
 11
36.607764
 21
-165.0
 31
694.711059
  0
ARC
  5
AB
  8
TEAM-NET
 10
0.892236
 20
-165.0
 30
-694.711059
 40
37.5
210
0.0
220
0.0
230
-1.0
 50
0.0
 51
180.0
  0
POLYLINE
  5
AC
  8
TEAM-NET
 66
     1
 10
0.0
 20
0.0
 30
0.0
 70
     8
  0
VERTEX
  5
52A
  8
TEAM-NET
 10
36.607825
 20
-164.999823
 30
700.833955
 70
    32
  0
VERTEX
  5
52B
  8
TEAM-NET
 10
36.42701
 20
-161.323655
 30
700.845197
 70
    32
  0
VERTEX
  5
52C
  8
TEAM-NET
 10
35.884474
 20
-157.670126
 30
700.878558
 70
    32
  0
VERTEX
  5
52D
  8
TEAM-NET
 10
34.986747
 20
-154.093738
 30
700.932705
 70
    32
  0
VERTEX
  5
52E
  8
TEAM-NET
 10
33.749695
 20
-150.64081
 30
701.005114
 70
    32
  0
VERTEX
  5
52F
  8
TEAM-NET
 10
32.175059
 20
-147.313736
 30
701.0936
 70
    32
  0
VERTEX
  5
530
  8
TEAM-NET
 10
30.275304
 20
-144.147343
 30
701.194865
 70
    32
  0
VERTEX
  5
531
  8
TEAM-NET
 10
28.077818
 20
-141.188539
 30
701.304514
 70
    32
  0
VERTEX
  5
532
  8
TEAM-NET
 10
25.6139
 20
-138.473135
 30
701.417912
 70
    32
  0
VERTEX
  5
533
  8
TEAM-NET
 10
22.885059
 20
-136.001893
 30
701.53173
 70
    32
  0
VERTEX
  5
534
  8
TEAM-NET
 10
19.917727
 20
-133.803929
 30
701.641459
 70
    32
  0
VERTEX
  5
535
  8
TEAM-NET
 10
16.754838
 20
-131.911785
 30
701.742325
 70
    32
  0
VERTEX
  5
536
  8
TEAM-NET
 10
13.438896
 20
-130.346438
 30
701.830248
 70
    32
  0
VERTEX
  5
537
  8
TEAM-NET
 10
9.97048
 20
-129.10788
 30
701.902684
 70
    32
  0
VERTEX
  5
538
  8
TEAM-NET
 10
6.386559
 20
-128.21318
 30
701.956593
 70
    32
  0
VERTEX
  5
539
  8
TEAM-NET
 10
2.739471
 20
-127.676288
 30
701.989576
 70
    32
  0
VERTEX
  5
53A
  8
TEAM-NET
 10
-0.923576
 20
-127.500026
 30
702.000509
 70
    32
  0
VERTEX
  5
53B
  8
TEAM-NET
 10
-4.603081
 20
-127.684052
 30
701.989095
 70
    32
  0
VERTEX
  5
53C
  8
TEAM-NET
 10
-8.256277
 20
-128.230226
 30
701.955553
 70
    32
  0
VERTEX
  5
53D
  8
TEAM-NET
 10
-11.829791
 20
-129.130535
 30
701.90134
 70
    32
  0
VERTEX
  5
53E
  8
TEAM-NET
 10
-15.280706
 20
-130.370246
 30
701.82888
 70
    32
  0
VERTEX
  5
53F
  8
TEAM-NET
 10
-18.60899
 20
-131.949015
 30
701.740283
 70
    32
  0
VERTEX
  5
540
  8
TEAM-NET
 10
-21.773695
 20
-133.851876
 30
701.63898
 70
    32
  0
VERTEX
  5
541
  8
TEAM-NET
 10
-24.728765
 20
-136.050498
 30
701.529394
 70
    32
  0
VERTEX
  5
542
  8
TEAM-NET
 10
-27.441668
 20
-138.516438
 30
701.416007
 70
    32
  0
VERTEX
  5
543
  8
TEAM-NET
 10
-29.91229
 20
-141.249498
 30
701.302109
 70
    32
  0
VERTEX
  5
544
  8
TEAM-NET
 10
-32.107572
 20
-144.218932
 30
701.192391
 70
    32
  0
VERTEX
  5
545
  8
TEAM-NET
 10
-33.995506
 20
-147.381166
 30
701.091624
 70
    32
  0
VERTEX
  5
546
  8
TEAM-NET
 10
-35.557103
 20
-150.696151
 30
701.003793
 70
    32
  0
VERTEX
  5
547
  8
TEAM-NET
 10
-36.789281
 20
-154.1532
 30
700.931627
 70
    32
  0
VERTEX
  5
548
  8
TEAM-NET
 10
-37.676451
 20
-157.708172
 30
700.878103
 70
    32
  0
VERTEX
  5
549
  8
TEAM-NET
 10
-38.21298
 20
-161.337726
 30
700.845097
 70
    32
  0
VERTEX
  5
54A
  8
TEAM-NET
 10
-38.39224
 20
-164.999991
 30
700.833963
 70
    32
  0
SEQEND
  5
54B
  8
TEAM-NET
  0
LINE
  5
AD
  8
TEAM-NET
 10
-38.392236
 20
-165.0
 30
700.833963
 11
-38.392236
 21
-165.0
 31
694.711059
  0
LINE
  5
AE
  8
TEAM-NET
 10
36.607764
 20
-165.0
 30
700.833963
 11
36.607764
 21
-165.0
 31
694.711059
  0
POLYLINE
  5
AF
  8
TEAM-NET
 66
     1
 10
0.0
 20
0.0
 30
0.0
 70
     8
  0
VERTEX
  5
54C
  8
TEAM-NET
 10
-38.39224
 20
-164.999991
 30
700.833963
 70
    32
  0
VERTEX
  5
54D
  8
TEAM-NET
 10
-38.212411
 20
-168.667713
 30
700.84513
 70
    32
  0
VERTEX
  5
54E
  8
TEAM-NET
 10
-37.671439
 20
-172.31752
 30
700.87841
 70
    32
  0
VERTEX
  5
54F
  8
TEAM-NET
 10
-36.774152
 20
-175.896127
 30
700.932528
 70
    32
  0
VERTEX
  5
550
  8
TEAM-NET
 10
-35.537286
 20
-179.352182
 30
701.004937
 70
    32
  0
VERTEX
  5
551
  8
TEAM-NET
 10
-33.967389
 20
-182.671151
 30
701.093167
 70
    32
  0
VERTEX
  5
552
  8
TEAM-NET
 10
-32.070917
 20
-185.836113
 30
701.194288
 70
    32
  0
VERTEX
  5
553
  8
TEAM-NET
 10
-29.873654
 20
-188.797653
 30
701.303968
 70
    32
  0
VERTEX
  5
554
  8
TEAM-NET
 10
-27.409671
 20
-191.515595
 30
701.417415
 70
    32
  0
VERTEX
  5
555
  8
TEAM-NET
 10
-24.688566
 20
-193.982508
 30
701.53098
 70
    32
  0
VERTEX
  5
556
  8
TEAM-NET
 10
-21.725227
 20
-196.180725
 30
701.640665
 70
    32
  0
VERTEX
  5
557
  8
TEAM-NET
 10
-18.561834
 20
-198.076147
 30
701.741663
 70
    32
  0
VERTEX
  5
558
  8
TEAM-NET
 10
-15.245396
 20
-199.644592
 30
701.829733
 70
    32
  0
VERTEX
  5
559
  8
TEAM-NET
 10
-11.785699
 20
-200.882718
 30
701.902124
 70
    32
  0
VERTEX
  5
55A
  8
TEAM-NET
 10
-8.205904
 20
-201.77992
 30
701.956169
 70
    32
  0
VERTEX
  5
55B
  8
TEAM-NET
 10
-4.557149
 20
-202.32045
 30
701.989373
 70
    32
  0
VERTEX
  5
55C
  8
TEAM-NET
 10
-0.892505
 20
-202.500003
 30
702.000511
 70
    32
  0
VERTEX
  5
55D
  8
TEAM-NET
 10
2.778698
 20
-202.319869
 30
701.98934
 70
    32
  0
VERTEX
  5
55E
  8
TEAM-NET
 10
6.429497
 20
-201.778332
 30
701.956072
 70
    32
  0
VERTEX
  5
55F
  8
TEAM-NET
 10
10.006683
 20
-200.881098
 30
701.902034
 70
    32
  0
VERTEX
  5
560
  8
TEAM-NET
 10
13.459833
 20
-199.644986
 30
701.829753
 70
    32
  0
VERTEX
  5
561
  8
TEAM-NET
 10
16.782289
 20
-198.073603
 30
701.741523
 70
    32
  0
VERTEX
  5
562
  8
TEAM-NET
 10
19.947454
 20
-196.176164
 30
701.640429
 70
    32
  0
VERTEX
  5
563
  8
TEAM-NET
 10
22.907359
 20
-193.979842
 30
701.530852
 70
    32
  0
VERTEX
  5
564
  8
TEAM-NET
 10
25.623393
 20
-191.51738
 30
701.417495
 70
    32
  0
VERTEX
  5
565
  8
TEAM-NET
 10
28.092584
 20
-188.793374
 30
701.303802
 70
    32
  0
VERTEX
  5
566
  8
TEAM-NET
 10
30.290913
 20
-185.829502
 30
701.194058
 70
    32
  0
VERTEX
  5
567
  8
TEAM-NET
 10
32.184938
 20
-182.667485
 30
701.093058
 70
    32
  0
VERTEX
  5
568
  8
TEAM-NET
 10
33.752454
 20
-179.352687
 30
701.004956
 70
    32
  0
VERTEX
  5
569
  8
TEAM-NET
 10
34.991737
 20
-175.890084
 30
700.932404
 70
    32
  0
VERTEX
  5
56A
  8
TEAM-NET
 10
35.888487
 20
-172.309439
 30
700.878321
 70
    32
  0
VERTEX
  5
56B
  8
TEAM-NET
 10
36.428424
 20
-168.662116
 30
700.845103
 70
    32
  0
VERTEX
  5
56C
  8
TEAM-NET
 10
36.607825
 20
-164.999823
 30
700.833955
 70
    32
  0
SEQEND
  5
56D
  8
TEAM-NET
  0
ARC
  5
B0
  8
TEAM-NET
 10
0.892236
 20
-165.0
 30
-694.711059
 40
37.5
210
0.0
220
0.0
230
-1.0
 50
180.0
 51
0.0
  0
LINE
  5
B1
  8
TEAM-NET
 10
-38.392236
 20
-165.0
 30
700.833963
 11
-38.392236
 21
-165.0
 31
694.711059
  0
POLYLINE
  5
B2
  8
TEAM-NET
 66
     1
 10
0.0
 20
0.0
 30
694.711059
 70
   129
  0
VERTEX
  5
E25
  8
TEAM-NET
 10
25.107764
 20
-165.0
 30
694.711059
  0
VERTEX
  5
E26
  8
TEAM-NET
 10
24.622337
 20
-160.000397
 30
694.711059
  0
VERTEX
  5
E27
  8
TEAM-NET
 10
23.128069
 20
-155.05032
 30
694.711059
  0
VERTEX
  5
E28
  8
TEAM-NET
 10
20.684228
 20
-150.493323
 30
694.711059
  0
VERTEX
  5
E29
  8
TEAM-NET
 10
17.492408
 20
-146.615089
 30
694.711059
  0
VERTEX
  5
E2A
  8
TEAM-NET
 10
13.614179
 20
-143.423996
 30
694.711059
  0
VERTEX
  5
E2B
  8
TEAM-NET
 10
9.057498
 20
-140.979924
 30
694.711059
  0
VERTEX
  5
E2C
  8
TEAM-NET
 10
4.107373
 20
-139.485387
 30
694.711059
  0
VERTEX
  5
E2D
  8
TEAM-NET
 10
-0.892412
 20
-138.999999
 30
694.711059
  0
VERTEX
  5
E2E
  8
TEAM-NET
 10
-5.891717
 20
-139.485972
 30
694.711059
  0
VERTEX
  5
E2F
  8
TEAM-NET
 10
-10.842148
 20
-140.980001
 30
694.711059
  0
VERTEX
  5
E30
  8
TEAM-NET
 10
-15.398963
 20
-143.423517
 30
694.711059
  0
VERTEX
  5
E31
  8
TEAM-NET
 10
-19.277056
 20
-146.615267
 30
694.711059
  0
VERTEX
  5
E32
  8
TEAM-NET
 10
-22.468256
 20
-150.493576
 30
694.711059
  0
VERTEX
  5
E33
  8
TEAM-NET
 10
-24.912333
 20
-155.05025
 30
694.711059
  0
VERTEX
  5
E34
  8
TEAM-NET
 10
-26.40653
 20
-160.000471
 30
694.711059
  0
VERTEX
  5
E35
  8
TEAM-NET
 10
-26.892396
 20
-164.999775
 30
694.711059
  0
VERTEX
  5
E36
  8
TEAM-NET
 10
-26.406349
 20
-169.999493
 30
694.711059
  0
VERTEX
  5
E37
  8
TEAM-NET
 10
-24.912269
 20
-174.949801
 30
694.711059
  0
VERTEX
  5
E38
  8
TEAM-NET
 10
-22.468712
 20
-179.506709
 30
694.711059
  0
VERTEX
  5
E39
  8
TEAM-NET
 10
-19.276642
 20
-183.385184
 30
694.711059
  0
VERTEX
  5
E3A
  8
TEAM-NET
 10
-15.398728
 20
-186.576111
 30
694.711059
  0
VERTEX
  5
E3B
  8
TEAM-NET
 10
-10.842064
 20
-189.020003
 30
694.711059
  0
VERTEX
  5
E3C
  8
TEAM-NET
 10
-5.891713
 20
-190.514033
 30
694.711059
  0
VERTEX
  5
E3D
  8
TEAM-NET
 10
-0.892217
 20
-191.000138
 30
694.711059
  0
VERTEX
  5
E3E
  8
TEAM-NET
 10
4.107257
 20
-190.514114
 30
694.711059
  0
VERTEX
  5
E3F
  8
TEAM-NET
 10
9.057565
 20
-189.020027
 30
694.711059
  0
VERTEX
  5
E40
  8
TEAM-NET
 10
13.61448
 20
-186.576486
 30
694.711059
  0
VERTEX
  5
E41
  8
TEAM-NET
 10
17.492604
 20
-183.384714
 30
694.711059
  0
VERTEX
  5
E42
  8
TEAM-NET
 10
20.683754
 20
-179.506403
 30
694.711059
  0
VERTEX
  5
E43
  8
TEAM-NET
 10
23.127955
 20
-174.949816
 30
694.711059
  0
VERTEX
  5
E44
  8
TEAM-NET
 10
24.621917
 20
-169.9995
 30
694.711059
  0
SEQEND
  5
E45
  8
TEAM-NET
  0
ARC
  5
B3
  8
TEAM-NET
 10
0.892236
 20
-165.0
 30
-694.711059
 40
37.5
210
0.0
220
0.0
230
-1.0
 50
0.0
 51
180.0
  0
ARC
  5
B4
  8
TEAM-NET
 10
0.892236
 20
-165.0
 30
-694.711059
 40
37.5
210
0.0
220
0.0
230
-1.0
 50
180.0
 51
0.0
  0
ARC
  5
B5
  8
TEAM-NET
 10
132.708712
 20
720.833385
 30
237.925227
 40
25.0
210
0.0
220
-1.0
230
-0.0
 50
260.444
 51
300.600249
  0
LINE
  5
B6
  8
TEAM-NET
 10
145.434841
 20
-237.925227
 30
699.314889
 11
144.735707
 21
-240.422663
 31
699.032791
  0
LINE
  5
B7
  8
TEAM-NET
 10
128.530415
 20
-238.378844
 30
696.185004
 11
128.558424
 21
-237.925227
 31
696.180289
  0
ARC
  5
B8
  8
TEAM-NET
 10
162.295674
 20
715.913001
 30
234.872043
 40
25.0
210
-0.12885
220
-0.991427
230
0.021687
 50
260.526503
 51
299.258496
  0
ARC
  5
B9
  8
TEAM-NET
 10
-133.495479
 20
726.069553
 30
238.593484
 40
30.0
210
-0.0
220
-1.0
230
-0.0
 50
238.457601
 51
270.0
  0
ARC
  5
BA
  8
TEAM-NET
 10
-133.495479
 20
726.069553
 30
238.593484
 40
30.0
210
-0.0
220
-1.0
230
-0.0
 50
270.0
 51
279.424881
  0
LINE
  5
BB
  8
TEAM-NET
 10
-149.18936
 20
-238.593484
 30
700.501954
 11
-149.18936
 21
0.0
 31
700.501954
  0
LINE
  5
BC
  8
TEAM-NET
 10
-128.582848
 20
0.0
 30
696.474518
 11
-128.582848
 21
-238.593484
 31
696.474518
  0
ARC
  5
BD
  8
TEAM-NET
 10
-133.495479
 20
726.069553
 30
0.0
 40
30.0
210
0.0
220
-1.0
230
0.0
 50
238.457601
 51
279.424881
  0
LINE
  5
BE
  8
TEAM-NET
 10
-119.284914
 20
-114.0
 30
697.960302
 11
-119.284914
 21
-31.0
 31
697.960302
  0
LINE
  5
BF
  8
TEAM-NET
 10
117.500443
 20
-31.0
 30
697.960302
 11
117.500443
 21
-114.0
 31
697.960302
  0
ARC
  5
C0
  8
TEAM-NET
 10
132.708712
 20
720.833385
 30
0.0
 40
25.0
210
0.0
220
-1.0
230
0.0
 50
260.444
 51
300.600249
  0
LINE
  5
C1
  8
TEAM-NET
 10
145.434841
 20
0.0
 30
699.314889
 11
145.434841
 21
-237.925227
 31
699.314889
  0
LINE
  5
C2
  8
TEAM-NET
 10
128.558424
 20
-237.925227
 30
696.180289
 11
128.558424
 21
0.0
 31
696.180289
  0
ARC
  5
C3
  8
TEAM-NET
 10
132.708712
 20
720.833385
 30
237.925227
 40
25.0
210
0.0
220
-1.0
230
-0.0
 50
260.444
 51
300.600249
  0
ARC
  5
C4
  8
TEAM-NET
 10
0.892236
 20
-165.0
 30
-698.821067
 40
21.0
210
0.0
220
0.0
230
-1.0
 50
0.0
 51
180.0
  0
ARC
  5
C5
  8
TEAM-NET
 10
0.892236
 20
-165.0
 30
-698.821067
 40
21.0
210
0.0
220
0.0
230
-1.0
 50
180.0
 51
0.0
  0
ARC
  5
C6
  8
TEAM-NET
 10
0.892236
 20
-165.0
 30
-698.821067
 40
22.0
210
0.0
220
0.0
230
-1.0
 50
0.0
 51
180.0
  0
ARC
  5
C7
  8
TEAM-NET
 10
0.892236
 20
-165.0
 30
-698.821067
 40
22.0
210
0.0
220
0.0
230
-1.0
 50
180.0
 51
0.0
  0
POLYLINE
  5
C8
  8
TEAM-NET
 66
     1
 10
0.0
 20
0.0
 30
0.0
 70
     8
  0
VERTEX
  5
58F
  8
TEAM-NET
 10
36.607825
 20
-164.999823
 30
700.833955
 70
    32
  0
VERTEX
  5
590
  8
TEAM-NET
 10
36.42701
 20
-161.323655
 30
700.845197
 70
    32
  0
VERTEX
  5
591
  8
TEAM-NET
 10
35.884474
 20
-157.670126
 30
700.878558
 70
    32
  0
VERTEX
  5
592
  8
TEAM-NET
 10
34.986747
 20
-154.093738
 30
700.932705
 70
    32
  0
VERTEX
  5
593
  8
TEAM-NET
 10
33.749695
 20
-150.64081
 30
701.005114
 70
    32
  0
VERTEX
  5
594
  8
TEAM-NET
 10
32.175059
 20
-147.313736
 30
701.0936
 70
    32
  0
VERTEX
  5
595
  8
TEAM-NET
 10
30.275304
 20
-144.147343
 30
701.194865
 70
    32
  0
VERTEX
  5
596
  8
TEAM-NET
 10
28.077818
 20
-141.188539
 30
701.304514
 70
    32
  0
VERTEX
  5
597
  8
TEAM-NET
 10
25.6139
 20
-138.473135
 30
701.417912
 70
    32
  0
VERTEX
  5
598
  8
TEAM-NET
 10
22.885059
 20
-136.001893
 30
701.53173
 70
    32
  0
VERTEX
  5
599
  8
TEAM-NET
 10
19.917727
 20
-133.803929
 30
701.641459
 70
    32
  0
VERTEX
  5
59A
  8
TEAM-NET
 10
16.754838
 20
-131.911785
 30
701.742325
 70
    32
  0
VERTEX
  5
59B
  8
TEAM-NET
 10
13.438896
 20
-130.346438
 30
701.830248
 70
    32
  0
VERTEX
  5
59C
  8
TEAM-NET
 10
9.97048
 20
-129.10788
 30
701.902684
 70
    32
  0
VERTEX
  5
59D
  8
TEAM-NET
 10
6.386559
 20
-128.21318
 30
701.956593
 70
    32
  0
VERTEX
  5
59E
  8
TEAM-NET
 10
2.739471
 20
-127.676288
 30
701.989576
 70
    32
  0
VERTEX
  5
59F
  8
TEAM-NET
 10
-0.923576
 20
-127.500026
 30
702.000509
 70
    32
  0
VERTEX
  5
5A0
  8
TEAM-NET
 10
-4.603081
 20
-127.684052
 30
701.989095
 70
    32
  0
VERTEX
  5
5A1
  8
TEAM-NET
 10
-8.256277
 20
-128.230226
 30
701.955553
 70
    32
  0
VERTEX
  5
5A2
  8
TEAM-NET
 10
-11.829791
 20
-129.130535
 30
701.90134
 70
    32
  0
VERTEX
  5
5A3
  8
TEAM-NET
 10
-15.280706
 20
-130.370246
 30
701.82888
 70
    32
  0
VERTEX
  5
5A4
  8
TEAM-NET
 10
-18.60899
 20
-131.949015
 30
701.740283
 70
    32
  0
VERTEX
  5
5A5
  8
TEAM-NET
 10
-21.773695
 20
-133.851876
 30
701.63898
 70
    32
  0
VERTEX
  5
5A6
  8
TEAM-NET
 10
-24.728765
 20
-136.050498
 30
701.529394
 70
    32
  0
VERTEX
  5
5A7
  8
TEAM-NET
 10
-27.441668
 20
-138.516438
 30
701.416007
 70
    32
  0
VERTEX
  5
5A8
  8
TEAM-NET
 10
-29.91229
 20
-141.249498
 30
701.302109
 70
    32
  0
VERTEX
  5
5A9
  8
TEAM-NET
 10
-32.107572
 20
-144.218932
 30
701.192391
 70
    32
  0
VERTEX
  5
5AA
  8
TEAM-NET
 10
-33.995506
 20
-147.381166
 30
701.091624
 70
    32
  0
VERTEX
  5
5AB
  8
TEAM-NET
 10
-35.557103
 20
-150.696151
 30
701.003793
 70
    32
  0
VERTEX
  5
5AC
  8
TEAM-NET
 10
-36.789281
 20
-154.1532
 30
700.931627
 70
    32
  0
VERTEX
  5
5AD
  8
TEAM-NET
 10
-37.676451
 20
-157.708172
 30
700.878103
 70
    32
  0
VERTEX
  5
5AE
  8
TEAM-NET
 10
-38.21298
 20
-161.337726
 30
700.845097
 70
    32
  0
VERTEX
  5
5AF
  8
TEAM-NET
 10
-38.39224
 20
-164.999991
 30
700.833963
 70
    32
  0
SEQEND
  5
5B0
  8
TEAM-NET
  0
POLYLINE
  5
C9
  8
TEAM-NET
 66
     1
 10
0.0
 20
0.0
 30
0.0
 70
     8
  0
VERTEX
  5
5B1
  8
TEAM-NET
 10
-38.39224
 20
-164.999991
 30
700.833963
 70
    32
  0
VERTEX
  5
5B2
  8
TEAM-NET
 10
-38.212411
 20
-168.667713
 30
700.84513
 70
    32
  0
VERTEX
  5
5B3
  8
TEAM-NET
 10
-37.671439
 20
-172.31752
 30
700.87841
 70
    32
  0
VERTEX
  5
5B4
  8
TEAM-NET
 10
-36.774152
 20
-175.896127
 30
700.932528
 70
    32
  0
VERTEX
  5
5B5
  8
TEAM-NET
 10
-35.537286
 20
-179.352182
 30
701.004937
 70
    32
  0
VERTEX
  5
5B6
  8
TEAM-NET
 10
-33.967389
 20
-182.671151
 30
701.093167
 70
    32
  0
VERTEX
  5
5B7
  8
TEAM-NET
 10
-32.070917
 20
-185.836113
 30
701.194288
 70
    32
  0
VERTEX
  5
5B8
  8
TEAM-NET
 10
-29.873654
 20
-188.797653
 30
701.303968
 70
    32
  0
VERTEX
  5
5B9
  8
TEAM-NET
 10
-27.409671
 20
-191.515595
 30
701.417415
 70
    32
  0
VERTEX
  5
5BA
  8
TEAM-NET
 10
-24.688566
 20
-193.982508
 30
701.53098
 70
    32
  0
VERTEX
  5
5BB
  8
TEAM-NET
 10
-21.725227
 20
-196.180725
 30
701.640665
 70
    32
  0
VERTEX
  5
5BC
  8
TEAM-NET
 10
-18.561834
 20
-198.076147
 30
701.741663
 70
    32
  0
VERTEX
  5
5BD
  8
TEAM-NET
 10
-15.245396
 20
-199.644592
 30
701.829733
 70
    32
  0
VERTEX
  5
5BE
  8
TEAM-NET
 10
-11.785699
 20
-200.882718
 30
701.902124
 70
    32
  0
VERTEX
  5
5BF
  8
TEAM-NET
 10
-8.205904
 20
-201.77992
 30
701.956169
 70
    32
  0
VERTEX
  5
5C0
  8
TEAM-NET
 10
-4.557149
 20
-202.32045
 30
701.989373
 70
    32
  0
VERTEX
  5
5C1
  8
TEAM-NET
 10
-0.892505
 20
-202.500003
 30
702.000511
 70
    32
  0
VERTEX
  5
5C2
  8
TEAM-NET
 10
2.778698
 20
-202.319869
 30
701.98934
 70
    32
  0
VERTEX
  5
5C3
  8
TEAM-NET
 10
6.429497
 20
-201.778332
 30
701.956072
 70
    32
  0
VERTEX
  5
5C4
  8
TEAM-NET
 10
10.006683
 20
-200.881098
 30
701.902034
 70
    32
  0
VERTEX
  5
5C5
  8
TEAM-NET
 10
13.459833
 20
-199.644986
 30
701.829753
 70
    32
  0
VERTEX
  5
5C6
  8
TEAM-NET
 10
16.782289
 20
-198.073603
 30
701.741523
 70
    32
  0
VERTEX
  5
5C7
  8
TEAM-NET
 10
19.947454
 20
-196.176164
 30
701.640429
 70
    32
  0
VERTEX
  5
5C8
  8
TEAM-NET
 10
22.907359
 20
-193.979842
 30
701.530852
 70
    32
  0
VERTEX
  5
5C9
  8
TEAM-NET
 10
25.623393
 20
-191.51738
 30
701.417495
 70
    32
  0
VERTEX
  5
5CA
  8
TEAM-NET
 10
28.092584
 20
-188.793374
 30
701.303802
 70
    32
  0
VERTEX
  5
5CB
  8
TEAM-NET
 10
30.290913
 20
-185.829502
 30
701.194058
 70
    32
  0
VERTEX
  5
5CC
  8
TEAM-NET
 10
32.184938
 20
-182.667485
 30
701.093058
 70
    32
  0
VERTEX
  5
5CD
  8
TEAM-NET
 10
33.752454
 20
-179.352687
 30
701.004956
 70
    32
  0
VERTEX
  5
5CE
  8
TEAM-NET
 10
34.991737
 20
-175.890084
 30
700.932404
 70
    32
  0
VERTEX
  5
5CF
  8
TEAM-NET
 10
35.888487
 20
-172.309439
 30
700.878321
 70
    32
  0
VERTEX
  5
5D0
  8
TEAM-NET
 10
36.428424
 20
-168.662116
 30
700.845103
 70
    32
  0
VERTEX
  5
5D1
  8
TEAM-NET
 10
36.607825
 20
-164.999823
 30
700.833955
 70
    32
  0
SEQEND
  5
5D2
  8
TEAM-NET
  0
LINE
  5
CA
  8
TEAM-NET
 10
128.530415
 20
-238.378844
 30
696.185004
 11
128.558424
 21
-237.925227
 31
696.180289
  0
LINE
  5
CB
  8
TEAM-NET
 10
128.558424
 20
-237.925227
 30
696.180289
 11
128.558424
 21
0.0
 31
696.180289
  0
POLYLINE
  5
CC
  8
TEAM-NET
 66
     1
 10
0.0
 20
0.0
 30
0.0
 70
     8
  0
VERTEX
  5
5D3
  8
TEAM-NET
 10
-128.582848
 20
-238.593484
 30
696.474518
 70
    32
  0
VERTEX
  5
5D4
  8
TEAM-NET
 10
-112.66878
 20
-240.395613
 30
698.947511
 70
    32
  0
VERTEX
  5
5D5
  8
TEAM-NET
 10
-96.672758
 20
-241.915729
 30
701.095718
 70
    32
  0
VERTEX
  5
5D6
  8
TEAM-NET
 10
-80.614405
 20
-243.171263
 30
702.914465
 70
    32
  0
VERTEX
  5
5D7
  8
TEAM-NET
 10
-64.513386
 20
-244.176048
 30
704.400758
 70
    32
  0
VERTEX
  5
5D8
  8
TEAM-NET
 10
-48.389414
 20
-244.941802
 30
705.552592
 70
    32
  0
VERTEX
  5
5D9
  8
TEAM-NET
 10
-32.262926
 20
-245.47806
 30
706.369175
 70
    32
  0
VERTEX
  5
5DA
  8
TEAM-NET
 10
-16.155223
 20
-245.791748
 30
706.851164
 70
    32
  0
VERTEX
  5
5DB
  8
TEAM-NET
 10
-0.079724
 20
-245.888429
 30
707.000089
 70
    32
  0
VERTEX
  5
5DC
  8
TEAM-NET
 10
16.021045
 20
-245.769666
 30
706.817089
 70
    32
  0
VERTEX
  5
5DD
  8
TEAM-NET
 10
32.154648
 20
-245.432788
 30
706.299872
 70
    32
  0
VERTEX
  5
5DE
  8
TEAM-NET
 10
48.301626
 20
-244.872136
 30
705.44723
 70
    32
  0
VERTEX
  5
5DF
  8
TEAM-NET
 10
64.441296
 20
-244.080753
 30
704.258715
 70
    32
  0
VERTEX
  5
5E0
  8
TEAM-NET
 10
80.553557
 20
-243.048932
 30
702.735384
 70
    32
  0
VERTEX
  5
5E1
  8
TEAM-NET
 10
96.618793
 20
-241.764659
 30
700.879552
 70
    32
  0
VERTEX
  5
5E2
  8
TEAM-NET
 10
112.617512
 20
-240.213842
 30
698.694475
 70
    32
  0
VERTEX
  5
5E3
  8
TEAM-NET
 10
128.530415
 20
-238.378844
 30
696.185004
 70
    32
  0
SEQEND
  5
5E4
  8
TEAM-NET
  0
LINE
  5
CD
  8
TEAM-NET
 10
-128.582848
 20
0.0
 30
696.474518
 11
-128.582848
 21
-238.593484
 31
696.474518
  0
LINE
  5
CE
  8
TEAM-NET
 10
-119.284914
 20
-114.0
 30
697.960302
 11
-119.284914
 21
-31.0
 31
697.960302
  0
LINE
  5
CF
  8
TEAM-NET
 10
117.500443
 20
-31.0
 30
697.960302
 11
117.500443
 21
-114.0
 31
697.960302
  0
POLYLINE
  5
D0
  8
TEAM-NET
 66
     1
 10
0.0
 20
0.0
 30
694.711059
 70
   129
  0
VERTEX
  5
E46
  8
TEAM-NET
 10
25.107764
 20
-165.0
 30
694.711059
  0
VERTEX
  5
E47
  8
TEAM-NET
 10
24.622337
 20
-160.000397
 30
694.711059
  0
VERTEX
  5
E48
  8
TEAM-NET
 10
23.128069
 20
-155.05032
 30
694.711059
  0
VERTEX
  5
E49
  8
TEAM-NET
 10
20.684228
 20
-150.493323
 30
694.711059
  0
VERTEX
  5
E4A
  8
TEAM-NET
 10
17.492408
 20
-146.615089
 30
694.711059
  0
VERTEX
  5
E4B
  8
TEAM-NET
 10
13.614179
 20
-143.423996
 30
694.711059
  0
VERTEX
  5
E4C
  8
TEAM-NET
 10
9.057498
 20
-140.979924
 30
694.711059
  0
VERTEX
  5
E4D
  8
TEAM-NET
 10
4.107373
 20
-139.485387
 30
694.711059
  0
VERTEX
  5
E4E
  8
TEAM-NET
 10
-0.892412
 20
-138.999999
 30
694.711059
  0
VERTEX
  5
E4F
  8
TEAM-NET
 10
-5.891717
 20
-139.485972
 30
694.711059
  0
VERTEX
  5
E50
  8
TEAM-NET
 10
-10.842148
 20
-140.980001
 30
694.711059
  0
VERTEX
  5
E51
  8
TEAM-NET
 10
-15.398963
 20
-143.423517
 30
694.711059
  0
VERTEX
  5
E52
  8
TEAM-NET
 10
-19.277056
 20
-146.615267
 30
694.711059
  0
VERTEX
  5
E53
  8
TEAM-NET
 10
-22.468256
 20
-150.493576
 30
694.711059
  0
VERTEX
  5
E54
  8
TEAM-NET
 10
-24.912333
 20
-155.05025
 30
694.711059
  0
VERTEX
  5
E55
  8
TEAM-NET
 10
-26.40653
 20
-160.000471
 30
694.711059
  0
VERTEX
  5
E56
  8
TEAM-NET
 10
-26.892396
 20
-164.999775
 30
694.711059
  0
VERTEX
  5
E57
  8
TEAM-NET
 10
-26.406349
 20
-169.999493
 30
694.711059
  0
VERTEX
  5
E58
  8
TEAM-NET
 10
-24.912269
 20
-174.949801
 30
694.711059
  0
VERTEX
  5
E59
  8
TEAM-NET
 10
-22.468712
 20
-179.506709
 30
694.711059
  0
VERTEX
  5
E5A
  8
TEAM-NET
 10
-19.276642
 20
-183.385184
 30
694.711059
  0
VERTEX
  5
E5B
  8
TEAM-NET
 10
-15.398728
 20
-186.576111
 30
694.711059
  0
VERTEX
  5
E5C
  8
TEAM-NET
 10
-10.842064
 20
-189.020003
 30
694.711059
  0
VERTEX
  5
E5D
  8
TEAM-NET
 10
-5.891713
 20
-190.514033
 30
694.711059
  0
VERTEX
  5
E5E
  8
TEAM-NET
 10
-0.892217
 20
-191.000138
 30
694.711059
  0
VERTEX
  5
E5F
  8
TEAM-NET
 10
4.107257
 20
-190.514114
 30
694.711059
  0
VERTEX
  5
E60
  8
TEAM-NET
 10
9.057565
 20
-189.020027
 30
694.711059
  0
VERTEX
  5
E61
  8
TEAM-NET
 10
13.61448
 20
-186.576486
 30
694.711059
  0
VERTEX
  5
E62
  8
TEAM-NET
 10
17.492604
 20
-183.384714
 30
694.711059
  0
VERTEX
  5
E63
  8
TEAM-NET
 10
20.683754
 20
-179.506403
 30
694.711059
  0
VERTEX
  5
E64
  8
TEAM-NET
 10
23.127955
 20
-174.949816
 30
694.711059
  0
VERTEX
  5
E65
  8
TEAM-NET
 10
24.621917
 20
-169.9995
 30
694.711059
  0
SEQEND
  5
E66
  8
TEAM-NET
  0
ARC
  5
D1
  8
TEAM-NET
 10
162.295674
 20
715.913001
 30
234.872043
 40
25.0
210
-0.12885
220
-0.991427
230
0.021687
 50
260.526503
 51
299.258496
  0
ARC
  5
D2
  8
TEAM-NET
 10
-133.495479
 20
726.069553
 30
238.593484
 40
30.0
210
-0.0
220
-1.0
230
-0.0
 50
238.457601
 51
270.0
  0
ARC
  5
D3
  8
TEAM-NET
 10
-133.495479
 20
726.069553
 30
238.593484
 40
30.0
210
-0.0
220
-1.0
230
-0.0
 50
270.0
 51
279.424881
  0
POLYLINE
  5
D4
  8
TEAM-NET
 66
     1
 10
0.0
 20
0.0
 30
0.0
 70
     8
  0
VERTEX
  5
606
  8
TEAM-NET
 10
-128.582848
 20
-238.593484
 30
696.474518
 70
    32
  0
VERTEX
  5
607
  8
TEAM-NET
 10
-112.66878
 20
-240.395613
 30
698.947511
 70
    32
  0
VERTEX
  5
608
  8
TEAM-NET
 10
-96.672758
 20
-241.915729
 30
701.095718
 70
    32
  0
VERTEX
  5
609
  8
TEAM-NET
 10
-80.614405
 20
-243.171263
 30
702.914465
 70
    32
  0
VERTEX
  5
60A
  8
TEAM-NET
 10
-64.513386
 20
-244.176048
 30
704.400758
 70
    32
  0
VERTEX
  5
60B
  8
TEAM-NET
 10
-48.389414
 20
-244.941802
 30
705.552592
 70
    32
  0
VERTEX
  5
60C
  8
TEAM-NET
 10
-32.262926
 20
-245.47806
 30
706.369175
 70
    32
  0
VERTEX
  5
60D
  8
TEAM-NET
 10
-16.155223
 20
-245.791748
 30
706.851164
 70
    32
  0
VERTEX
  5
60E
  8
TEAM-NET
 10
-0.079724
 20
-245.888429
 30
707.000089
 70
    32
  0
VERTEX
  5
60F
  8
TEAM-NET
 10
16.021045
 20
-245.769666
 30
706.817089
 70
    32
  0
VERTEX
  5
610
  8
TEAM-NET
 10
32.154648
 20
-245.432788
 30
706.299872
 70
    32
  0
VERTEX
  5
611
  8
TEAM-NET
 10
48.301626
 20
-244.872136
 30
705.44723
 70
    32
  0
VERTEX
  5
612
  8
TEAM-NET
 10
64.441296
 20
-244.080753
 30
704.258715
 70
    32
  0
VERTEX
  5
613
  8
TEAM-NET
 10
80.553557
 20
-243.048932
 30
702.735384
 70
    32
  0
VERTEX
  5
614
  8
TEAM-NET
 10
96.618793
 20
-241.764659
 30
700.879552
 70
    32
  0
VERTEX
  5
615
  8
TEAM-NET
 10
112.617512
 20
-240.213842
 30
698.694475
 70
    32
  0
VERTEX
  5
616
  8
TEAM-NET
 10
128.530415
 20
-238.378844
 30
696.185004
 70
    32
  0
SEQEND
  5
617
  8
TEAM-NET
  0
ARC
  5
D5
  8
TEAM-NET
 10
-0.892236
 20
-165.0
 30
698.821067
 40
22.0
 50
360.0
 51
180.0
  0
ARC
  5
D6
  8
TEAM-NET
 10
-0.892236
 20
-165.0
 30
698.821067
 40
21.0
 50
180.0
 51
0.0
  0
ARC
  5
D7
  8
TEAM-NET
 10
-0.892236
 20
-165.0
 30
698.821067
 40
21.0
 50
360.0
 51
180.0
  0
ARC
  5
D8
  8
TEAM-NET
 10
-0.892236
 20
-165.0
 30
698.821067
 40
22.0
 50
180.0
 51
0.0
  0
ARC
  5
D9
  8
TEAM-NET
 10
0.892236
 20
-165.0
 30
-693.034168
 40
21.0
210
0.0
220
0.0
230
-1.0
 50
41.914727
 51
47.373533
  0
ARC
  5
DA
  8
TEAM-NET
 10
0.892236
 20
-165.0
 30
-693.034168
 40
21.0
210
0.0
220
0.0
230
-1.0
 50
131.914727
 51
137.373533
  0
ARC
  5
DB
  8
TEAM-NET
 10
0.892236
 20
-165.0
 30
-693.034168
 40
21.0
210
0.0
220
0.0
230
-1.0
 50
221.914727
 51
227.373533
  0
ARC
  5
DC
  8
TEAM-NET
 10
0.892236
 20
-165.0
 30
-693.034168
 40
21.0
210
0.0
220
0.0
230
-1.0
 50
311.914727
 51
317.373533
  0
LINE
  5
DD
  8
TEAM-NET
 10
145.434841
 20
-237.925227
 30
699.314889
 11
144.735707
 21
-240.422663
 31
699.032791
  0
LINE
  5
DE
  8
TEAM-NET
 10
-149.18936
 20
-238.593484
 30
700.501954
 11
-149.18936
 21
0.0
 31
700.501954
  0
LINE
  5
DF
  8
TEAM-NET
 10
145.434841
 20
0.0
 30
699.314889
 11
145.434841
 21
-237.925227
 31
699.314889
  0
ARC
  5
E0
  8
TEAM-NET
 10
-132.708712
 20
720.833385
 30
0.0
 40
25.0
210
0.0
220
1.0
230
0.0
 50
239.399751
 51
279.556
  0
ARC
  5
E1
  8
TEAM-NET
 10
133.495479
 20
726.069553
 30
0.0
 40
30.0
210
0.0
220
1.0
230
0.0
 50
260.575119
 51
301.542399
  0
ARC
  5
E2
  8
TEAM-NET
 10
0.892236
 20
-165.0
 30
-688.034168
 40
16.0
210
0.0
220
0.0
230
-1.0
 50
221.060808
 51
228.227452
  0
LINE
  5
E3
  8
TEAM-NET
 10
2.614265
 20
-169.868722
 30
688.034168
 11
9.766568
 21
-176.932724
 31
688.034168
210
0.0
220
0.0
230
-1.0
  0
LINE
  5
E4
  8
TEAM-NET
 10
11.171971
 20
-175.509754
 30
688.034168
 11
4.019668
 21
-168.445752
 31
688.034168
210
0.0
220
0.0
230
-1.0
  0
ARC
  5
E5
  8
TEAM-NET
 10
0.892236
 20
-165.0
 30
-688.034168
 40
6.0
210
0.0
220
0.0
230
-1.0
 50
234.238198
 51
305.050062
  0
ARC
  5
E6
  8
TEAM-NET
 10
0.892236
 20
-165.0
 30
-688.034168
 40
6.0
210
0.0
220
0.0
230
-1.0
 50
144.238198
 51
215.050062
  0
LINE
  5
E7
  8
TEAM-NET
 10
-11.40199
 20
-177.064206
 30
688.034168
 11
-4.337987
 21
-169.911903
 31
688.034168
210
0.0
220
0.0
230
-1.0
  0
LINE
  5
E8
  8
TEAM-NET
 10
3.976486
 20
-161.493499
 30
688.034168
 11
11.040489
 21
-154.341196
 31
688.034168
210
0.0
220
0.0
230
-1.0
  0
ARC
  5
E9
  8
TEAM-NET
 10
0.892236
 20
-165.0
 30
-688.034168
 40
16.0
210
0.0
220
0.0
230
-1.0
 50
311.060808
 51
318.227452
  0
ARC
  5
EA
  8
TEAM-NET
 10
0.892236
 20
-165.0
 30
-688.034168
 40
16.0
210
0.0
220
0.0
230
-1.0
 50
131.060808
 51
138.227452
  0
LINE
  5
EB
  8
TEAM-NET
 10
-5.760957
 20
-168.506501
 30
688.034168
 11
-12.82496
 21
-175.658804
 31
688.034168
210
0.0
220
0.0
230
-1.0
  0
LINE
  5
EC
  8
TEAM-NET
 10
9.617519
 20
-152.935794
 30
688.034168
 11
2.553516
 21
-160.088097
 31
688.034168
210
0.0
220
0.0
230
-1.0
  0
ARC
  5
ED
  8
TEAM-NET
 10
0.892236
 20
-165.0
 30
-688.034168
 40
6.0
210
0.0
220
0.0
230
-1.0
 50
324.238198
 51
35.050062
  0
ARC
  5
EE
  8
TEAM-NET
 10
0.892236
 20
-165.0
 30
-688.034168
 40
6.0
210
0.0
220
0.0
230
-1.0
 50
54.238198
 51
125.050062
  0
LINE
  5
EF
  8
TEAM-NET
 10
-12.956442
 20
-154.490246
 30
688.034168
 11
-5.804139
 21
-161.554248
 31
688.034168
210
0.0
220
0.0
230
-1.0
  0
LINE
  5
F0
  8
TEAM-NET
 10
-4.398736
 20
-160.131278
 30
688.034168
 11
-11.551039
 21
-153.067276
 31
688.034168
210
0.0
220
0.0
230
-1.0
  0
ARC
  5
F1
  8
TEAM-NET
 10
0.892236
 20
-165.0
 30
-688.034168
 40
16.0
210
0.0
220
0.0
230
-1.0
 50
41.060808
 51
48.227452
  0
POLYLINE
  5
F2
  8
TEAM-NET
 66
     1
 10
0.0
 20
0.0
 30
0.0
 70
     8
  0
VERTEX
  5
618
  8
TEAM-NET
 10
-15.11377
 20
-149.548529
 30
693.034168
 70
    32
  0
VERTEX
  5
619
  8
TEAM-NET
 10
-14.842182
 20
-149.816764
 30
691.119034
 70
    32
  0
VERTEX
  5
61A
  8
TEAM-NET
 10
-14.069575
 20
-150.579833
 30
689.497262
 70
    32
  0
VERTEX
  5
61B
  8
TEAM-NET
 10
-12.913407
 20
-151.721727
 30
688.413945
 70
    32
  0
VERTEX
  5
61C
  8
TEAM-NET
 10
-11.551039
 20
-153.067276
 30
688.034168
 70
    32
  0
SEQEND
  5
61D
  8
TEAM-NET
  0
ARC
  5
F3
  8
TEAM-NET
 10
-0.892236
 20
-165.0
 30
688.034168
 40
16.0
 50
131.772548
 51
138.939192
  0
ARC
  5
F4
  8
TEAM-NET
 10
0.892236
 20
-165.0
 30
-693.034168
 40
21.0
210
0.0
220
0.0
230
-1.0
 50
41.914727
 51
47.373533
  0
POLYLINE
  5
F5
  8
TEAM-NET
 66
     1
 10
0.0
 20
0.0
 30
0.0
 70
     8
  0
VERTEX
  5
61E
  8
TEAM-NET
 10
-12.956442
 20
-154.490246
 30
688.034168
 70
    32
  0
VERTEX
  5
61F
  8
TEAM-NET
 10
-14.319536
 20
-153.143979
 30
688.414297
 70
    32
  0
VERTEX
  5
620
  8
TEAM-NET
 10
-15.474982
 20
-152.002798
 30
689.497269
 70
    32
  0
VERTEX
  5
621
  8
TEAM-NET
 10
-16.247884
 20
-151.239438
 30
691.120056
 70
    32
  0
VERTEX
  5
622
  8
TEAM-NET
 10
-16.519173
 20
-150.971499
 30
693.034168
 70
    32
  0
SEQEND
  5
623
  8
TEAM-NET
  0
LINE
  5
F6
  8
TEAM-NET
 10
-4.398736
 20
-160.131278
 30
688.034168
 11
-11.551039
 21
-153.067276
 31
688.034168
210
0.702701
220
0.711485
230
0.0
  0
POLYLINE
  5
F7
  8
TEAM-NET
 66
     1
 10
0.0
 20
0.0
 30
0.0
 70
     8
  0
VERTEX
  5
624
  8
TEAM-NET
 10
-15.11377
 20
-149.548529
 30
693.034168
 70
    32
  0
VERTEX
  5
625
  8
TEAM-NET
 10
-14.842182
 20
-149.816764
 30
691.119034
 70
    32
  0
VERTEX
  5
626
  8
TEAM-NET
 10
-14.069575
 20
-150.579833
 30
689.497262
 70
    32
  0
VERTEX
  5
627
  8
TEAM-NET
 10
-12.913407
 20
-151.721727
 30
688.413945
 70
    32
  0
VERTEX
  5
628
  8
TEAM-NET
 10
-11.551039
 20
-153.067276
 30
688.034168
 70
    32
  0
SEQEND
  5
629
  8
TEAM-NET
  0
POLYLINE
  5
F8
  8
TEAM-NET
 66
     1
 10
0.0
 20
0.0
 30
0.0
 70
     8
  0
VERTEX
  5
62A
  8
TEAM-NET
 10
14.559235
 20
-150.778465
 30
693.034168
 70
    32
  0
VERTEX
  5
62B
  8
TEAM-NET
 10
14.291
 20
-151.050053
 30
691.119034
 70
    32
  0
VERTEX
  5
62C
  8
TEAM-NET
 10
13.527931
 20
-151.822661
 30
689.497262
 70
    32
  0
VERTEX
  5
62D
  8
TEAM-NET
 10
12.386038
 20
-152.978828
 30
688.413945
 70
    32
  0
VERTEX
  5
62E
  8
TEAM-NET
 10
11.040489
 20
-154.341196
 30
688.034168
 70
    32
  0
SEQEND
  5
62F
  8
TEAM-NET
  0
ARC
  5
F9
  8
TEAM-NET
 10
-0.892236
 20
-165.0
 30
688.034168
 40
16.0
 50
41.772548
 51
48.939192
  0
ARC
  5
FA
  8
TEAM-NET
 10
0.892236
 20
-165.0
 30
-693.034168
 40
21.0
210
0.0
220
0.0
230
-1.0
 50
131.914727
 51
137.373533
  0
POLYLINE
  5
FB
  8
TEAM-NET
 66
     1
 10
0.0
 20
0.0
 30
0.0
 70
     8
  0
VERTEX
  5
630
  8
TEAM-NET
 10
9.617519
 20
-152.935794
 30
688.034168
 70
    32
  0
VERTEX
  5
631
  8
TEAM-NET
 10
10.963785
 20
-151.572699
 30
688.414297
 70
    32
  0
VERTEX
  5
632
  8
TEAM-NET
 10
12.104966
 20
-150.417253
 30
689.497269
 70
    32
  0
VERTEX
  5
633
  8
TEAM-NET
 10
12.868326
 20
-149.644351
 30
691.120056
 70
    32
  0
VERTEX
  5
634
  8
TEAM-NET
 10
13.136265
 20
-149.373063
 30
693.034168
 70
    32
  0
SEQEND
  5
635
  8
TEAM-NET
  0
LINE
  5
FC
  8
TEAM-NET
 10
3.976486
 20
-161.493499
 30
688.034168
 11
11.040489
 21
-154.341196
 31
688.034168
210
0.711485
220
-0.702701
230
0.0
  0
POLYLINE
  5
FD
  8
TEAM-NET
 66
     1
 10
0.0
 20
0.0
 30
0.0
 70
     8
  0
VERTEX
  5
636
  8
TEAM-NET
 10
14.559235
 20
-150.778465
 30
693.034168
 70
    32
  0
VERTEX
  5
637
  8
TEAM-NET
 10
14.291
 20
-151.050053
 30
691.119034
 70
    32
  0
VERTEX
  5
638
  8
TEAM-NET
 10
13.527931
 20
-151.822661
 30
689.497262
 70
    32
  0
VERTEX
  5
639
  8
TEAM-NET
 10
12.386038
 20
-152.978828
 30
688.413945
 70
    32
  0
VERTEX
  5
63A
  8
TEAM-NET
 10
11.040489
 20
-154.341196
 30
688.034168
 70
    32
  0
SEQEND
  5
63B
  8
TEAM-NET
  0
POLYLINE
  5
FE
  8
TEAM-NET
 66
     1
 10
0.0
 20
0.0
 30
0.0
 70
     8
  0
VERTEX
  5
63C
  8
TEAM-NET
 10
13.329299
 20
-180.451471
 30
693.034168
 70
    32
  0
VERTEX
  5
63D
  8
TEAM-NET
 10
13.057711
 20
-180.183236
 30
691.119034
 70
    32
  0
VERTEX
  5
63E
  8
TEAM-NET
 10
12.285104
 20
-179.420167
 30
689.497262
 70
    32
  0
VERTEX
  5
63F
  8
TEAM-NET
 10
11.128936
 20
-178.278273
 30
688.413945
 70
    32
  0
VERTEX
  5
640
  8
TEAM-NET
 10
9.766568
 20
-176.932724
 30
688.034168
 70
    32
  0
SEQEND
  5
641
  8
TEAM-NET
  0
ARC
  5
FF
  8
TEAM-NET
 10
-0.892236
 20
-165.0
 30
688.034168
 40
16.0
 50
311.772548
 51
318.939192
  0
ARC
  5
100
  8
TEAM-NET
 10
0.892236
 20
-165.0
 30
-693.034168
 40
21.0
210
0.0
220
0.0
230
-1.0
 50
221.914727
 51
227.373533
  0
POLYLINE
  5
101
  8
TEAM-NET
 66
     1
 10
0.0
 20
0.0
 30
0.0
 70
     8
  0
VERTEX
  5
642
  8
TEAM-NET
 10
11.171971
 20
-175.509754
 30
688.034168
 70
    32
  0
VERTEX
  5
643
  8
TEAM-NET
 10
12.535065
 20
-176.856021
 30
688.414297
 70
    32
  0
VERTEX
  5
644
  8
TEAM-NET
 10
13.690511
 20
-177.997202
 30
689.497269
 70
    32
  0
VERTEX
  5
645
  8
TEAM-NET
 10
14.463413
 20
-178.760562
 30
691.120056
 70
    32
  0
VERTEX
  5
646
  8
TEAM-NET
 10
14.734702
 20
-179.028501
 30
693.034168
 70
    32
  0
SEQEND
  5
647
  8
TEAM-NET
  0
LINE
  5
102
  8
TEAM-NET
 10
2.614265
 20
-169.868722
 30
688.034168
 11
9.766568
 21
-176.932724
 31
688.034168
210
-0.702701
220
-0.711485
230
0.0
  0
POLYLINE
  5
103
  8
TEAM-NET
 66
     1
 10
0.0
 20
0.0
 30
0.0
 70
     8
  0
VERTEX
  5
648
  8
TEAM-NET
 10
13.329299
 20
-180.451471
 30
693.034168
 70
    32
  0
VERTEX
  5
649
  8
TEAM-NET
 10
13.057711
 20
-180.183236
 30
691.119034
 70
    32
  0
VERTEX
  5
64A
  8
TEAM-NET
 10
12.285104
 20
-179.420167
 30
689.497262
 70
    32
  0
VERTEX
  5
64B
  8
TEAM-NET
 10
11.128936
 20
-178.278273
 30
688.413945
 70
    32
  0
VERTEX
  5
64C
  8
TEAM-NET
 10
9.766568
 20
-176.932724
 30
688.034168
 70
    32
  0
SEQEND
  5
64D
  8
TEAM-NET
  0
POLYLINE
  5
104
  8
TEAM-NET
 66
     1
 10
0.0
 20
0.0
 30
0.0
 70
     8
  0
VERTEX
  5
64E
  8
TEAM-NET
 10
-16.343706
 20
-179.221535
 30
693.034168
 70
    32
  0
VERTEX
  5
64F
  8
TEAM-NET
 10
-16.075472
 20
-178.949947
 30
691.119034
 70
    32
  0
VERTEX
  5
650
  8
TEAM-NET
 10
-15.312402
 20
-178.177339
 30
689.497262
 70
    32
  0
VERTEX
  5
651
  8
TEAM-NET
 10
-14.170509
 20
-177.021172
 30
688.413945
 70
    32
  0
VERTEX
  5
652
  8
TEAM-NET
 10
-12.82496
 20
-175.658804
 30
688.034168
 70
    32
  0
SEQEND
  5
653
  8
TEAM-NET
  0
ARC
  5
105
  8
TEAM-NET
 10
-0.892236
 20
-165.0
 30
688.034168
 40
16.0
 50
221.772548
 51
228.939192
  0
ARC
  5
106
  8
TEAM-NET
 10
0.892236
 20
-165.0
 30
-693.034168
 40
21.0
210
0.0
220
0.0
230
-1.0
 50
311.914727
 51
317.373533
  0
POLYLINE
  5
107
  8
TEAM-NET
 66
     1
 10
0.0
 20
0.0
 30
0.0
 70
     8
  0
VERTEX
  5
654
  8
TEAM-NET
 10
-11.40199
 20
-177.064206
 30
688.034168
 70
    32
  0
VERTEX
  5
655
  8
TEAM-NET
 10
-12.748256
 20
-178.427301
 30
688.414297
 70
    32
  0
VERTEX
  5
656
  8
TEAM-NET
 10
-13.889437
 20
-179.582747
 30
689.497269
 70
    32
  0
VERTEX
  5
657
  8
TEAM-NET
 10
-14.652797
 20
-180.355649
 30
691.120056
 70
    32
  0
VERTEX
  5
658
  8
TEAM-NET
 10
-14.920736
 20
-180.626937
 30
693.034168
 70
    32
  0
SEQEND
  5
659
  8
TEAM-NET
  0
LINE
  5
108
  8
TEAM-NET
 10
-5.760957
 20
-168.506501
 30
688.034168
 11
-12.82496
 21
-175.658804
 31
688.034168
210
-0.711485
220
0.702701
230
0.0
  0
POLYLINE
  5
109
  8
TEAM-NET
 66
     1
 10
0.0
 20
0.0
 30
0.0
 70
     8
  0
VERTEX
  5
65A
  8
TEAM-NET
 10
-16.343706
 20
-179.221535
 30
693.034168
 70
    32
  0
VERTEX
  5
65B
  8
TEAM-NET
 10
-16.075472
 20
-178.949947
 30
691.119034
 70
    32
  0
VERTEX
  5
65C
  8
TEAM-NET
 10
-15.312402
 20
-178.177339
 30
689.497262
 70
    32
  0
VERTEX
  5
65D
  8
TEAM-NET
 10
-14.170509
 20
-177.021172
 30
688.413945
 70
    32
  0
VERTEX
  5
65E
  8
TEAM-NET
 10
-12.82496
 20
-175.658804
 30
688.034168
 70
    32
  0
SEQEND
  5
65F
  8
TEAM-NET
  0
LINE
  5
10A
  8
TEAM-NET
 10
11.171971
 20
-175.509754
 30
688.034168
 11
4.019668
 21
-168.445752
 31
688.034168
210
0.702701
220
0.711485
230
0.0
  0
POLYLINE
  5
10B
  8
TEAM-NET
 66
     1
 10
0.0
 20
0.0
 30
0.0
 70
     8
  0
VERTEX
  5
660
  8
TEAM-NET
 10
11.171971
 20
-175.509754
 30
688.034168
 70
    32
  0
VERTEX
  5
661
  8
TEAM-NET
 10
12.535065
 20
-176.856021
 30
688.414297
 70
    32
  0
VERTEX
  5
662
  8
TEAM-NET
 10
13.690511
 20
-177.997202
 30
689.497269
 70
    32
  0
VERTEX
  5
663
  8
TEAM-NET
 10
14.463413
 20
-178.760562
 30
691.120056
 70
    32
  0
VERTEX
  5
664
  8
TEAM-NET
 10
14.734702
 20
-179.028501
 30
693.034168
 70
    32
  0
SEQEND
  5
665
  8
TEAM-NET
  0
ARC
  5
10C
  8
TEAM-NET
 10
-0.892236
 20
-165.0
 30
688.034168
 40
6.0
 50
234.949938
 51
305.761802
  0
LINE
  5
10D
  8
TEAM-NET
 10
9.617519
 20
-152.935794
 30
688.034168
 11
2.553516
 21
-160.088097
 31
688.034168
210
-0.711485
220
0.702701
230
0.0
  0
POLYLINE
  5
10E
  8
TEAM-NET
 66
     1
 10
0.0
 20
0.0
 30
0.0
 70
     8
  0
VERTEX
  5
666
  8
TEAM-NET
 10
9.617519
 20
-152.935794
 30
688.034168
 70
    32
  0
VERTEX
  5
667
  8
TEAM-NET
 10
10.963785
 20
-151.572699
 30
688.414297
 70
    32
  0
VERTEX
  5
668
  8
TEAM-NET
 10
12.104966
 20
-150.417253
 30
689.497269
 70
    32
  0
VERTEX
  5
669
  8
TEAM-NET
 10
12.868326
 20
-149.644351
 30
691.120056
 70
    32
  0
VERTEX
  5
66A
  8
TEAM-NET
 10
13.136265
 20
-149.373063
 30
693.034168
 70
    32
  0
SEQEND
  5
66B
  8
TEAM-NET
  0
ARC
  5
10F
  8
TEAM-NET
 10
-0.892236
 20
-165.0
 30
688.034168
 40
6.0
 50
324.949938
 51
35.761802
  0
LINE
  5
110
  8
TEAM-NET
 10
-12.956442
 20
-154.490246
 30
688.034168
 11
-5.804139
 21
-161.554248
 31
688.034168
210
-0.702701
220
-0.711485
230
0.0
  0
POLYLINE
  5
111
  8
TEAM-NET
 66
     1
 10
0.0
 20
0.0
 30
0.0
 70
     8
  0
VERTEX
  5
66C
  8
TEAM-NET
 10
-12.956442
 20
-154.490246
 30
688.034168
 70
    32
  0
VERTEX
  5
66D
  8
TEAM-NET
 10
-14.319536
 20
-153.143979
 30
688.414297
 70
    32
  0
VERTEX
  5
66E
  8
TEAM-NET
 10
-15.474982
 20
-152.002798
 30
689.497269
 70
    32
  0
VERTEX
  5
66F
  8
TEAM-NET
 10
-16.247884
 20
-151.239438
 30
691.120056
 70
    32
  0
VERTEX
  5
670
  8
TEAM-NET
 10
-16.519173
 20
-150.971499
 30
693.034168
 70
    32
  0
SEQEND
  5
671
  8
TEAM-NET
  0
ARC
  5
112
  8
TEAM-NET
 10
-0.892236
 20
-165.0
 30
688.034168
 40
6.0
 50
144.949938
 51
215.761802
  0
ARC
  5
113
  8
TEAM-NET
 10
-0.892236
 20
-165.0
 30
688.034168
 40
6.0
 50
54.949938
 51
125.761802
  0
LINE
  5
114
  8
TEAM-NET
 10
-11.40199
 20
-177.064206
 30
688.034168
 11
-4.337987
 21
-169.911903
 31
688.034168
210
0.711485
220
-0.702701
230
0.0
  0
POLYLINE
  5
115
  8
TEAM-NET
 66
     1
 10
0.0
 20
0.0
 30
0.0
 70
     8
  0
VERTEX
  5
672
  8
TEAM-NET
 10
-11.40199
 20
-177.064206
 30
688.034168
 70
    32
  0
VERTEX
  5
673
  8
TEAM-NET
 10
-12.748256
 20
-178.427301
 30
688.414297
 70
    32
  0
VERTEX
  5
674
  8
TEAM-NET
 10
-13.889437
 20
-179.582747
 30
689.497269
 70
    32
  0
VERTEX
  5
675
  8
TEAM-NET
 10
-14.652797
 20
-180.355649
 30
691.120056
 70
    32
  0
VERTEX
  5
676
  8
TEAM-NET
 10
-14.920736
 20
-180.626937
 30
693.034168
 70
    32
  0
SEQEND
  5
677
  8
TEAM-NET
  0
LINE
  5
116
  8
TEAM-NET
 10
25.107764
 20
-165.0
 30
715.100338
 11
25.107764
 21
-165.0
 31
706.566928
  0
POLYLINE
  5
117
  8
TEAM-NET
 66
     1
 10
0.0
 20
0.0
 30
0.0
 70
     8
  0
VERTEX
  5
678
  8
TEAM-NET
 10
-26.892236
 20
-165.0
 30
706.566928
 70
    32
  0
VERTEX
  5
679
  8
TEAM-NET
 10
-26.406809
 20
-169.999603
 30
706.582976
 70
    32
  0
VERTEX
  5
67A
  8
TEAM-NET
 10
-24.91254
 20
-174.94968
 30
706.630468
 70
    32
  0
VERTEX
  5
67B
  8
TEAM-NET
 10
-22.468376
 20
-179.506466
 30
706.701943
 70
    32
  0
VERTEX
  5
67C
  8
TEAM-NET
 10
-19.276665
 20
-183.385226
 30
706.783759
 70
    32
  0
VERTEX
  5
67D
  8
TEAM-NET
 10
-15.398723
 20
-186.576105
 30
706.865551
 70
    32
  0
VERTEX
  5
67E
  8
TEAM-NET
 10
-10.842058
 20
-189.020006
 30
706.936991
 70
    32
  0
VERTEX
  5
67F
  8
TEAM-NET
 10
-5.891713
 20
-190.514033
 30
706.98444
 70
    32
  0
VERTEX
  5
680
  8
TEAM-NET
 10
-0.892148
 20
-191.000129
 30
707.000515
 70
    32
  0
VERTEX
  5
681
  8
TEAM-NET
 10
4.107258
 20
-190.514116
 30
706.984444
 70
    32
  0
VERTEX
  5
682
  8
TEAM-NET
 10
9.057564
 20
-189.020028
 30
706.936991
 70
    32
  0
VERTEX
  5
683
  8
TEAM-NET
 10
13.61448
 20
-186.576486
 30
706.865554
 70
    32
  0
VERTEX
  5
684
  8
TEAM-NET
 10
17.492646
 20
-183.384673
 30
706.783747
 70
    32
  0
VERTEX
  5
685
  8
TEAM-NET
 10
20.683755
 20
-179.506404
 30
706.701942
 70
    32
  0
VERTEX
  5
686
  8
TEAM-NET
 10
23.127841
 20
-174.949722
 30
706.630477
 70
    32
  0
VERTEX
  5
687
  8
TEAM-NET
 10
24.622026
 20
-169.999524
 30
706.582995
 70
    32
  0
VERTEX
  5
688
  8
TEAM-NET
 10
25.107764
 20
-165.0
 30
706.566928
 70
    32
  0
SEQEND
  5
689
  8
TEAM-NET
  0
ARC
  5
118
  8
TEAM-NET
 10
0.892236
 20
-165.0
 30
-715.100338
 40
26.0
210
0.0
220
0.0
230
-1.0
 50
180.0
 51
0.0
  0
LINE
  5
119
  8
TEAM-NET
 10
-26.892236
 20
-165.0
 30
715.100338
 11
-26.892236
 21
-165.0
 31
706.566928
  0
LINE
  5
11A
  8
TEAM-NET
 10
27.713047
 20
-165.0
 30
719.766964
 11
25.650308
 21
-165.0
 31
716.821067
  0
ARC
  5
11B
  8
TEAM-NET
 10
-0.892236
 20
-165.0
 30
716.821067
 40
26.542544
 50
180.0
 51
0.0
  0
ARC
  5
11C
  8
TEAM-NET
 10
0.892236
 20
-165.0
 30
-719.766964
 40
28.605283
210
0.0
220
0.0
230
-1.0
 50
180.0
 51
0.0
  0
LINE
  5
11D
  8
TEAM-NET
 10
-29.497518
 20
-165.0
 30
719.766964
 11
-27.434779
 21
-165.0
 31
716.821067
  0
ARC
  5
11E
  8
TEAM-NET
 10
28.107764
 20
715.100338
 30
165.0
 40
3.0
210
0.0
220
-1.0
230
0.0
 50
145.0
 51
180.0
  0
ARC
  5
11F
  8
TEAM-NET
 10
0.892236
 20
-165.0
 30
-715.100338
 40
26.0
210
0.0
220
0.0
230
-1.0
 50
180.0
 51
0.0
  0
ARC
  5
120
  8
TEAM-NET
 10
-0.892236
 20
-165.0
 30
716.821067
 40
26.542544
 50
180.0
 51
0.0
  0
ARC
  5
121
  8
TEAM-NET
 10
29.892236
 20
715.100338
 30
-165.0
 40
3.0
210
0.0
220
1.0
230
0.0
 50
145.0
 51
180.0
  0
ARC
  5
122
  8
TEAM-NET
 10
28.107764
 20
715.100338
 30
165.0
 40
3.0
210
0.0
220
-1.0
230
0.0
 50
145.0
 51
180.0
  0
ARC
  5
123
  8
TEAM-NET
 10
-0.892236
 20
-165.0
 30
716.821067
 40
26.542544
 50
360.0
 51
180.0
  0
ARC
  5
124
  8
TEAM-NET
 10
0.892236
 20
-165.0
 30
-715.100338
 40
26.0
210
0.0
220
0.0
230
-1.0
 50
0.0
 51
180.0
  0
ARC
  5
125
  8
TEAM-NET
 10
29.892236
 20
715.100338
 30
-165.0
 40
3.0
210
0.0
220
1.0
230
0.0
 50
145.0
 51
180.0
  0
ARC
  5
126
  8
TEAM-NET
 10
0.892236
 20
-165.0
 30
-719.766964
 40
28.605283
210
0.0
220
0.0
230
-1.0
 50
105.030626
 51
180.0
  0
POLYLINE
  5
127
  8
TEAM-NET
 66
     1
 10
0.0
 20
0.0
 30
0.0
 70
     8
  0
VERTEX
  5
68A
  8
TEAM-NET
 10
-8.310596
 20
-137.37338
 30
719.766964
 70
    32
  0
VERTEX
  5
68B
  8
TEAM-NET
 10
-4.633972
 20
-136.62249
 30
719.792452
 70
    32
  0
VERTEX
  5
68C
  8
TEAM-NET
 10
-0.892107
 20
-136.362422
 30
719.813099
 70
    32
  0
VERTEX
  5
68D
  8
TEAM-NET
 10
2.849478
 20
-136.622643
 30
719.79235
 70
    32
  0
VERTEX
  5
68E
  8
TEAM-NET
 10
6.526125
 20
-137.37338
 30
719.766964
 70
    32
  0
SEQEND
  5
68F
  8
TEAM-NET
  0
LINE
  5
128
  8
TEAM-NET
 10
27.713047
 20
-165.0
 30
719.766964
 11
25.650308
 21
-165.0
 31
716.821067
  0
ARC
  5
129
  8
TEAM-NET
 10
0.892236
 20
-165.0
 30
-719.766964
 40
28.605283
210
0.0
220
0.0
230
-1.0
 50
0.0
 51
74.969374
  0
ARC
  5
12A
  8
TEAM-NET
 10
-0.892236
 20
-165.0
 30
716.821067
 40
26.542544
 50
360.0
 51
180.0
  0
LINE
  5
12B
  8
TEAM-NET
 10
-29.497518
 20
-165.0
 30
719.766964
 11
-27.434779
 21
-165.0
 31
716.821067
  0
LINE
  5
12C
  8
TEAM-NET
 10
25.107764
 20
-165.0
 30
715.100338
 11
25.107764
 21
-165.0
 31
706.566928
  0
ARC
  5
12D
  8
TEAM-NET
 10
0.892236
 20
-165.0
 30
-715.100338
 40
26.0
210
0.0
220
0.0
230
-1.0
 50
0.0
 51
180.0
  0
POLYLINE
  5
12E
  8
TEAM-NET
 66
     1
 10
0.0
 20
0.0
 30
0.0
 70
     8
  0
VERTEX
  5
690
  8
TEAM-NET
 10
25.107764
 20
-165.0
 30
706.566928
 70
    32
  0
VERTEX
  5
691
  8
TEAM-NET
 10
24.622338
 20
-160.000397
 30
706.582976
 70
    32
  0
VERTEX
  5
692
  8
TEAM-NET
 10
23.128069
 20
-155.05032
 30
706.630468
 70
    32
  0
VERTEX
  5
693
  8
TEAM-NET
 10
20.683905
 20
-150.493534
 30
706.701943
 70
    32
  0
VERTEX
  5
694
  8
TEAM-NET
 10
17.492194
 20
-146.614774
 30
706.783759
 70
    32
  0
VERTEX
  5
695
  8
TEAM-NET
 10
13.614252
 20
-143.423895
 30
706.865551
 70
    32
  0
VERTEX
  5
696
  8
TEAM-NET
 10
9.057587
 20
-140.979994
 30
706.936991
 70
    32
  0
VERTEX
  5
697
  8
TEAM-NET
 10
4.107242
 20
-139.485967
 30
706.98444
 70
    32
  0
VERTEX
  5
698
  8
TEAM-NET
 10
-0.892323
 20
-138.999871
 30
707.000515
 70
    32
  0
VERTEX
  5
699
  8
TEAM-NET
 10
-5.891729
 20
-139.485884
 30
706.984444
 70
    32
  0
VERTEX
  5
69A
  8
TEAM-NET
 10
-10.842035
 20
-140.979972
 30
706.936991
 70
    32
  0
VERTEX
  5
69B
  8
TEAM-NET
 10
-15.398951
 20
-143.423514
 30
706.865554
 70
    32
  0
VERTEX
  5
69C
  8
TEAM-NET
 10
-19.277117
 20
-146.615327
 30
706.783747
 70
    32
  0
VERTEX
  5
69D
  8
TEAM-NET
 10
-22.468226
 20
-150.493596
 30
706.701942
 70
    32
  0
VERTEX
  5
69E
  8
TEAM-NET
 10
-24.912312
 20
-155.050278
 30
706.630477
 70
    32
  0
VERTEX
  5
69F
  8
TEAM-NET
 10
-26.406497
 20
-160.000476
 30
706.582995
 70
    32
  0
VERTEX
  5
6A0
  8
TEAM-NET
 10
-26.892236
 20
-165.0
 30
706.566928
 70
    32
  0
SEQEND
  5
6A1
  8
TEAM-NET
  0
LINE
  5
12F
  8
TEAM-NET
 10
-26.892236
 20
-165.0
 30
715.100338
 11
-26.892236
 21
-165.0
 31
706.566928
  0
ARC
  5
130
  8
TEAM-NET
 10
0.892236
 20
-165.0
 30
-719.766964
 40
28.605283
210
0.0
220
0.0
230
-1.0
 50
105.030626
 51
180.0
  0
ARC
  5
131
  8
TEAM-NET
 10
0.892236
 20
-165.0
 30
-719.766964
 40
28.605283
210
0.0
220
0.0
230
-1.0
 50
180.0
 51
0.0
  0
ARC
  5
132
  8
TEAM-NET
 10
-128.523561
 20
718.046234
 30
41.928618
 40
3.0
210
0.965787
220
-0.259335
230
0.0
 50
90.0
 51
145.0
  0
ARC
  5
133
  8
TEAM-NET
 10
0.892236
 20
-165.0
 30
-719.766964
 40
28.605283
210
0.0
220
0.0
230
-1.0
 50
0.0
 51
74.969374
  0
ARC
  5
134
  8
TEAM-NET
 10
-0.892236
 20
-165.0
 30
721.046234
 40
31.062739
 50
105.030626
 51
74.969374
  0
ARC
  5
135
  8
TEAM-NET
 10
128.060784
 20
718.046234
 30
43.652038
 40
3.0
210
-0.965787
220
-0.259335
230
-0.0
 50
35.0
 51
90.0
  0
ARC
  5
136
  8
TEAM-NET
 10
-128.523561
 20
718.046234
 30
41.928618
 40
3.0
210
0.965787
220
-0.259335
230
0.0
 50
90.0
 51
145.0
  0
POLYLINE
  5
137
  8
TEAM-NET
 66
     1
 10
0.0
 20
0.0
 30
0.0
 70
     8
  0
VERTEX
  5
6A2
  8
TEAM-NET
 10
7.16343
 20
-135.0
 30
721.046234
 70
    32
  0
VERTEX
  5
6A3
  8
TEAM-NET
 10
3.170735
 20
-134.374065
 30
721.065763
 70
    32
  0
VERTEX
  5
6A4
  8
TEAM-NET
 10
-0.89209
 20
-134.157668
 30
721.081723
 70
    32
  0
VERTEX
  5
6A5
  8
TEAM-NET
 10
-4.955218
 20
-134.37394
 30
721.06584
 70
    32
  0
VERTEX
  5
6A6
  8
TEAM-NET
 10
-8.947901
 20
-135.0
 30
721.046234
 70
    32
  0
SEQEND
  5
6A7
  8
TEAM-NET
  0
POLYLINE
  5
138
  8
TEAM-NET
 66
     1
 10
0.0
 20
0.0
 30
0.0
 70
     8
  0
VERTEX
  5
6A8
  8
TEAM-NET
 10
-8.310596
 20
-137.37338
 30
719.766964
 70
    32
  0
VERTEX
  5
6A9
  8
TEAM-NET
 10
-4.633972
 20
-136.62249
 30
719.792452
 70
    32
  0
VERTEX
  5
6AA
  8
TEAM-NET
 10
-0.892107
 20
-136.362422
 30
719.813099
 70
    32
  0
VERTEX
  5
6AB
  8
TEAM-NET
 10
2.849478
 20
-136.622643
 30
719.79235
 70
    32
  0
VERTEX
  5
6AC
  8
TEAM-NET
 10
6.526125
 20
-137.37338
 30
719.766964
 70
    32
  0
SEQEND
  5
6AD
  8
TEAM-NET
  0
ARC
  5
139
  8
TEAM-NET
 10
128.060784
 20
718.046234
 30
43.652038
 40
3.0
210
-0.965787
220
-0.259335
230
-0.0
 50
35.0
 51
90.0
  0
LINE
  5
13A
  8
TEAM-NET
 10
-48.133458
 20
-229.740634
 30
721.046234
 11
-48.133327
 21
-229.753071
 31
721.046234
  0
LINE
  5
13B
  8
TEAM-NET
 10
46.348856
 20
-229.753071
 30
721.046234
 11
-48.133327
 21
-229.753071
 31
721.046234
  0
LINE
  5
13C
  8
TEAM-NET
 10
-48.133458
 20
-135.0
 30
721.046234
 11
-48.133458
 21
-229.740634
 31
721.046234
  0
LINE
  5
13D
  8
TEAM-NET
 10
46.348856
 20
-229.753071
 30
721.046234
 11
46.348987
 21
-229.740634
 31
721.046234
  0
LINE
  5
13E
  8
TEAM-NET
 10
-48.133458
 20
-135.0
 30
721.046234
 11
-8.947901
 21
-135.0
 31
721.046234
  0
LINE
  5
13F
  8
TEAM-NET
 10
46.348987
 20
-135.0
 30
721.046234
 11
46.348987
 21
-229.740634
 31
721.046234
  0
ARC
  5
140
  8
TEAM-NET
 10
-0.892236
 20
-165.0
 30
721.046234
 40
31.062739
 50
105.030626
 51
74.969374
  0
LINE
  5
141
  8
TEAM-NET
 10
7.16343
 20
-135.0
 30
721.046234
 11
46.348987
 21
-135.0
 31
721.046234
  0
LINE
  5
142
  8
TEAM-NET
 10
-115.892236
 20
-34.955146
 30
701.913929
 11
-115.892236
 21
-110.044854
 31
701.913929
  0
LINE
  5
143
  8
TEAM-NET
 10
114.107764
 20
-110.044854
 30
701.913929
 11
114.107764
 21
-34.955146
 31
701.913929
  0
POLYLINE
  5
144
  8
TEAM-NET
 66
     1
 10
0.0
 20
0.0
 30
0.0
 70
     9
  0
VERTEX
  5
6AE
  8
TEAM-NET
 10
-43.666516
 20
-165.0
 30
705.826434
 70
    32
  0
VERTEX
  5
6AF
  8
TEAM-NET
 10
-43.462151
 20
-160.850508
 30
705.837634
 70
    32
  0
VERTEX
  5
6B0
  8
TEAM-NET
 10
-42.850477
 20
-156.738053
 30
705.870837
 70
    32
  0
VERTEX
  5
6B1
  8
TEAM-NET
 10
-41.839051
 20
-152.710069
 30
705.92468
 70
    32
  0
VERTEX
  5
6B2
  8
TEAM-NET
 10
-40.434284
 20
-148.792968
 30
705.997277
 70
    32
  0
VERTEX
  5
6B3
  8
TEAM-NET
 10
-38.653951
 20
-145.036764
 30
706.085635
 70
    32
  0
VERTEX
  5
6B4
  8
TEAM-NET
 10
-36.501565
 20
-141.453555
 30
706.187009
 70
    32
  0
VERTEX
  5
6B5
  8
TEAM-NET
 10
-33.998736
 20
-138.088655
 30
706.297396
 70
    32
  0
VERTEX
  5
6B6
  8
TEAM-NET
 10
-31.181928
 20
-134.991427
 30
706.411996
 70
    32
  0
VERTEX
  5
6B7
  8
TEAM-NET
 10
-28.088871
 20
-132.196753
 30
706.52609
 70
    32
  0
VERTEX
  5
6B8
  8
TEAM-NET
 10
-24.719703
 20
-129.704846
 30
706.63637
 70
    32
  0
VERTEX
  5
6B9
  8
TEAM-NET
 10
-21.11141
 20
-127.547867
 30
706.738329
 70
    32
  0
VERTEX
  5
6BA
  8
TEAM-NET
 10
-17.316467
 20
-125.757927
 30
706.827518
 70
    32
  0
VERTEX
  5
6BB
  8
TEAM-NET
 10
-13.381667
 20
-124.352043
 30
706.900483
 70
    32
  0
VERTEX
  5
6BC
  8
TEAM-NET
 10
-9.307027
 20
-123.330579
 30
706.955101
 70
    32
  0
VERTEX
  5
6BD
  8
TEAM-NET
 10
-5.14133
 20
-122.710211
 30
706.988933
 70
    32
  0
VERTEX
  5
6BE
  8
TEAM-NET
 10
-0.945387
 20
-122.500048
 30
707.000508
 70
    32
  0
VERTEX
  5
6BF
  8
TEAM-NET
 10
3.231834
 20
-122.698014
 30
706.989603
 70
    32
  0
VERTEX
  5
6C0
  8
TEAM-NET
 10
7.390981
 20
-123.304478
 30
706.956514
 70
    32
  0
VERTEX
  5
6C1
  8
TEAM-NET
 10
11.478404
 20
-124.316288
 30
706.902369
 70
    32
  0
VERTEX
  5
6C2
  8
TEAM-NET
 10
15.434428
 20
-125.717708
 30
706.82957
 70
    32
  0
VERTEX
  5
6C3
  8
TEAM-NET
 10
19.216671
 20
-127.489336
 30
706.741179
 70
    32
  0
VERTEX
  5
6C4
  8
TEAM-NET
 10
22.824573
 20
-129.631191
 30
706.639751
 70
    32
  0
VERTEX
  5
6C5
  8
TEAM-NET
 10
26.209828
 20
-132.119648
 30
706.529381
 70
    32
  0
VERTEX
  5
6C6
  8
TEAM-NET
 10
29.323457
 20
-134.917902
 30
706.414869
 70
    32
  0
VERTEX
  5
6C7
  8
TEAM-NET
 10
32.135088
 20
-137.992789
 30
706.300756
 70
    32
  0
VERTEX
  5
6C8
  8
TEAM-NET
 10
34.643114
 20
-141.343511
 30
706.190388
 70
    32
  0
VERTEX
  5
6C9
  8
TEAM-NET
 10
36.811962
 20
-144.929723
 30
706.088421
 70
    32
  0
VERTEX
  5
6CA
  8
TEAM-NET
 10
38.610334
 20
-148.698345
 30
705.999281
 70
    32
  0
VERTEX
  5
6CB
  8
TEAM-NET
 10
40.023832
 20
-152.609543
 30
705.926298
 70
    32
  0
VERTEX
  5
6CC
  8
TEAM-NET
 10
41.05059
 20
-156.660827
 30
705.871664
 70
    32
  0
VERTEX
  5
6CD
  8
TEAM-NET
 10
41.672531
 20
-160.799977
 30
705.837923
 70
    32
  0
VERTEX
  5
6CE
  8
TEAM-NET
 10
41.88209
 20
-164.965252
 30
705.826427
 70
    32
  0
VERTEX
  5
6CF
  8
TEAM-NET
 10
41.680761
 20
-169.116985
 30
705.837467
 70
    32
  0
VERTEX
  5
6D0
  8
TEAM-NET
 10
41.067984
 20
-173.252045
 30
705.870734
 70
    32
  0
VERTEX
  5
6D1
  8
TEAM-NET
 10
40.047917
 20
-177.311956
 30
705.925028
 70
    32
  0
VERTEX
  5
6D2
  8
TEAM-NET
 10
38.636759
 20
-181.23847
 30
705.997941
 70
    32
  0
VERTEX
  5
6D3
  8
TEAM-NET
 10
36.851011
 20
-184.997356
 30
706.086531
 70
    32
  0
VERTEX
  5
6D4
  8
TEAM-NET
 10
34.692527
 20
-188.583265
 30
706.188132
 70
    32
  0
VERTEX
  5
6D5
  8
TEAM-NET
 10
32.186544
 20
-191.944843
 30
706.29857
 70
    32
  0
VERTEX
  5
6D6
  8
TEAM-NET
 10
29.371162
 20
-195.034723
 30
706.413017
 70
    32
  0
VERTEX
  5
6D7
  8
TEAM-NET
 10
26.274077
 20
-197.828007
 30
706.527146
 70
    32
  0
VERTEX
  5
6D8
  8
TEAM-NET
 10
22.898503
 20
-200.319691
 30
706.637494
 70
    32
  0
VERTEX
  5
6D9
  8
TEAM-NET
 10
19.288399
 20
-202.472668
 30
706.739328
 70
    32
  0
VERTEX
  5
6DA
  8
TEAM-NET
 10
15.498472
 20
-204.256054
 30
706.828229
 70
    32
  0
VERTEX
  5
6DB
  8
TEAM-NET
 10
11.559412
 20
-205.659255
 30
706.901082
 70
    32
  0
VERTEX
  5
6DC
  8
TEAM-NET
 10
7.4786
 20
-206.678285
 30
706.955579
 70
    32
  0
VERTEX
  5
6DD
  8
TEAM-NET
 10
3.31349
 20
-207.294039
 30
706.989168
 70
    32
  0
VERTEX
  5
6DE
  8
TEAM-NET
 10
-0.875173
 20
-207.5
 30
707.00051
 70
    32
  0
VERTEX
  5
6DF
  8
TEAM-NET
 10
-5.056318
 20
-207.298097
 30
706.989388
 70
    32
  0
VERTEX
  5
6E0
  8
TEAM-NET
 10
-9.219521
 20
-206.686875
 30
706.956044
 70
    32
  0
VERTEX
  5
6E1
  8
TEAM-NET
 10
-13.304244
 20
-205.671179
 30
706.901706
 70
    32
  0
VERTEX
  5
6E2
  8
TEAM-NET
 10
-17.252092
 20
-204.268824
 30
706.828884
 70
    32
  0
VERTEX
  5
6E3
  8
TEAM-NET
 10
-21.036424
 20
-202.49192
 30
706.740266
 70
    32
  0
VERTEX
  5
6E4
  8
TEAM-NET
 10
-24.64623
 20
-200.344197
 30
706.63862
 70
    32
  0
VERTEX
  5
6E5
  8
TEAM-NET
 10
-28.027859
 20
-197.85304
 30
706.528215
 70
    32
  0
VERTEX
  5
6E6
  8
TEAM-NET
 10
-31.133132
 20
-195.057112
 30
706.413891
 70
    32
  0
VERTEX
  5
6E7
  8
TEAM-NET
 10
-33.94496
 20
-191.976544
 30
706.299679
 70
    32
  0
VERTEX
  5
6E8
  8
TEAM-NET
 10
-36.452463
 20
-188.61969
 30
706.189252
 70
    32
  0
VERTEX
  5
6E9
  8
TEAM-NET
 10
-38.616745
 20
-185.032095
 30
706.087437
 70
    32
  0
VERTEX
  5
6EA
  8
TEAM-NET
 10
-40.408354
 20
-181.2698
 30
705.998596
 70
    32
  0
VERTEX
  5
6EB
  8
TEAM-NET
 10
-41.819894
 20
-177.352065
 30
705.925686
 70
    32
  0
VERTEX
  5
6EC
  8
TEAM-NET
 10
-42.843907
 20
-173.295332
 30
705.871191
 70
    32
  0
VERTEX
  5
6ED
  8
TEAM-NET
 10
-43.461287
 20
-169.15783
 30
705.83768
 70
    32
  0
SEQEND
  5
6EE
  8
TEAM-NET
  0
POLYLINE
  5
145
  8
TEAM-NET
 66
     1
 10
0.0
 20
0.0
 30
0.0
 70
     9
  0
VERTEX
  5
6EF
  8
TEAM-NET
 10
-43.666516
 20
-165.0
 30
705.826434
 70
    32
  0
VERTEX
  5
6F0
  8
TEAM-NET
 10
-43.462151
 20
-160.850508
 30
705.837634
 70
    32
  0
VERTEX
  5
6F1
  8
TEAM-NET
 10
-42.850477
 20
-156.738053
 30
705.870837
 70
    32
  0
VERTEX
  5
6F2
  8
TEAM-NET
 10
-41.839051
 20
-152.710069
 30
705.92468
 70
    32
  0
VERTEX
  5
6F3
  8
TEAM-NET
 10
-40.434284
 20
-148.792968
 30
705.997277
 70
    32
  0
VERTEX
  5
6F4
  8
TEAM-NET
 10
-38.653951
 20
-145.036764
 30
706.085635
 70
    32
  0
VERTEX
  5
6F5
  8
TEAM-NET
 10
-36.501565
 20
-141.453555
 30
706.187009
 70
    32
  0
VERTEX
  5
6F6
  8
TEAM-NET
 10
-33.998736
 20
-138.088655
 30
706.297396
 70
    32
  0
VERTEX
  5
6F7
  8
TEAM-NET
 10
-31.181928
 20
-134.991427
 30
706.411996
 70
    32
  0
VERTEX
  5
6F8
  8
TEAM-NET
 10
-28.088871
 20
-132.196753
 30
706.52609
 70
    32
  0
VERTEX
  5
6F9
  8
TEAM-NET
 10
-24.719703
 20
-129.704846
 30
706.63637
 70
    32
  0
VERTEX
  5
6FA
  8
TEAM-NET
 10
-21.11141
 20
-127.547867
 30
706.738329
 70
    32
  0
VERTEX
  5
6FB
  8
TEAM-NET
 10
-17.316467
 20
-125.757927
 30
706.827518
 70
    32
  0
VERTEX
  5
6FC
  8
TEAM-NET
 10
-13.381667
 20
-124.352043
 30
706.900483
 70
    32
  0
VERTEX
  5
6FD
  8
TEAM-NET
 10
-9.307027
 20
-123.330579
 30
706.955101
 70
    32
  0
VERTEX
  5
6FE
  8
TEAM-NET
 10
-5.14133
 20
-122.710211
 30
706.988933
 70
    32
  0
VERTEX
  5
6FF
  8
TEAM-NET
 10
-0.945387
 20
-122.500048
 30
707.000508
 70
    32
  0
VERTEX
  5
700
  8
TEAM-NET
 10
3.231834
 20
-122.698014
 30
706.989603
 70
    32
  0
VERTEX
  5
701
  8
TEAM-NET
 10
7.390981
 20
-123.304478
 30
706.956514
 70
    32
  0
VERTEX
  5
702
  8
TEAM-NET
 10
11.478404
 20
-124.316288
 30
706.902369
 70
    32
  0
VERTEX
  5
703
  8
TEAM-NET
 10
15.434428
 20
-125.717708
 30
706.82957
 70
    32
  0
VERTEX
  5
704
  8
TEAM-NET
 10
19.216671
 20
-127.489336
 30
706.741179
 70
    32
  0
VERTEX
  5
705
  8
TEAM-NET
 10
22.824573
 20
-129.631191
 30
706.639751
 70
    32
  0
VERTEX
  5
706
  8
TEAM-NET
 10
26.209828
 20
-132.119648
 30
706.529381
 70
    32
  0
VERTEX
  5
707
  8
TEAM-NET
 10
29.323457
 20
-134.917902
 30
706.414869
 70
    32
  0
VERTEX
  5
708
  8
TEAM-NET
 10
32.135088
 20
-137.992789
 30
706.300756
 70
    32
  0
VERTEX
  5
709
  8
TEAM-NET
 10
34.643114
 20
-141.343511
 30
706.190388
 70
    32
  0
VERTEX
  5
70A
  8
TEAM-NET
 10
36.811962
 20
-144.929723
 30
706.088421
 70
    32
  0
VERTEX
  5
70B
  8
TEAM-NET
 10
38.610334
 20
-148.698345
 30
705.999281
 70
    32
  0
VERTEX
  5
70C
  8
TEAM-NET
 10
40.023832
 20
-152.609543
 30
705.926298
 70
    32
  0
VERTEX
  5
70D
  8
TEAM-NET
 10
41.05059
 20
-156.660827
 30
705.871664
 70
    32
  0
VERTEX
  5
70E
  8
TEAM-NET
 10
41.672531
 20
-160.799977
 30
705.837923
 70
    32
  0
VERTEX
  5
70F
  8
TEAM-NET
 10
41.88209
 20
-164.965252
 30
705.826427
 70
    32
  0
VERTEX
  5
710
  8
TEAM-NET
 10
41.680761
 20
-169.116985
 30
705.837467
 70
    32
  0
VERTEX
  5
711
  8
TEAM-NET
 10
41.067984
 20
-173.252045
 30
705.870734
 70
    32
  0
VERTEX
  5
712
  8
TEAM-NET
 10
40.047917
 20
-177.311956
 30
705.925028
 70
    32
  0
VERTEX
  5
713
  8
TEAM-NET
 10
38.636759
 20
-181.23847
 30
705.997941
 70
    32
  0
VERTEX
  5
714
  8
TEAM-NET
 10
36.851011
 20
-184.997356
 30
706.086531
 70
    32
  0
VERTEX
  5
715
  8
TEAM-NET
 10
34.692527
 20
-188.583265
 30
706.188132
 70
    32
  0
VERTEX
  5
716
  8
TEAM-NET
 10
32.186544
 20
-191.944843
 30
706.29857
 70
    32
  0
VERTEX
  5
717
  8
TEAM-NET
 10
29.371162
 20
-195.034723
 30
706.413017
 70
    32
  0
VERTEX
  5
718
  8
TEAM-NET
 10
26.274077
 20
-197.828007
 30
706.527146
 70
    32
  0
VERTEX
  5
719
  8
TEAM-NET
 10
22.898503
 20
-200.319691
 30
706.637494
 70
    32
  0
VERTEX
  5
71A
  8
TEAM-NET
 10
19.288399
 20
-202.472668
 30
706.739328
 70
    32
  0
VERTEX
  5
71B
  8
TEAM-NET
 10
15.498472
 20
-204.256054
 30
706.828229
 70
    32
  0
VERTEX
  5
71C
  8
TEAM-NET
 10
11.559412
 20
-205.659255
 30
706.901082
 70
    32
  0
VERTEX
  5
71D
  8
TEAM-NET
 10
7.4786
 20
-206.678285
 30
706.955579
 70
    32
  0
VERTEX
  5
71E
  8
TEAM-NET
 10
3.31349
 20
-207.294039
 30
706.989168
 70
    32
  0
VERTEX
  5
71F
  8
TEAM-NET
 10
-0.875173
 20
-207.5
 30
707.00051
 70
    32
  0
VERTEX
  5
720
  8
TEAM-NET
 10
-5.056318
 20
-207.298097
 30
706.989388
 70
    32
  0
VERTEX
  5
721
  8
TEAM-NET
 10
-9.219521
 20
-206.686875
 30
706.956044
 70
    32
  0
VERTEX
  5
722
  8
TEAM-NET
 10
-13.304244
 20
-205.671179
 30
706.901706
 70
    32
  0
VERTEX
  5
723
  8
TEAM-NET
 10
-17.252092
 20
-204.268824
 30
706.828884
 70
    32
  0
VERTEX
  5
724
  8
TEAM-NET
 10
-21.036424
 20
-202.49192
 30
706.740266
 70
    32
  0
VERTEX
  5
725
  8
TEAM-NET
 10
-24.64623
 20
-200.344197
 30
706.63862
 70
    32
  0
VERTEX
  5
726
  8
TEAM-NET
 10
-28.027859
 20
-197.85304
 30
706.528215
 70
    32
  0
VERTEX
  5
727
  8
TEAM-NET
 10
-31.133132
 20
-195.057112
 30
706.413891
 70
    32
  0
VERTEX
  5
728
  8
TEAM-NET
 10
-33.94496
 20
-191.976544
 30
706.299679
 70
    32
  0
VERTEX
  5
729
  8
TEAM-NET
 10
-36.452463
 20
-188.61969
 30
706.189252
 70
    32
  0
VERTEX
  5
72A
  8
TEAM-NET
 10
-38.616745
 20
-185.032095
 30
706.087437
 70
    32
  0
VERTEX
  5
72B
  8
TEAM-NET
 10
-40.408354
 20
-181.2698
 30
705.998596
 70
    32
  0
VERTEX
  5
72C
  8
TEAM-NET
 10
-41.819894
 20
-177.352065
 30
705.925686
 70
    32
  0
VERTEX
  5
72D
  8
TEAM-NET
 10
-42.843907
 20
-173.295332
 30
705.871191
 70
    32
  0
VERTEX
  5
72E
  8
TEAM-NET
 10
-43.461287
 20
-169.15783
 30
705.83768
 70
    32
  0
SEQEND
  5
72F
  8
TEAM-NET
  0
POLYLINE
  5
146
  8
TEAM-NET
 66
     1
 10
0.0
 20
0.0
 30
0.0
 70
     8
  0
VERTEX
  5
730
  8
TEAM-NET
 10
-26.892236
 20
-165.0
 30
706.566928
 70
    32
  0
VERTEX
  5
731
  8
TEAM-NET
 10
-26.406809
 20
-169.999603
 30
706.582976
 70
    32
  0
VERTEX
  5
732
  8
TEAM-NET
 10
-24.91254
 20
-174.94968
 30
706.630468
 70
    32
  0
VERTEX
  5
733
  8
TEAM-NET
 10
-22.468376
 20
-179.506466
 30
706.701943
 70
    32
  0
VERTEX
  5
734
  8
TEAM-NET
 10
-19.276665
 20
-183.385226
 30
706.783759
 70
    32
  0
VERTEX
  5
735
  8
TEAM-NET
 10
-15.398723
 20
-186.576105
 30
706.865551
 70
    32
  0
VERTEX
  5
736
  8
TEAM-NET
 10
-10.842058
 20
-189.020006
 30
706.936991
 70
    32
  0
VERTEX
  5
737
  8
TEAM-NET
 10
-5.891713
 20
-190.514033
 30
706.98444
 70
    32
  0
VERTEX
  5
738
  8
TEAM-NET
 10
-0.892148
 20
-191.000129
 30
707.000515
 70
    32
  0
VERTEX
  5
739
  8
TEAM-NET
 10
4.107258
 20
-190.514116
 30
706.984444
 70
    32
  0
VERTEX
  5
73A
  8
TEAM-NET
 10
9.057564
 20
-189.020028
 30
706.936991
 70
    32
  0
VERTEX
  5
73B
  8
TEAM-NET
 10
13.61448
 20
-186.576486
 30
706.865554
 70
    32
  0
VERTEX
  5
73C
  8
TEAM-NET
 10
17.492646
 20
-183.384673
 30
706.783747
 70
    32
  0
VERTEX
  5
73D
  8
TEAM-NET
 10
20.683755
 20
-179.506404
 30
706.701942
 70
    32
  0
VERTEX
  5
73E
  8
TEAM-NET
 10
23.127841
 20
-174.949722
 30
706.630477
 70
    32
  0
VERTEX
  5
73F
  8
TEAM-NET
 10
24.622026
 20
-169.999524
 30
706.582995
 70
    32
  0
VERTEX
  5
740
  8
TEAM-NET
 10
25.107764
 20
-165.0
 30
706.566928
 70
    32
  0
SEQEND
  5
741
  8
TEAM-NET
  0
POLYLINE
  5
147
  8
TEAM-NET
 66
     1
 10
0.0
 20
0.0
 30
0.0
 70
     8
  0
VERTEX
  5
742
  8
TEAM-NET
 10
25.107764
 20
-165.0
 30
706.566928
 70
    32
  0
VERTEX
  5
743
  8
TEAM-NET
 10
24.622338
 20
-160.000397
 30
706.582976
 70
    32
  0
VERTEX
  5
744
  8
TEAM-NET
 10
23.128069
 20
-155.05032
 30
706.630468
 70
    32
  0
VERTEX
  5
745
  8
TEAM-NET
 10
20.683905
 20
-150.493534
 30
706.701943
 70
    32
  0
VERTEX
  5
746
  8
TEAM-NET
 10
17.492194
 20
-146.614774
 30
706.783759
 70
    32
  0
VERTEX
  5
747
  8
TEAM-NET
 10
13.614252
 20
-143.423895
 30
706.865551
 70
    32
  0
VERTEX
  5
748
  8
TEAM-NET
 10
9.057587
 20
-140.979994
 30
706.936991
 70
    32
  0
VERTEX
  5
749
  8
TEAM-NET
 10
4.107242
 20
-139.485967
 30
706.98444
 70
    32
  0
VERTEX
  5
74A
  8
TEAM-NET
 10
-0.892323
 20
-138.999871
 30
707.000515
 70
    32
  0
VERTEX
  5
74B
  8
TEAM-NET
 10
-5.891729
 20
-139.485884
 30
706.984444
 70
    32
  0
VERTEX
  5
74C
  8
TEAM-NET
 10
-10.842035
 20
-140.979972
 30
706.936991
 70
    32
  0
VERTEX
  5
74D
  8
TEAM-NET
 10
-15.398951
 20
-143.423514
 30
706.865554
 70
    32
  0
VERTEX
  5
74E
  8
TEAM-NET
 10
-19.277117
 20
-146.615327
 30
706.783747
 70
    32
  0
VERTEX
  5
74F
  8
TEAM-NET
 10
-22.468226
 20
-150.493596
 30
706.701942
 70
    32
  0
VERTEX
  5
750
  8
TEAM-NET
 10
-24.912312
 20
-155.050278
 30
706.630477
 70
    32
  0
VERTEX
  5
751
  8
TEAM-NET
 10
-26.406497
 20
-160.000476
 30
706.582995
 70
    32
  0
VERTEX
  5
752
  8
TEAM-NET
 10
-26.892236
 20
-165.0
 30
706.566928
 70
    32
  0
SEQEND
  5
753
  8
TEAM-NET
  0
POLYLINE
  5
148
  8
TEAM-NET
 66
     1
 10
0.0
 20
0.0
 30
0.0
 70
     8
  0
VERTEX
  5
754
  8
TEAM-NET
 10
131.711008
 20
-263.024802
 30
708.659464
 70
    32
  0
VERTEX
  5
755
  8
TEAM-NET
 10
115.288305
 20
-265.067177
 30
711.569646
 70
    32
  0
VERTEX
  5
756
  8
TEAM-NET
 10
98.779718
 20
-266.792102
 30
714.10046
 70
    32
  0
VERTEX
  5
757
  8
TEAM-NET
 10
82.204888
 20
-268.219089
 30
716.246368
 70
    32
  0
VERTEX
  5
758
  8
TEAM-NET
 10
65.583669
 20
-269.363451
 30
718.003792
 70
    32
  0
VERTEX
  5
759
  8
TEAM-NET
 10
48.936025
 20
-270.238534
 30
719.370083
 70
    32
  0
VERTEX
  5
75A
  8
TEAM-NET
 10
32.282476
 20
-270.854833
 30
720.344212
 70
    32
  0
VERTEX
  5
75B
  8
TEAM-NET
 10
15.644068
 20
-271.220045
 30
720.926741
 70
    32
  0
VERTEX
  5
75C
  8
TEAM-NET
 10
-0.959375
 20
-271.340297
 30
721.119192
 70
    32
  0
VERTEX
  5
75D
  8
TEAM-NET
 10
-17.540414
 20
-271.218364
 30
720.924155
 70
    32
  0
VERTEX
  5
75E
  8
TEAM-NET
 10
-34.155052
 20
-270.852237
 30
720.340091
 70
    32
  0
VERTEX
  5
75F
  8
TEAM-NET
 10
-50.788045
 20
-270.235551
 30
719.365312
 70
    32
  0
VERTEX
  5
760
  8
TEAM-NET
 10
-67.417723
 20
-269.360541
 30
717.999076
 70
    32
  0
VERTEX
  5
761
  8
TEAM-NET
 10
-84.023333
 20
-268.216429
 30
716.242376
 70
    32
  0
VERTEX
  5
762
  8
TEAM-NET
 10
-100.584826
 20
-266.79011
 30
714.097548
 70
    32
  0
VERTEX
  5
763
  8
TEAM-NET
 10
-117.082196
 20
-265.066063
 30
711.568101
 70
    32
  0
VERTEX
  5
764
  8
TEAM-NET
 10
-133.495479
 20
-263.024795
 30
708.659467
 70
    32
  0
SEQEND
  5
765
  8
TEAM-NET
  0
ARC
  5
149
  8
TEAM-NET
 10
-0.892236
 20
-72.768689
 30
35.0
 40
783.769199
210
0.0
220
-1.0
230
0.0
 50
81.562709
 51
98.437291
  0
LINE
  5
14A
  8
TEAM-NET
 10
-115.892236
 20
-35.0
 30
702.51837
 11
-115.892236
 21
-34.955146
 31
701.913929
  0
LINE
  5
14B
  8
TEAM-NET
 10
114.107764
 20
-35.0
 30
702.517812
 11
114.107764
 21
-34.955146
 31
701.913929
  0
ARC
  5
14C
  8
TEAM-NET
 10
0.892236
 20
-72.768689
 30
-110.0
 40
783.769199
210
0.0
220
1.0
230
0.0
 50
81.562709
 51
98.437291
  0
LINE
  5
14D
  8
TEAM-NET
 10
114.107764
 20
-110.0
 30
702.51837
 11
114.107764
 21
-110.044854
 31
701.913929
  0
LINE
  5
14E
  8
TEAM-NET
 10
-115.892236
 20
-110.0
 30
702.517812
 11
-115.892236
 21
-110.044854
 31
701.913929
  0
ARC
  5
14F
  8
TEAM-NET
 10
-0.892236
 20
-165.0
 30
716.191786
 40
22.0
 50
360.0
 51
180.0
  0
ARC
  5
150
  8
TEAM-NET
 10
-0.892236
 20
-165.0
 30
716.034168
 40
21.0
 50
180.0
 51
0.0
  0
ARC
  5
151
  8
TEAM-NET
 10
-0.892236
 20
-165.0
 30
716.034168
 40
21.0
 50
360.0
 51
180.0
  0
ARC
  5
152
  8
TEAM-NET
 10
-0.892236
 20
-165.0
 30
716.191786
 40
22.0
 50
180.0
 51
0.0
  0
LINE
  5
153
  8
TEAM-NET
 10
7.16343
 20
-135.0
 30
721.046234
 11
46.348987
 21
-135.0
 31
721.046234
  0
POLYLINE
  5
154
  8
TEAM-NET
 66
     1
 10
0.0
 20
0.0
 30
0.0
 70
     8
  0
VERTEX
  5
766
  8
TEAM-NET
 10
7.16343
 20
-135.0
 30
721.046234
 70
    32
  0
VERTEX
  5
767
  8
TEAM-NET
 10
3.170735
 20
-134.374065
 30
721.065763
 70
    32
  0
VERTEX
  5
768
  8
TEAM-NET
 10
-0.89209
 20
-134.157668
 30
721.081723
 70
    32
  0
VERTEX
  5
769
  8
TEAM-NET
 10
-4.955218
 20
-134.37394
 30
721.06584
 70
    32
  0
VERTEX
  5
76A
  8
TEAM-NET
 10
-8.947901
 20
-135.0
 30
721.046234
 70
    32
  0
SEQEND
  5
76B
  8
TEAM-NET
  0
LINE
  5
155
  8
TEAM-NET
 10
-48.133458
 20
-135.0
 30
721.046234
 11
-8.947901
 21
-135.0
 31
721.046234
  0
LINE
  5
156
  8
TEAM-NET
 10
46.348856
 20
-229.753071
 30
721.046234
 11
-48.133327
 21
-229.753071
 31
721.046234
  0
ARC
  5
157
  8
TEAM-NET
 10
-0.892236
 20
-165.0
 30
716.034168
 40
21.0
 50
180.0
 51
0.0
  0
ARC
  5
158
  8
TEAM-NET
 10
-0.892236
 20
-165.0
 30
716.191786
 40
22.0
 50
360.0
 51
180.0
  0
ARC
  5
159
  8
TEAM-NET
 10
-0.892236
 20
-165.0
 30
716.191786
 40
22.0
 50
180.0
 51
0.0
  0
ARC
  5
15A
  8
TEAM-NET
 10
-0.892236
 20
-165.0
 30
716.034168
 40
21.0
 50
360.0
 51
180.0
  0
POLYLINE
  5
15B
  8
TEAM-NET
 66
     1
 10
0.0
 20
0.0
 30
0.0
 70
     8
  0
VERTEX
  5
76C
  8
TEAM-NET
 10
131.711008
 20
-263.024802
 30
708.659464
 70
    32
  0
VERTEX
  5
76D
  8
TEAM-NET
 10
115.288305
 20
-265.067177
 30
711.569646
 70
    32
  0
VERTEX
  5
76E
  8
TEAM-NET
 10
98.779718
 20
-266.792102
 30
714.10046
 70
    32
  0
VERTEX
  5
76F
  8
TEAM-NET
 10
82.204888
 20
-268.219089
 30
716.246368
 70
    32
  0
VERTEX
  5
770
  8
TEAM-NET
 10
65.583669
 20
-269.363451
 30
718.003792
 70
    32
  0
VERTEX
  5
771
  8
TEAM-NET
 10
48.936025
 20
-270.238534
 30
719.370083
 70
    32
  0
VERTEX
  5
772
  8
TEAM-NET
 10
32.282476
 20
-270.854833
 30
720.344212
 70
    32
  0
VERTEX
  5
773
  8
TEAM-NET
 10
15.644068
 20
-271.220045
 30
720.926741
 70
    32
  0
VERTEX
  5
774
  8
TEAM-NET
 10
-0.959375
 20
-271.340297
 30
721.119192
 70
    32
  0
VERTEX
  5
775
  8
TEAM-NET
 10
-17.540414
 20
-271.218364
 30
720.924155
 70
    32
  0
VERTEX
  5
776
  8
TEAM-NET
 10
-34.155052
 20
-270.852237
 30
720.340091
 70
    32
  0
VERTEX
  5
777
  8
TEAM-NET
 10
-50.788045
 20
-270.235551
 30
719.365312
 70
    32
  0
VERTEX
  5
778
  8
TEAM-NET
 10
-67.417723
 20
-269.360541
 30
717.999076
 70
    32
  0
VERTEX
  5
779
  8
TEAM-NET
 10
-84.023333
 20
-268.216429
 30
716.242376
 70
    32
  0
VERTEX
  5
77A
  8
TEAM-NET
 10
-100.584826
 20
-266.79011
 30
714.097548
 70
    32
  0
VERTEX
  5
77B
  8
TEAM-NET
 10
-117.082196
 20
-265.066063
 30
711.568101
 70
    32
  0
VERTEX
  5
77C
  8
TEAM-NET
 10
-133.495479
 20
-263.024795
 30
708.659467
 70
    32
  0
SEQEND
  5
77D
  8
TEAM-NET
  0
LINE
  5
15C
  8
TEAM-NET
 10
-115.892236
 20
-110.0
 30
702.517812
 11
-115.892236
 21
-110.044854
 31
701.913929
  0
LINE
  5
15D
  8
TEAM-NET
 10
-115.892236
 20
-35.0
 30
702.51837
 11
-115.892236
 21
-34.955146
 31
701.913929
  0
LINE
  5
15E
  8
TEAM-NET
 10
-115.892236
 20
-34.955146
 30
701.913929
 11
-115.892236
 21
-110.044854
 31
701.913929
210
1.0
220
0.0
230
0.0
  0
LINE
  5
15F
  8
TEAM-NET
 10
114.107764
 20
-35.0
 30
702.517812
 11
114.107764
 21
-34.955146
 31
701.913929
  0
LINE
  5
160
  8
TEAM-NET
 10
114.107764
 20
-110.0
 30
702.51837
 11
114.107764
 21
-110.044854
 31
701.913929
  0
LINE
  5
161
  8
TEAM-NET
 10
114.107764
 20
-110.044854
 30
701.913929
 11
114.107764
 21
-34.955146
 31
701.913929
210
-1.0
220
0.0
230
0.0
  0
ARC
  5
162
  8
TEAM-NET
 10
-0.892236
 20
-72.768689
 30
35.0
 40
783.769199
210
0.0
220
-1.0
230
0.0
 50
81.562709
 51
98.437291
  0
LINE
  5
163
  8
TEAM-NET
 10
-48.133458
 20
-135.0
 30
721.046234
 11
-48.133458
 21
-229.740634
 31
721.046234
  0
LINE
  5
164
  8
TEAM-NET
 10
-48.133458
 20
-229.740634
 30
721.046234
 11
-48.133327
 21
-229.753071
 31
721.046234
  0
LINE
  5
165
  8
TEAM-NET
 10
46.348856
 20
-229.753071
 30
721.046234
 11
46.348987
 21
-229.740634
 31
721.046234
  0
LINE
  5
166
  8
TEAM-NET
 10
46.348987
 20
-135.0
 30
721.046234
 11
46.348987
 21
-229.740634
 31
721.046234
  0
ARC
  5
167
  8
TEAM-NET
 10
0.892236
 20
-72.768689
 30
-110.0
 40
783.769199
210
0.0
220
1.0
230
0.0
 50
81.562709
 51
98.437291
  0
ARC
  5
168
  8
TEAM-NET
 10
-0.892236
 20
-165.0
 30
728.856088
 40
30.0
 50
90.0
 51
180.0
  0
ARC
  5
169
  8
TEAM-NET
 10
-0.892236
 20
-165.0
 30
728.856088
 40
30.0
 50
180.0
 51
270.0
  0
ARC
  5
16A
  8
TEAM-NET
 10
164.353571
 20
641.884872
 30
0.892236
 40
91.7912
210
-1.0
220
0.0
230
0.0
 50
89.596498
 51
108.650003
  0
ARC
  5
16B
  8
TEAM-NET
 10
-165.646429
 20
641.884872
 30
-0.892236
 40
91.7912
210
1.0
220
0.0
230
0.0
 50
89.596498
 51
108.650003
  0
LINE
  5
16C
  8
TEAM-NET
 10
29.107764
 20
-165.0
 30
728.856088
 11
29.107764
 21
-165.0
 31
728.034168
  0
ARC
  5
16D
  8
TEAM-NET
 10
-0.892236
 20
-165.0
 30
728.856088
 40
30.0
 50
360.0
 51
90.0
  0
ARC
  5
16E
  8
TEAM-NET
 10
-0.892236
 20
-165.0
 30
728.034168
 40
30.0
 50
360.0
 51
180.0
  0
ARC
  5
16F
  8
TEAM-NET
 10
-0.892236
 20
-165.0
 30
728.856088
 40
30.0
 50
90.0
 51
180.0
  0
LINE
  5
170
  8
TEAM-NET
 10
-30.892236
 20
-165.0
 30
728.856088
 11
-30.892236
 21
-165.0
 31
728.034168
  0
LINE
  5
171
  8
TEAM-NET
 10
-16.519173
 20
-150.971499
 30
728.034168
 11
-5.804139
 21
-161.554248
 31
728.034168
210
0.0
220
0.0
230
-1.0
  0
ARC
  5
172
  8
TEAM-NET
 10
0.892236
 20
-165.0
 30
-728.034168
 40
6.0
210
0.0
220
0.0
230
-1.0
 50
324.238198
 51
35.050062
  0
ARC
  5
173
  8
TEAM-NET
 10
0.892236
 20
-165.0
 30
-728.034168
 40
21.0
210
0.0
220
0.0
230
-1.0
 50
41.914727
 51
47.373533
  0
LINE
  5
174
  8
TEAM-NET
 10
-5.760957
 20
-168.506501
 30
728.034168
 11
-16.343706
 21
-179.221535
 31
728.034168
210
0.0
220
0.0
230
-1.0
  0
LINE
  5
175
  8
TEAM-NET
 10
-4.398736
 20
-160.131278
 30
728.034168
 11
-15.11377
 21
-149.548529
 31
728.034168
210
0.0
220
0.0
230
-1.0
  0
ARC
  5
176
  8
TEAM-NET
 10
0.892236
 20
-165.0
 30
-728.034168
 40
21.0
210
0.0
220
0.0
230
-1.0
 50
311.914727
 51
317.373533
  0
ARC
  5
177
  8
TEAM-NET
 10
0.892236
 20
-165.0
 30
-728.034168
 40
6.0
210
0.0
220
0.0
230
-1.0
 50
54.238198
 51
125.050062
  0
LINE
  5
178
  8
TEAM-NET
 10
-14.920736
 20
-180.626937
 30
728.034168
 11
-4.337987
 21
-169.911903
 31
728.034168
210
0.0
220
0.0
230
-1.0
  0
LINE
  5
179
  8
TEAM-NET
 10
13.136265
 20
-149.373063
 30
728.034168
 11
2.553516
 21
-160.088097
 31
728.034168
210
0.0
220
0.0
230
-1.0
  0
ARC
  5
17A
  8
TEAM-NET
 10
0.892236
 20
-165.0
 30
-728.034168
 40
6.0
210
0.0
220
0.0
230
-1.0
 50
234.238198
 51
305.050062
  0
ARC
  5
17B
  8
TEAM-NET
 10
0.892236
 20
-165.0
 30
-728.034168
 40
21.0
210
0.0
220
0.0
230
-1.0
 50
131.914727
 51
137.373533
  0
LINE
  5
17C
  8
TEAM-NET
 10
2.614265
 20
-169.868722
 30
728.034168
 11
13.329299
 21
-180.451471
 31
728.034168
210
0.0
220
0.0
230
-1.0
  0
LINE
  5
17D
  8
TEAM-NET
 10
3.976486
 20
-161.493499
 30
728.034168
 11
14.559235
 21
-150.778465
 31
728.034168
210
0.0
220
0.0
230
-1.0
  0
ARC
  5
17E
  8
TEAM-NET
 10
0.892236
 20
-165.0
 30
-728.034168
 40
21.0
210
0.0
220
0.0
230
-1.0
 50
221.914727
 51
227.373533
  0
ARC
  5
17F
  8
TEAM-NET
 10
0.892236
 20
-165.0
 30
-728.034168
 40
6.0
210
0.0
220
0.0
230
-1.0
 50
144.238198
 51
215.050062
  0
LINE
  5
180
  8
TEAM-NET
 10
14.734702
 20
-179.028501
 30
728.034168
 11
4.019668
 21
-168.445752
 31
728.034168
210
0.0
220
0.0
230
-1.0
  0
ARC
  5
181
  8
TEAM-NET
 10
0.892236
 20
-165.0
 30
-728.034168
 40
30.0
210
0.0
220
0.0
230
-1.0
 50
0.0
 51
180.0
  0
ARC
  5
182
  8
TEAM-NET
 10
0.892236
 20
-165.0
 30
-728.034168
 40
30.0
210
0.0
220
0.0
230
-1.0
 50
180.0
 51
0.0
  0
ARC
  5
183
  8
TEAM-NET
 10
-0.892236
 20
-165.0
 30
728.856088
 40
30.0
 50
270.0
 51
0.0
  0
LINE
  5
184
  8
TEAM-NET
 10
29.107764
 20
-165.0
 30
728.856088
 11
29.107764
 21
-165.0
 31
728.034168
  0
ARC
  5
185
  8
TEAM-NET
 10
-0.892236
 20
-165.0
 30
728.856088
 40
30.0
 50
180.0
 51
270.0
  0
ARC
  5
186
  8
TEAM-NET
 10
-0.892236
 20
-165.0
 30
728.034168
 40
30.0
 50
180.0
 51
0.0
  0
LINE
  5
187
  8
TEAM-NET
 10
-30.892236
 20
-165.0
 30
728.856088
 11
-30.892236
 21
-165.0
 31
728.034168
  0
ARC
  5
188
  8
TEAM-NET
 10
-0.892236
 20
-165.0
 30
728.856088
 40
30.0
 50
360.0
 51
90.0
  0
ARC
  5
189
  8
TEAM-NET
 10
164.353571
 20
641.884872
 30
0.892236
 40
91.7912
210
-1.0
220
0.0
230
0.0
 50
89.596498
 51
108.650003
  0
ARC
  5
18A
  8
TEAM-NET
 10
-0.892236
 20
-165.0
 30
728.856088
 40
30.0
 50
270.0
 51
0.0
  0
ARC
  5
18B
  8
TEAM-NET
 10
-165.646429
 20
641.884872
 30
-0.892236
 40
91.7912
210
1.0
220
0.0
230
0.0
 50
89.596498
 51
108.650003
  0
ARC
  5
18C
  8
TEAM-NET
 10
-0.892236
 20
-165.0
 30
724.717826
 40
31.895533
 50
360.0
 51
180.0
  0
ARC
  5
18D
  8
TEAM-NET
 10
-0.892236
 20
-165.0
 30
724.717826
 40
31.895533
 50
180.0
 51
0.0
  0
ARC
  5
18E
  8
TEAM-NET
 10
-0.892236
 20
-165.0
 30
724.717826
 40
32.697766
 50
360.0
 51
180.0
  0
ARC
  5
18F
  8
TEAM-NET
 10
-0.892236
 20
-165.0
 30
724.717826
 40
32.697766
 50
180.0
 51
0.0
  0
ARC
  5
190
  8
TEAM-NET
 10
-0.892236
 20
-165.0
 30
728.034168
 40
21.0
 50
132.626467
 51
138.085273
  0
ARC
  5
191
  8
TEAM-NET
 10
-0.892236
 20
-165.0
 30
728.034168
 40
21.0
 50
42.626467
 51
48.085273
  0
ARC
  5
192
  8
TEAM-NET
 10
-0.892236
 20
-165.0
 30
728.034168
 40
21.0
 50
312.626467
 51
318.085273
  0
ARC
  5
193
  8
TEAM-NET
 10
-0.892236
 20
-165.0
 30
728.034168
 40
21.0
 50
222.626467
 51
228.085273
  0
LINE
  5
194
  8
TEAM-NET
 10
46.149281
 20
-125.0
 30
731.046234
 11
-47.933752
 21
-125.0
 31
731.046234
  0
LINE
  5
195
  8
TEAM-NET
 10
-47.831339
 20
-239.972477
 30
725.066082
 11
46.046868
 21
-239.972477
 31
725.066082
  0
ARC
  5
196
  8
TEAM-NET
 10
-0.892236
 20
-165.0
 30
724.717826
 40
31.895533
 50
180.0
 51
0.0
  0
ARC
  5
197
  8
TEAM-NET
 10
-0.892236
 20
-165.0
 30
724.717826
 40
32.697766
 50
360.0
 51
180.0
  0
ARC
  5
198
  8
TEAM-NET
 10
-0.892236
 20
-165.0
 30
724.717826
 40
32.697766
 50
180.0
 51
0.0
  0
ARC
  5
199
  8
TEAM-NET
 10
-0.892236
 20
-165.0
 30
724.717826
 40
31.895533
 50
360.0
 51
180.0
  0
LINE
  5
19A
  8
TEAM-NET
 10
-47.831339
 20
-239.972477
 30
725.066082
 11
46.046868
 21
-239.972477
 31
725.066082
  0
LINE
  5
19B
  8
TEAM-NET
 10
46.149281
 20
-125.0
 30
731.046234
 11
-47.933752
 21
-125.0
 31
731.046234
210
0.0
220
-1.0
230
0.0
  0
LINE
  5
19C
  8
TEAM-NET
 10
-4.398736
 20
-160.131278
 30
728.034168
 11
-15.11377
 21
-149.548529
 31
728.034168
210
0.702701
220
0.711485
230
0.0
  0
LINE
  5
19D
  8
TEAM-NET
 10
3.976486
 20
-161.493499
 30
728.034168
 11
14.559235
 21
-150.778465
 31
728.034168
210
0.711485
220
-0.702701
230
0.0
  0
LINE
  5
19E
  8
TEAM-NET
 10
2.614265
 20
-169.868722
 30
728.034168
 11
13.329299
 21
-180.451471
 31
728.034168
210
-0.702701
220
-0.711485
230
0.0
  0
LINE
  5
19F
  8
TEAM-NET
 10
-5.760957
 20
-168.506501
 30
728.034168
 11
-16.343706
 21
-179.221535
 31
728.034168
210
-0.711485
220
0.702701
230
0.0
  0
LINE
  5
1A0
  8
TEAM-NET
 10
14.734702
 20
-179.028501
 30
728.034168
 11
4.019668
 21
-168.445752
 31
728.034168
210
0.702701
220
0.711485
230
0.0
  0
ARC
  5
1A1
  8
TEAM-NET
 10
-0.892236
 20
-165.0
 30
728.034168
 40
6.0
 50
234.949938
 51
305.761802
  0
LINE
  5
1A2
  8
TEAM-NET
 10
13.136265
 20
-149.373063
 30
728.034168
 11
2.553516
 21
-160.088097
 31
728.034168
210
-0.711485
220
0.702701
230
0.0
  0
ARC
  5
1A3
  8
TEAM-NET
 10
-0.892236
 20
-165.0
 30
728.034168
 40
6.0
 50
324.949938
 51
35.761802
  0
LINE
  5
1A4
  8
TEAM-NET
 10
-16.519173
 20
-150.971499
 30
728.034168
 11
-5.804139
 21
-161.554248
 31
728.034168
210
-0.702701
220
-0.711485
230
0.0
  0
ARC
  5
1A5
  8
TEAM-NET
 10
-0.892236
 20
-165.0
 30
728.034168
 40
6.0
 50
144.949938
 51
215.761802
  0
ARC
  5
1A6
  8
TEAM-NET
 10
-0.892236
 20
-165.0
 30
728.034168
 40
6.0
 50
54.949938
 51
125.761802
  0
LINE
  5
1A7
  8
TEAM-NET
 10
-14.920736
 20
-180.626937
 30
728.034168
 11
-4.337987
 21
-169.911903
 31
728.034168
210
0.711485
220
-0.702701
230
0.0
  0
LINE
  5
1A8
  8
TEAM-NET
 10
-93.392236
 20
0.0
 30
794.711059
 11
-93.392236
 21
-35.0
 31
794.711059
  0
LINE
  5
1A9
  8
TEAM-NET
 10
-108.392236
 20
0.0
 30
794.711059
 11
-108.392236
 21
-35.0
 31
794.711059
  0
LINE
  5
1AA
  8
TEAM-NET
 10
106.607651
 20
0.0
 30
794.752276
 11
106.607651
 21
-35.0
 31
794.752276
  0
LINE
  5
1AB
  8
TEAM-NET
 10
91.607878
 20
0.0
 30
794.669842
 11
91.607878
 21
-35.0
 31
794.669842
  0
LINE
  5
1AC
  8
TEAM-NET
 10
106.607651
 20
0.0
 30
794.752276
 11
106.607651
 21
-35.0
 31
794.752276
  0
LINE
  5
1AD
  8
TEAM-NET
 10
91.607878
 20
0.0
 30
794.669842
 11
91.607878
 21
-35.0
 31
794.669842
  0
LINE
  5
1AE
  8
TEAM-NET
 10
-93.392236
 20
0.0
 30
794.711059
 11
-93.392236
 21
-35.0
 31
794.711059
  0
LINE
  5
1AF
  8
TEAM-NET
 10
-108.392236
 20
0.0
 30
794.711059
 11
-108.392236
 21
-35.0
 31
794.711059
  0
LINE
  5
1B0
  8
TEAM-NET
 10
-0.182743
 20
-129.005325
 30
981.038041
 11
-0.182743
 21
-122.17698
 31
942.312568
  0
ARC
  5
77E
  8
TEAM-NET
 10
-0.182743
 20
65.310024
 30
949.212533
 40
22.0
210
0.0
220
-0.173648
230
0.984808
 50
270.0
 51
90.0
1001
ACAD
1000
R13OBJECT
1002
{
1005
1B0
1002
}
  0
LINE
  5
77F
  8
TEAM-NET
 10
-0.182743
 20
-85.673784
 30
988.678561
 11
-0.182743
 21
-78.845438
 31
949.953088
1001
ACAD
1000
R13OBJECT
1002
{
1005
1B0
1002
}
  0
ARC
  5
780
  8
TEAM-NET
 10
-0.182743
 20
65.310024
 30
988.535408
 40
22.0
210
-0.0
220
-0.173648
230
0.984808
 50
270.0
 51
90.0
1001
ACAD
1000
R13OBJECT
1002
{
1005
1B0
1002
}
  0
LINE
  5
781
  8
TEAM-NET
 10
21.817257
 20
-100.511209
 30
946.132828
 11
21.817257
 21
-107.339555
 31
984.858301
1001
ACAD
1000
R13OBJECT
1002
{
1005
1B0
1002
}
  0
LINE
  5
1B1
  8
TEAM-NET
 10
-0.182743
 20
-129.005325
 30
981.038041
 11
-0.182743
 21
-122.17698
 31
942.312568
  0
ARC
  5
782
  8
TEAM-NET
 10
-0.182743
 20
65.310024
 30
988.535408
 40
22.0
210
0.0
220
-0.173648
230
0.984808
 50
90.0
 51
270.0
1001
ACAD
1000
R13OBJECT
1002
{
1005
1B1
1002
}
  0
LINE
  5
783
  8
TEAM-NET
 10
-0.182743
 20
-85.673784
 30
988.678561
 11
-0.182743
 21
-78.845438
 31
949.953088
1001
ACAD
1000
R13OBJECT
1002
{
1005
1B1
1002
}
  0
ARC
  5
784
  8
TEAM-NET
 10
-0.182743
 20
65.310024
 30
949.212533
 40
22.0
210
-0.0
220
-0.173648
230
0.984808
 50
90.0
 51
270.0
1001
ACAD
1000
R13OBJECT
1002
{
1005
1B1
1002
}
  0
LINE
  5
785
  8
TEAM-NET
 10
-22.182743
 20
-100.511209
 30
946.132828
 11
-22.182743
 21
-107.339555
 31
984.858301
1001
ACAD
1000
R13OBJECT
1002
{
1005
1B1
1002
}
  0
ARC
  5
1B2
  8
TEAM-NET
 10
-217.107764
 20
872.711059
 30
-24.14111
 40
7.0
210
0.0
220
1.0
230
0.0
 50
90.0
 51
180.0
  0
ARC
  5
1B3
  8
TEAM-NET
 10
217.107764
 20
872.711059
 30
0.0
 40
7.0
210
0.0
220
-1.0
230
0.0
 50
0.0
 51
90.0
  0
ARC
  5
1B4
  8
TEAM-NET
 10
-24.14111
 20
872.711059
 30
-218.892236
 40
7.0
210
1.0
220
0.0
230
0.0
 50
90.0
 51
173.0
  0
ARC
  5
1B5
  8
TEAM-NET
 10
24.14111
 20
872.711059
 30
-217.107764
 40
7.0
210
-1.0
220
0.0
230
0.0
 50
7.0
 51
90.0
  0
ARC
  5
1B6
  8
TEAM-NET
 10
-217.107764
 20
872.711059
 30
-24.14111
 40
7.0
210
0.0
220
1.0
230
0.0
 50
90.0
 51
180.0
  0
ARC
  5
1B7
  8
TEAM-NET
 10
24.14111
 20
872.711059
 30
-217.107764
 40
7.0
210
-1.0
220
0.0
230
0.0
 50
7.0
 51
90.0
  0
ARC
  5
1B8
  8
TEAM-NET
 10
218.892236
 20
872.711059
 30
-24.14111
 40
7.0
210
0.0
220
1.0
230
0.0
 50
0.0
 51
90.0
  0
ARC
  5
1B9
  8
TEAM-NET
 10
-218.892236
 20
872.711059
 30
0.0
 40
7.0
210
0.0
220
-1.0
230
0.0
 50
90.0
 51
180.0
  0
ARC
  5
1BA
  8
TEAM-NET
 10
-24.14111
 20
872.711059
 30
-218.892236
 40
7.0
210
1.0
220
0.0
230
0.0
 50
90.0
 51
173.0
  0
ARC
  5
1BB
  8
TEAM-NET
 10
218.892236
 20
872.711059
 30
-24.14111
 40
7.0
210
0.0
220
1.0
230
0.0
 50
0.0
 51
90.0
  0
LINE
  5
1BC
  8
TEAM-NET
 10
-8.250164
 20
-182.018951
 30
868.476958
 11
-8.250164
 21
-175.449286
 31
876.016156
  0
ARC
  5
786
  8
TEAM-NET
 10
-0.25448
 20
707.525205
 30
-545.181597
 40
8.0
210
0.0
220
-0.656966
230
-0.75392
 50
358.117883
 51
178.117883
1001
ACAD
1000
R13OBJECT
1002
{
1005
1BC
1002
}
  0
LINE
  5
787
  8
TEAM-NET
 10
7.741205
 20
-181.622772
 30
868.131728
 11
7.741205
 21
-175.053107
 31
875.670926
1001
ACAD
1000
R13OBJECT
1002
{
1005
1BC
1002
}
  0
ARC
  5
788
  8
TEAM-NET
 10
0.25448
 20
707.525205
 30
535.181597
 40
8.0
210
0.0
220
0.656966
230
0.75392
 50
1.882117
 51
181.882117
1001
ACAD
1000
R13OBJECT
1002
{
1005
1BC
1002
}
  0
ARC
  5
1BD
  8
TEAM-NET
 10
-0.25448
 20
707.525205
 30
-545.181597
 40
8.0
210
0.0
220
-0.656966
230
-0.75392
 50
358.117883
 51
178.117883
  0
ARC
  5
789
  8
TEAM-NET
 10
-0.25448
 20
707.525205
 30
-545.181597
 40
8.0
210
0.0
220
-0.656966
230
-0.75392
 50
178.117883
 51
358.117883
1001
ACAD
1000
R13OBJECT
1002
{
1005
1BD
1002
}
  0
ARC
  5
78A
  8
TEAM-NET
 10
-0.25448
 20
707.525205
 30
-545.181597
 40
9.0
210
-0.0
220
-0.656966
230
-0.75392
 50
358.117883
 51
178.117883
1001
ACAD
1000
R13OBJECT
1002
{
1005
1BD
1002
}
  0
ARC
  5
78B
  8
TEAM-NET
 10
-0.25448
 20
707.525205
 30
-545.181597
 40
9.0
210
-0.0
220
-0.656966
230
-0.75392
 50
178.117883
 51
358.117883
1001
ACAD
1000
R13OBJECT
1002
{
1005
1BD
1002
}
  0
LINE
  5
1BE
  8
TEAM-NET
 10
-10.249085
 20
-176.155775
 30
875.30539
 11
-10.249085
 21
-181.411507
 31
869.274032
  0
ARC
  5
78C
  8
TEAM-NET
 10
-0.25448
 20
707.525205
 30
-536.181597
 40
10.0
210
-0.0
220
-0.656966
230
-0.75392
 50
358.117883
 51
178.117883
1001
ACAD
1000
R13OBJECT
1002
{
1005
1BE
1002
}
  0
LINE
  5
78D
  8
TEAM-NET
 10
9.740126
 20
-175.660552
 30
874.873852
 11
9.740126
 21
-180.916283
 31
868.842494
1001
ACAD
1000
R13OBJECT
1002
{
1005
1BE
1002
}
  0
ARC
  5
78E
  8
TEAM-NET
 10
0.25448
 20
707.525205
 30
544.181597
 40
10.0
210
-0.0
220
0.656966
230
0.75392
 50
1.882117
 51
181.882117
1001
ACAD
1000
R13OBJECT
1002
{
1005
1BE
1002
}
  0
LINE
  5
78F
  8
TEAM-NET
 10
0.073953
 20
-188.699026
 30
875.624384
 11
0.073953
 21
-183.443294
 31
881.655742
1001
ACAD
1000
R13OBJECT
1002
{
1005
1BE
1002
}
  0
ARC
  5
1BF
  8
TEAM-NET
 10
16.910559
 20
544.888391
 30
-707.135148
 40
1.0
210
-0.032843
220
0.753513
230
-0.656612
 50
1.639337
 51
91.639337
  0
ARC
  5
790
  8
TEAM-NET
 10
0.25448
 20
707.525205
 30
544.181597
 40
10.0
210
-0.0
220
0.656966
230
0.75392
 50
1.882117
 51
181.882117
1001
ACAD
1000
R13OBJECT
1002
{
1005
1BF
1002
}
  0
ARC
  5
791
  8
TEAM-NET
 10
1.082073
 20
544.373448
 30
707.135148
 40
1.0
210
0.032843
220
-0.753513
230
0.656612
 50
358.360663
 51
88.360663
1001
ACAD
1000
R13OBJECT
1002
{
1005
1BF
1002
}
  0
ARC
  5
792
  8
TEAM-NET
 10
-0.25448
 20
707.525205
 30
-545.181597
 40
9.0
210
-0.0
220
-0.656966
230
-0.75392
 50
358.117883
 51
178.117883
1001
ACAD
1000
R13OBJECT
1002
{
1005
1BF
1002
}
  0
ARC
  5
793
  8
TEAM-NET
 10
-182.634759
 20
880.697284
 30
-23.491761
 40
1.0
210
0.999461
220
0.024761
230
-0.021577
 50
48.946384
 51
138.946384
1001
ACAD
1000
R13OBJECT
1002
{
1005
1BF
1002
}
  0
LINE
  5
1C0
  8
TEAM-NET
 10
-3.182743
 20
-48.869117
 30
890.819094
 11
-3.182743
 21
-48.682881
 31
891.810848
  0
ARC
  5
794
  8
TEAM-NET
 10
50.138859
 20
873.457582
 30
3.182743
 40
17.407882
210
-1.0
220
0.0
230
0.0
 50
10.635407
 51
94.182905
1001
ACAD
1000
R13OBJECT
1002
{
1005
1C0
1002
}
  0
LINE
  5
795
  8
TEAM-NET
 10
-3.182743
 20
-67.247699
 30
876.670359
 11
-3.182743
 21
-73.707255
 31
842.271607
1001
ACAD
1000
R13OBJECT
1002
{
1005
1C0
1002
}
  0
LINE
  5
796
  8
TEAM-NET
 10
-3.182743
 20
-73.707255
 30
842.271607
 11
-3.182743
 21
-74.690079
 31
842.456166
1001
ACAD
1000
R13OBJECT
1002
{
1005
1C0
1002
}
  0
LINE
  5
797
  8
TEAM-NET
 10
-3.182743
 20
-68.244631
 30
876.779794
 11
-3.182743
 21
-74.690079
 31
842.456166
1001
ACAD
1000
R13OBJECT
1002
{
1005
1C0
1002
}
  0
ARC
  5
798
  8
TEAM-NET
 10
-50.065851
 20
873.366099
 30
-3.182743
 40
18.496523
210
1.0
220
-0.0
230
-0.0
 50
85.712041
 51
169.364593
1001
ACAD
1000
R13OBJECT
1002
{
1005
1C0
1002
}
  0
ARC
  5
1C1
  8
TEAM-NET
 10
-1.817257
 20
885.674573
 30
-115.226568
 40
1.0
210
-0.0
220
0.997201
230
-0.074769
 50
90.0
 51
180.0
  0
ARC
  5
799
  8
TEAM-NET
 10
-50.065851
 20
873.366099
 30
1.817257
 40
19.496523
210
1.0
220
-0.0
230
-0.0
 50
85.712041
 51
169.364593
1001
ACAD
1000
R13OBJECT
1002
{
1005
1C1
1002
}
  0
ARC
  5
79A
  8
TEAM-NET
 10
1.817257
 20
228.889656
 30
-849.122878
 40
1.0
210
0.0
220
-0.184559
230
-0.982821
 50
0.0
 51
90.0
1001
ACAD
1000
R13OBJECT
1002
{
1005
1C1
1002
}
  0
ARC
  5
79B
  8
TEAM-NET
 10
50.065851
 20
873.366099
 30
-2.817257
 40
18.496523
210
-1.0
220
0.0
230
0.0
 50
10.635407
 51
94.287959
1001
ACAD
1000
R13OBJECT
1002
{
1005
1C1
1002
}
  0
ARC
  5
79C
  8
TEAM-NET
 10
-1.817257
 20
893.240326
 30
-9.910165
 40
1.0
210
-0.0
220
0.998945
230
0.045918
 50
90.0
 51
180.0
1001
ACAD
1000
R13OBJECT
1002
{
1005
1C1
1002
}
  0
ARC
  5
79D
  8
TEAM-NET
 10
-1.817257
 20
810.645965
 30
371.179465
 40
1.0
210
0.0
220
0.879753
230
0.475431
 50
90.0
 51
180.0
1001
ACAD
1000
R13OBJECT
1002
{
1005
1C1
1002
}
  0
ARC
  5
79E
  8
TEAM-NET
 10
-1.817257
 20
570.660819
 30
678.520098
 40
1.0
210
0.0
220
0.585765
230
0.810481
 50
90.0
 51
180.0
1001
ACAD
1000
R13OBJECT
1002
{
1005
1C1
1002
}
  0
ARC
  5
79F
  8
TEAM-NET
 10
-50.065851
 20
873.366099
 30
2.524363
 40
19.20363
210
1.0
220
-0.0
230
-0.0
 50
85.712041
 51
169.364593
1001
ACAD
1000
R13OBJECT
1002
{
1005
1C1
1002
}
  0
LINE
  5
1C2
  8
TEAM-NET
 10
-2.182743
 20
-48.608112
 30
892.808049
 11
1.817257
 21
-48.608112
 31
892.808049
  0
ARC
  5
7A0
  8
TEAM-NET
 10
50.065851
 20
873.366099
 30
2.182743
 40
19.496523
210
-1.0
220
0.0
230
0.0
 50
10.635407
 51
94.287959
1001
ACAD
1000
R13OBJECT
1002
{
1005
1C2
1002
}
  0
LINE
  5
7A1
  8
TEAM-NET
 10
1.817257
 20
-69.227452
 30
876.964353
 11
-2.182743
 21
-69.227452
 31
876.964353
1001
ACAD
1000
R13OBJECT
1002
{
1005
1C2
1002
}
  0
ARC
  5
7A2
  8
TEAM-NET
 10
-50.065851
 20
873.366099
 30
1.817257
 40
19.496523
210
1.0
220
-0.0
230
-0.0
 50
85.712041
 51
169.364593
1001
ACAD
1000
R13OBJECT
1002
{
1005
1C2
1002
}
  0
ARC
  5
1C3
  8
TEAM-NET
 10
2.182743
 20
885.674573
 30
-115.226568
 40
1.0
210
0.0
220
0.997201
230
-0.074769
 50
360.0
 51
90.0
  0
ARC
  5
7A3
  8
TEAM-NET
 10
-50.065851
 20
873.366099
 30
-3.182743
 40
18.496523
210
1.0
220
-0.0
230
-0.0
 50
85.712041
 51
169.364593
1001
ACAD
1000
R13OBJECT
1002
{
1005
1C3
1002
}
  0
ARC
  5
7A4
  8
TEAM-NET
 10
-2.182743
 20
228.889656
 30
-849.122878
 40
1.0
210
-0.0
220
-0.184559
230
-0.982821
 50
90.0
 51
180.0
1001
ACAD
1000
R13OBJECT
1002
{
1005
1C3
1002
}
  0
ARC
  5
7A5
  8
TEAM-NET
 10
50.065851
 20
873.366099
 30
2.182743
 40
19.496523
210
-1.0
220
0.0
230
0.0
 50
10.635407
 51
94.287959
1001
ACAD
1000
R13OBJECT
1002
{
1005
1C3
1002
}
  0
ARC
  5
7A6
  8
TEAM-NET
 10
-2.182743
 20
570.660819
 30
-678.520098
 40
1.0
210
0.0
220
-0.585765
230
-0.810481
 50
90.0
 51
180.0
1001
ACAD
1000
R13OBJECT
1002
{
1005
1C3
1002
}
  0
ARC
  5
7A7
  8
TEAM-NET
 10
-2.182743
 20
810.645965
 30
-371.179465
 40
1.0
210
0.0
220
-0.879753
230
-0.475431
 50
90.0
 51
180.0
1001
ACAD
1000
R13OBJECT
1002
{
1005
1C3
1002
}
  0
ARC
  5
7A8
  8
TEAM-NET
 10
-2.182743
 20
893.240326
 30
9.910165
 40
1.0
210
-0.0
220
-0.998945
230
-0.045918
 50
90.0
 51
180.0
1001
ACAD
1000
R13OBJECT
1002
{
1005
1C3
1002
}
  0
ARC
  5
7A9
  8
TEAM-NET
 10
50.065851
 20
873.366099
 30
2.88985
 40
19.20363
210
-1.0
220
0.0
230
0.0
 50
10.635407
 51
94.287959
1001
ACAD
1000
R13OBJECT
1002
{
1005
1C3
1002
}
  0
LINE
  5
1C4
  8
TEAM-NET
 10
2.817257
 20
-48.682881
 30
891.810848
 11
2.817257
 21
-48.869117
 31
890.819094
  0
ARC
  5
7AA
  8
TEAM-NET
 10
50.065851
 20
873.366099
 30
-2.817257
 40
18.496523
210
-1.0
220
0.0
230
0.0
 50
10.635407
 51
94.287959
1001
ACAD
1000
R13OBJECT
1002
{
1005
1C4
1002
}
  0
LINE
  5
7AB
  8
TEAM-NET
 10
2.817257
 20
-74.690079
 30
842.456166
 11
2.817257
 21
-68.244631
 31
876.779794
1001
ACAD
1000
R13OBJECT
1002
{
1005
1C4
1002
}
  0
LINE
  5
7AC
  8
TEAM-NET
 10
2.817257
 20
-74.690079
 30
842.456166
 11
2.817257
 21
-73.707255
 31
842.271607
1001
ACAD
1000
R13OBJECT
1002
{
1005
1C4
1002
}
  0
LINE
  5
7AD
  8
TEAM-NET
 10
2.817257
 20
-67.247699
 30
876.670359
 11
2.817257
 21
-73.707255
 31
842.271607
1001
ACAD
1000
R13OBJECT
1002
{
1005
1C4
1002
}
  0
ARC
  5
7AE
  8
TEAM-NET
 10
-50.138859
 20
873.457582
 30
2.817257
 40
17.407882
210
1.0
220
-0.0
230
-0.0
 50
85.817095
 51
169.364593
1001
ACAD
1000
R13OBJECT
1002
{
1005
1C4
1002
}
  0
POLYLINE
  5
1C5
  8
TEAM-NET
 66
     1
 10
0.0
 20
0.0
 30
0.0
 70
     8
  0
VERTEX
  5
7AF
  8
TEAM-NET
 10
2.817257
 20
-48.869117
 30
890.819094
 70
    32
  0
VERTEX
  5
7B0
  8
TEAM-NET
 10
2.767044
 20
-48.92633
 30
890.377232
 70
    32
  0
VERTEX
  5
7B1
  8
TEAM-NET
 10
2.619793
 20
-48.979949
 30
889.958355
 70
    32
  0
VERTEX
  5
7B2
  8
TEAM-NET
 10
2.568357
 20
-48.992546
 30
889.859245
 70
    32
  0
VERTEX
  5
7B3
  8
TEAM-NET
 10
2.065248
 20
-49.067171
 30
889.266185
 70
    32
  0
VERTEX
  5
7B4
  8
TEAM-NET
 10
1.68465
 20
-49.096706
 30
889.028519
 70
    32
  0
VERTEX
  5
7B5
  8
TEAM-NET
 10
1.26217
 20
-49.114846
 30
888.881675
 70
    32
  0
VERTEX
  5
7B6
  8
TEAM-NET
 10
0.817257
 20
-49.120987
 30
888.831806
 70
    32
  0
SEQEND
  5
7B7
  8
TEAM-NET
  0
ARC
  5
7B8
  8
TEAM-NET
 10
-50.138859
 20
873.457582
 30
2.817257
 40
17.407882
210
1.0
220
-0.0
230
-0.0
 50
85.817095
 51
169.364593
1001
ACAD
1000
R13OBJECT
1002
{
1005
1C5
1002
}
  0
ARC
  5
7B9
  8
TEAM-NET
 10
0.817257
 20
227.889653
 30
-849.199315
 40
2.0
210
0.0
220
-0.184559
230
-0.982821
 50
270.0
 51
0.0
1001
ACAD
1000
R13OBJECT
1002
{
1005
1C5
1002
}
  0
ARC
  5
7BA
  8
TEAM-NET
 10
50.138859
 20
873.457582
 30
-0.817257
 40
15.407882
210
-1.0
220
0.0
230
0.0
 50
10.635407
 51
93.78782
1001
ACAD
1000
R13OBJECT
1002
{
1005
1C5
1002
}
  0
ARC
  5
7BB
  8
TEAM-NET
 10
-0.817257
 20
892.114412
 30
-18.180748
 40
2.0
210
0.0
220
0.999332
230
0.03655
 50
180.0
 51
270.0
1001
ACAD
1000
R13OBJECT
1002
{
1005
1C5
1002
}
  0
ARC
  5
7BC
  8
TEAM-NET
 10
-0.817257
 20
810.555211
 30
369.268692
 40
2.0
210
-0.0
220
0.880884
230
0.473332
 50
180.0
 51
270.0
1001
ACAD
1000
R13OBJECT
1002
{
1005
1C5
1002
}
  0
ARC
  5
7BD
  8
TEAM-NET
 10
-0.817257
 20
566.552765
 30
681.088797
 40
2.0
210
-0.0
220
0.582024
230
0.813172
 50
180.0
 51
270.0
1001
ACAD
1000
R13OBJECT
1002
{
1005
1C5
1002
}
  0
ARC
  5
7BE
  8
TEAM-NET
 10
-50.138859
 20
873.457582
 30
2.23147
 40
15.993668
210
1.0
220
-0.0
230
-0.0
 50
65.938433
 51
169.364593
1001
ACAD
1000
R13OBJECT
1002
{
1005
1C5
1002
}
  0
LINE
  5
1C6
  8
TEAM-NET
 10
0.817257
 20
-49.120987
 30
888.831806
 11
-1.182743
 21
-49.120987
 31
888.831806
  0
ARC
  5
7BF
  8
TEAM-NET
 10
50.138859
 20
873.457582
 30
-0.817257
 40
15.407882
210
-1.0
220
0.0
230
0.0
 50
10.635407
 51
93.78782
1001
ACAD
1000
R13OBJECT
1002
{
1005
1C6
1002
}
  0
LINE
  5
7C0
  8
TEAM-NET
 10
-1.182743
 20
-65.282056
 30
876.301241
 11
0.817257
 21
-65.282056
 31
876.301241
1001
ACAD
1000
R13OBJECT
1002
{
1005
1C6
1002
}
  0
ARC
  5
7C1
  8
TEAM-NET
 10
-50.138859
 20
873.457582
 30
-1.182743
 40
15.407882
210
1.0
220
-0.0
230
-0.0
 50
86.21218
 51
169.364593
1001
ACAD
1000
R13OBJECT
1002
{
1005
1C6
1002
}
  0
POLYLINE
  5
1C7
  8
TEAM-NET
 66
     1
 10
0.0
 20
0.0
 30
0.0
 70
     8
  0
VERTEX
  5
7C2
  8
TEAM-NET
 10
-1.182743
 20
-49.120987
 30
888.831806
 70
    32
  0
VERTEX
  5
7C3
  8
TEAM-NET
 10
-1.627797
 20
-49.114823
 30
888.881858
 70
    32
  0
VERTEX
  5
7C4
  8
TEAM-NET
 10
-2.050229
 20
-49.096684
 30
889.028692
 70
    32
  0
VERTEX
  5
7C5
  8
TEAM-NET
 10
-2.431104
 20
-49.067093
 30
889.266797
 70
    32
  0
VERTEX
  5
7C6
  8
TEAM-NET
 10
-2.675054
 20
-49.038361
 30
889.496359
 70
    32
  0
VERTEX
  5
7C7
  8
TEAM-NET
 10
-2.747387
 20
-49.027649
 30
889.581553
 70
    32
  0
VERTEX
  5
7C8
  8
TEAM-NET
 10
-2.985685
 20
-48.979856
 30
889.959092
 70
    32
  0
VERTEX
  5
7C9
  8
TEAM-NET
 10
-3.132652
 20
-48.926295
 30
890.377511
 70
    32
  0
VERTEX
  5
7CA
  8
TEAM-NET
 10
-3.170285
 20
-48.897882
 30
890.597574
 70
    32
  0
VERTEX
  5
7CB
  8
TEAM-NET
 10
-3.182743
 20
-48.869117
 30
890.819094
 70
    32
  0
SEQEND
  5
7CC
  8
TEAM-NET
  0
ARC
  5
7CD
  8
TEAM-NET
 10
-50.138859
 20
873.457582
 30
-1.182743
 40
15.407882
210
1.0
220
-0.0
230
-0.0
 50
86.21218
 51
169.364593
1001
ACAD
1000
R13OBJECT
1002
{
1005
1C7
1002
}
  0
ARC
  5
7CE
  8
TEAM-NET
 10
-1.182743
 20
227.889653
 30
-849.199315
 40
2.0
210
-0.0
220
-0.184559
230
-0.982821
 50
180.0
 51
270.0
1001
ACAD
1000
R13OBJECT
1002
{
1005
1C7
1002
}
  0
ARC
  5
7CF
  8
TEAM-NET
 10
50.138859
 20
873.457582
 30
3.182743
 40
17.407882
210
-1.0
220
0.0
230
0.0
 50
10.635407
 51
94.182905
1001
ACAD
1000
R13OBJECT
1002
{
1005
1C7
1002
}
  0
ARC
  5
7D0
  8
TEAM-NET
 10
1.182743
 20
892.114412
 30
-18.180748
 40
2.0
210
-0.0
220
0.999332
230
0.03655
 50
270.0
 51
360.0
1001
ACAD
1000
R13OBJECT
1002
{
1005
1C7
1002
}
  0
ARC
  5
7D1
  8
TEAM-NET
 10
1.182743
 20
810.555211
 30
369.268692
 40
2.0
210
0.0
220
0.880884
230
0.473332
 50
270.0
 51
0.0
1001
ACAD
1000
R13OBJECT
1002
{
1005
1C7
1002
}
  0
ARC
  5
7D2
  8
TEAM-NET
 10
1.182743
 20
566.552765
 30
681.088797
 40
2.0
210
0.0
220
0.582024
230
0.813172
 50
270.0
 51
0.0
1001
ACAD
1000
R13OBJECT
1002
{
1005
1C7
1002
}
  0
ARC
  5
7D3
  8
TEAM-NET
 10
-50.138859
 20
873.457582
 30
-2.596957
 40
15.993668
210
1.0
220
-0.0
230
-0.0
 50
65.938433
 51
169.364593
1001
ACAD
1000
R13OBJECT
1002
{
1005
1C7
1002
}
  0
LINE
  5
1C8
  8
TEAM-NET
 10
-4.866553
 20
-104.252295
 30
932.363577
 11
-4.866553
 21
-178.566427
 31
872.333064
  0
POLYLINE
  5
7D4
  8
TEAM-NET
 66
     1
 10
0.0
 20
0.0
 30
540.356985
 70
   128
210
-0.0
220
0.656966
230
0.75392
1001
ACAD
1000
R13OBJECT
1002
{
1005
9813CE03000001C8
1002
}
  0
VERTEX
  5
EED
  8
TEAM-NET
 10
-4.501067
 20
707.718357
 30
540.356985
  0
VERTEX
  5
EEE
  8
TEAM-NET
 10
-4.311339
 20
706.378419
 30
540.356985
  0
VERTEX
  5
EEF
  8
TEAM-NET
 10
-3.757528
 20
705.147034
 30
540.356985
  0
VERTEX
  5
EF0
  8
TEAM-NET
 10
-2.8845
 20
704.123963
 30
540.356985
  0
VERTEX
  5
EF1
  8
TEAM-NET
 10
-1.762982
 20
703.392088
 30
540.356985
  0
VERTEX
  5
EF2
  8
TEAM-NET
 10
-0.483832
 20
703.010702
 30
540.356985
  0
VERTEX
  5
EF3
  8
TEAM-NET
 10
0.849319
 20
703.010702
 30
540.356985
  0
VERTEX
  5
EF4
  8
TEAM-NET
 10
2.128468
 20
703.392088
 30
540.356985
  0
VERTEX
  5
EF5
  8
TEAM-NET
 10
3.249987
 20
704.123963
 30
540.356985
  0
VERTEX
  5
EF6
  8
TEAM-NET
 10
4.123015
 20
705.147034
 30
540.356985
  0
VERTEX
  5
EF7
  8
TEAM-NET
 10
4.676826
 20
706.378419
 30
540.356985
  0
VERTEX
  5
EF8
  8
TEAM-NET
 10
4.866553
 20
707.718357
 30
540.356985
  0
SEQEND
  5
EF9
  8
TEAM-NET
  0
LINE
  5
7E2
  8
TEAM-NET
 10
4.501067
 20
-104.252295
 30
932.363577
 11
4.501067
 21
-178.566427
 31
872.333064
1001
ACAD
1000
R13OBJECT
1002
{
1005
1C8
1002
}
  0
ARC
  5
7E3
  8
TEAM-NET
 10
0.182743
 20
790.798531
 30
504.785167
 40
4.68381
210
0.0
220
0.777902
230
0.628385
 50
180.0
 51
360.0
1001
ACAD
1000
R13OBJECT
1002
{
1005
1C8
1002
}
  0
LINE
  5
1C9
  8
TEAM-NET
 10
13.817257
 20
-176.986621
 30
873.609222
 11
13.817257
 21
-102.69649
 31
933.620347
  0
ARC
  5
7E4
  8
TEAM-NET
 10
0.182743
 20
790.798531
 30
506.785167
 40
14.0
210
0.0
220
0.777902
230
0.628385
 50
360.0
 51
180.0
1001
ACAD
1000
R13OBJECT
1002
{
1005
1C9
1002
}
  0
LINE
  5
7E5
  8
TEAM-NET
 10
-14.182743
 20
-176.986621
 30
873.609222
 11
-14.182743
 21
-102.69649
 31
933.620347
1001
ACAD
1000
R13OBJECT
1002
{
1005
1C9
1002
}
  0
POLYLINE
  5
7E6
  8
TEAM-NET
 66
     1
 10
0.0
 20
0.0
 30
0.0
 70
     8
1001
ACAD
1000
R13OBJECT
1002
{
1005
1C9
1002
}
  0
VERTEX
  5
7E7
  8
TEAM-NET
 10
-0.182743
 20
-187.429993
 30
883.170242
 70
    32
  0
VERTEX
  5
7E8
  8
TEAM-NET
 10
-1.338854
 20
-187.394324
 30
883.137587
 70
    32
  0
VERTEX
  5
7E9
  8
TEAM-NET
 10
-2.487068
 20
-187.287559
 30
883.039842
 70
    32
  0
VERTEX
  5
7EA
  8
TEAM-NET
 10
-3.61954
 20
-187.110429
 30
882.877678
 70
    32
  0
VERTEX
  5
7EB
  8
TEAM-NET
 10
-4.728536
 20
-186.864143
 30
882.6522
 70
    32
  0
VERTEX
  5
7EC
  8
TEAM-NET
 10
-5.806479
 20
-186.550383
 30
882.364949
 70
    32
  0
VERTEX
  5
7ED
  8
TEAM-NET
 10
-6.846007
 20
-186.171293
 30
882.017888
 70
    32
  0
VERTEX
  5
7EE
  8
TEAM-NET
 10
-7.840018
 20
-185.729462
 30
881.613388
 70
    32
  0
VERTEX
  5
7EF
  8
TEAM-NET
 10
-8.781721
 20
-185.227909
 30
881.154211
 70
    32
  0
VERTEX
  5
7F0
  8
TEAM-NET
 10
-9.664685
 20
-184.67006
 30
880.643493
 70
    32
  0
VERTEX
  5
7F1
  8
TEAM-NET
 10
-10.482878
 20
-184.059725
 30
880.084725
 70
    32
  0
VERTEX
  5
7F2
  8
TEAM-NET
 10
-11.230711
 20
-183.401073
 30
879.481722
 70
    32
  0
VERTEX
  5
7F3
  8
TEAM-NET
 10
-11.903074
 20
-182.698604
 30
878.838605
 70
    32
  0
VERTEX
  5
7F4
  8
TEAM-NET
 10
-12.495376
 20
-181.957117
 30
878.159765
 70
    32
  0
VERTEX
  5
7F5
  8
TEAM-NET
 10
-13.00357
 20
-181.181676
 30
877.44984
 70
    32
  0
VERTEX
  5
7F6
  8
TEAM-NET
 10
-13.424185
 20
-180.377579
 30
876.71368
 70
    32
  0
VERTEX
  5
7F7
  8
TEAM-NET
 10
-13.754347
 20
-179.550317
 30
875.956314
 70
    32
  0
VERTEX
  5
7F8
  8
TEAM-NET
 10
-13.991802
 20
-178.705544
 30
875.182914
 70
    32
  0
VERTEX
  5
7F9
  8
TEAM-NET
 10
-14.134926
 20
-177.849028
 30
874.398765
 70
    32
  0
VERTEX
  5
7FA
  8
TEAM-NET
 10
-14.182743
 20
-176.986621
 30
873.609222
 70
    32
  0
SEQEND
  5
7FB
  8
TEAM-NET
  0
POLYLINE
  5
7FC
  8
TEAM-NET
 66
     1
 10
0.0
 20
0.0
 30
0.0
 70
     8
1001
ACAD
1000
R13OBJECT
1002
{
1005
1C9
1002
}
  0
VERTEX
  5
7FD
  8
TEAM-NET
 10
13.817257
 20
-176.986621
 30
873.609222
 70
    32
  0
VERTEX
  5
7FE
  8
TEAM-NET
 10
13.769439
 20
-177.849028
 30
874.398765
 70
    32
  0
VERTEX
  5
7FF
  8
TEAM-NET
 10
13.626315
 20
-178.705544
 30
875.182914
 70
    32
  0
VERTEX
  5
800
  8
TEAM-NET
 10
13.38886
 20
-179.550317
 30
875.956314
 70
    32
  0
VERTEX
  5
801
  8
TEAM-NET
 10
13.058698
 20
-180.377579
 30
876.71368
 70
    32
  0
VERTEX
  5
802
  8
TEAM-NET
 10
12.638083
 20
-181.181676
 30
877.44984
 70
    32
  0
VERTEX
  5
803
  8
TEAM-NET
 10
12.129889
 20
-181.957117
 30
878.159765
 70
    32
  0
VERTEX
  5
804
  8
TEAM-NET
 10
11.537587
 20
-182.698604
 30
878.838605
 70
    32
  0
VERTEX
  5
805
  8
TEAM-NET
 10
10.865224
 20
-183.401073
 30
879.481722
 70
    32
  0
VERTEX
  5
806
  8
TEAM-NET
 10
10.117391
 20
-184.059725
 30
880.084725
 70
    32
  0
VERTEX
  5
807
  8
TEAM-NET
 10
9.299199
 20
-184.67006
 30
880.643493
 70
    32
  0
VERTEX
  5
808
  8
TEAM-NET
 10
8.416235
 20
-185.227909
 30
881.154211
 70
    32
  0
VERTEX
  5
809
  8
TEAM-NET
 10
7.474531
 20
-185.729462
 30
881.613388
 70
    32
  0
VERTEX
  5
80A
  8
TEAM-NET
 10
6.48052
 20
-186.171293
 30
882.017888
 70
    32
  0
VERTEX
  5
80B
  8
TEAM-NET
 10
5.440993
 20
-186.550383
 30
882.364949
 70
    32
  0
VERTEX
  5
80C
  8
TEAM-NET
 10
4.363049
 20
-186.864143
 30
882.6522
 70
    32
  0
VERTEX
  5
80D
  8
TEAM-NET
 10
3.254053
 20
-187.110429
 30
882.877678
 70
    32
  0
VERTEX
  5
80E
  8
TEAM-NET
 10
2.121581
 20
-187.287559
 30
883.039842
 70
    32
  0
VERTEX
  5
80F
  8
TEAM-NET
 10
0.973367
 20
-187.394324
 30
883.137587
 70
    32
  0
VERTEX
  5
810
  8
TEAM-NET
 10
-0.182743
 20
-187.429993
 30
883.170242
 70
    32
  0
SEQEND
  5
811
  8
TEAM-NET
  0
LINE
  5
812
  8
TEAM-NET
 10
-0.182743
 20
-111.49388
 30
944.510982
 11
-0.182743
 21
-187.429993
 31
883.170242
1001
ACAD
1000
R13OBJECT
1002
{
1005
1C9
1002
}
  0
POLYLINE
  5
1CA
  8
TEAM-NET
 66
     1
 10
0.0
 20
0.0
 30
0.0
 70
     8
  0
VERTEX
  5
813
  8
TEAM-NET
 10
-0.182743
 20
-182.152119
 30
875.45764
 70
    32
  0
VERTEX
  5
814
  8
TEAM-NET
 10
0.428616
 20
-182.121442
 30
875.430909
 70
    32
  0
VERTEX
  5
815
  8
TEAM-NET
 10
1.029516
 20
-182.029939
 30
875.351173
 70
    32
  0
VERTEX
  5
816
  8
TEAM-NET
 10
1.609673
 20
-181.879174
 30
875.219796
 70
    32
  0
VERTEX
  5
817
  8
TEAM-NET
 10
2.159162
 20
-181.671727
 30
875.039026
 70
    32
  0
VERTEX
  5
818
  8
TEAM-NET
 10
2.668579
 20
-181.411147
 30
874.811957
 70
    32
  0
VERTEX
  5
819
  8
TEAM-NET
 10
3.12921
 20
-181.101894
 30
874.542473
 70
    32
  0
VERTEX
  5
81A
  8
TEAM-NET
 10
3.533173
 20
-180.749258
 30
874.235186
 70
    32
  0
VERTEX
  5
81B
  8
TEAM-NET
 10
3.873555
 20
-180.359273
 30
873.895352
 70
    32
  0
VERTEX
  5
81C
  8
TEAM-NET
 10
4.144533
 20
-179.938612
 30
873.528788
 70
    32
  0
VERTEX
  5
81D
  8
TEAM-NET
 10
4.34147
 20
-179.494472
 30
873.141764
 70
    32
  0
VERTEX
  5
81E
  8
TEAM-NET
 10
4.460996
 20
-179.034454
 30
872.740903
 70
    32
  0
VERTEX
  5
81F
  8
TEAM-NET
 10
4.501067
 20
-178.566427
 30
872.333064
 70
    32
  0
SEQEND
  5
820
  8
TEAM-NET
  0
POLYLINE
  5
821
  8
TEAM-NET
 66
     1
 10
0.0
 20
0.0
 30
540.356985
 70
   128
210
-0.0
220
0.656966
230
0.75392
1001
ACAD
1000
R13OBJECT
1002
{
1005
DC0ACE03000001CA
1002
}
  0
VERTEX
  5
EFA
  8
TEAM-NET
 10
-4.501067
 20
707.718357
 30
540.356985
  0
VERTEX
  5
EFB
  8
TEAM-NET
 10
-4.311339
 20
706.378419
 30
540.356985
  0
VERTEX
  5
EFC
  8
TEAM-NET
 10
-3.757528
 20
705.147034
 30
540.356985
  0
VERTEX
  5
EFD
  8
TEAM-NET
 10
-2.8845
 20
704.123963
 30
540.356985
  0
VERTEX
  5
EFE
  8
TEAM-NET
 10
-1.762982
 20
703.392088
 30
540.356985
  0
VERTEX
  5
EFF
  8
TEAM-NET
 10
-0.483832
 20
703.010702
 30
540.356985
  0
VERTEX
  5
F00
  8
TEAM-NET
 10
0.849319
 20
703.010702
 30
540.356985
  0
VERTEX
  5
F01
  8
TEAM-NET
 10
2.128468
 20
703.392088
 30
540.356985
  0
VERTEX
  5
F02
  8
TEAM-NET
 10
3.249987
 20
704.123963
 30
540.356985
  0
VERTEX
  5
F03
  8
TEAM-NET
 10
4.123015
 20
705.147034
 30
540.356985
  0
VERTEX
  5
F04
  8
TEAM-NET
 10
4.676826
 20
706.378419
 30
540.356985
  0
VERTEX
  5
F05
  8
TEAM-NET
 10
4.866553
 20
707.718357
 30
540.356985
  0
SEQEND
  5
F06
  8
TEAM-NET
  0
POLYLINE
  5
82F
  8
TEAM-NET
 66
     1
 10
0.0
 20
0.0
 30
0.0
 70
     8
1001
ACAD
1000
R13OBJECT
1002
{
1005
1CA
1002
}
  0
VERTEX
  5
830
  8
TEAM-NET
 10
-4.866553
 20
-178.566427
 30
872.333064
 70
    32
  0
VERTEX
  5
831
  8
TEAM-NET
 10
-4.826483
 20
-179.034454
 30
872.740903
 70
    32
  0
VERTEX
  5
832
  8
TEAM-NET
 10
-4.706956
 20
-179.494472
 30
873.141764
 70
    32
  0
VERTEX
  5
833
  8
TEAM-NET
 10
-4.51002
 20
-179.938612
 30
873.528788
 70
    32
  0
VERTEX
  5
834
  8
TEAM-NET
 10
-4.239042
 20
-180.359273
 30
873.895352
 70
    32
  0
VERTEX
  5
835
  8
TEAM-NET
 10
-3.89866
 20
-180.749258
 30
874.235186
 70
    32
  0
VERTEX
  5
836
  8
TEAM-NET
 10
-3.494697
 20
-181.101894
 30
874.542473
 70
    32
  0
VERTEX
  5
837
  8
TEAM-NET
 10
-3.034066
 20
-181.411147
 30
874.811957
 70
    32
  0
VERTEX
  5
838
  8
TEAM-NET
 10
-2.524648
 20
-181.671727
 30
875.039026
 70
    32
  0
VERTEX
  5
839
  8
TEAM-NET
 10
-1.97516
 20
-181.879174
 30
875.219796
 70
    32
  0
VERTEX
  5
83A
  8
TEAM-NET
 10
-1.395003
 20
-182.029939
 30
875.351173
 70
    32
  0
VERTEX
  5
83B
  8
TEAM-NET
 10
-0.794103
 20
-182.121442
 30
875.430909
 70
    32
  0
VERTEX
  5
83C
  8
TEAM-NET
 10
-0.182743
 20
-182.152119
 30
875.45764
 70
    32
  0
SEQEND
  5
83D
  8
TEAM-NET
  0
POLYLINE
  5
83E
  8
TEAM-NET
 66
     1
 10
0.0
 20
0.0
 30
540.356985
 70
   129
210
0.0
220
0.656966
230
0.75392
1001
ACAD
1000
R13OBJECT
1002
{
1005
82CCE03000001CA
1002
}
  0
VERTEX
  5
F07
  8
TEAM-NET
 10
0.182743
 20
719.550823
 30
540.356985
  0
VERTEX
  5
F08
  8
TEAM-NET
 10
-3.921498
 20
718.81597
 30
540.356985
  0
VERTEX
  5
F09
  8
TEAM-NET
 10
-7.530708
 20
716.700046
 30
540.356985
  0
VERTEX
  5
F0A
  8
TEAM-NET
 10
-10.209561
 20
713.458263
 30
540.356985
  0
VERTEX
  5
F0B
  8
TEAM-NET
 10
-11.63495
 20
709.481627
 30
540.356985
  0
VERTEX
  5
F0C
  8
TEAM-NET
 10
-11.63495
 20
705.24978
 30
540.356985
  0
VERTEX
  5
F0D
  8
TEAM-NET
 10
-10.209561
 20
701.273144
 30
540.356985
  0
VERTEX
  5
F0E
  8
TEAM-NET
 10
-7.530708
 20
698.03136
 30
540.356985
  0
VERTEX
  5
F0F
  8
TEAM-NET
 10
-3.921498
 20
695.915437
 30
540.356985
  0
VERTEX
  5
F10
  8
TEAM-NET
 10
0.182743
 20
695.180584
 30
540.356985
  0
VERTEX
  5
F11
  8
TEAM-NET
 10
4.286985
 20
695.915437
 30
540.356985
  0
VERTEX
  5
F12
  8
TEAM-NET
 10
7.896195
 20
698.03136
 30
540.356985
  0
VERTEX
  5
F13
  8
TEAM-NET
 10
10.575048
 20
701.273144
 30
540.356985
  0
VERTEX
  5
F14
  8
TEAM-NET
 10
12.000436
 20
705.24978
 30
540.356985
  0
VERTEX
  5
F15
  8
TEAM-NET
 10
12.000436
 20
709.481627
 30
540.356985
  0
VERTEX
  5
F16
  8
TEAM-NET
 10
10.575048
 20
713.458263
 30
540.356985
  0
VERTEX
  5
F17
  8
TEAM-NET
 10
7.896195
 20
716.700046
 30
540.356985
  0
VERTEX
  5
F18
  8
TEAM-NET
 10
4.286985
 20
718.81597
 30
540.356985
  0
SEQEND
  5
F19
  8
TEAM-NET
  0
ARC
  5
1CB
  8
TEAM-NET
 10
-186.173223
 20
881.614437
 30
-0.182743
 40
2.0
210
1.0
220
-0.0
230
-0.0
 50
128.931071
 51
228.931071
  0
POLYLINE
  5
852
  8
TEAM-NET
 66
     1
 10
0.0
 20
0.0
 30
540.356985
 70
   129
210
0.0
220
0.656966
230
0.75392
1001
ACAD
1000
R13OBJECT
1002
{
1005
F428CE03000001CB
1002
}
  0
VERTEX
  5
F1A
  8
TEAM-NET
 10
0.182743
 20
719.550823
 30
540.356985
  0
VERTEX
  5
F1B
  8
TEAM-NET
 10
-3.921498
 20
718.81597
 30
540.356985
  0
VERTEX
  5
F1C
  8
TEAM-NET
 10
-7.530708
 20
716.700046
 30
540.356985
  0
VERTEX
  5
F1D
  8
TEAM-NET
 10
-10.209561
 20
713.458263
 30
540.356985
  0
VERTEX
  5
F1E
  8
TEAM-NET
 10
-11.63495
 20
709.481627
 30
540.356985
  0
VERTEX
  5
F1F
  8
TEAM-NET
 10
-11.63495
 20
705.24978
 30
540.356985
  0
VERTEX
  5
F20
  8
TEAM-NET
 10
-10.209561
 20
701.273144
 30
540.356985
  0
VERTEX
  5
F21
  8
TEAM-NET
 10
-7.530708
 20
698.03136
 30
540.356985
  0
VERTEX
  5
F22
  8
TEAM-NET
 10
-3.921498
 20
695.915437
 30
540.356985
  0
VERTEX
  5
F23
  8
TEAM-NET
 10
0.182743
 20
695.180584
 30
540.356985
  0
VERTEX
  5
F24
  8
TEAM-NET
 10
4.286985
 20
695.915437
 30
540.356985
  0
VERTEX
  5
F25
  8
TEAM-NET
 10
7.896195
 20
698.03136
 30
540.356985
  0
VERTEX
  5
F26
  8
TEAM-NET
 10
10.575048
 20
701.273144
 30
540.356985
  0
VERTEX
  5
F27
  8
TEAM-NET
 10
12.000436
 20
705.24978
 30
540.356985
  0
VERTEX
  5
F28
  8
TEAM-NET
 10
12.000436
 20
709.481627
 30
540.356985
  0
VERTEX
  5
F29
  8
TEAM-NET
 10
10.575048
 20
713.458263
 30
540.356985
  0
VERTEX
  5
F2A
  8
TEAM-NET
 10
7.896195
 20
716.700046
 30
540.356985
  0
VERTEX
  5
F2B
  8
TEAM-NET
 10
4.286985
 20
718.81597
 30
540.356985
  0
SEQEND
  5
F2C
  8
TEAM-NET
  0
POLYLINE
  5
866
  8
TEAM-NET
 66
     1
 10
0.0
 20
0.0
 30
0.0
 70
     8
1001
ACAD
1000
R13OBJECT
1002
{
1005
1CB
1002
}
  0
VERTEX
  5
867
  8
TEAM-NET
 10
-0.182743
 20
-187.429993
 30
883.170242
 70
    32
  0
VERTEX
  5
868
  8
TEAM-NET
 10
-1.338854
 20
-187.394324
 30
883.137587
 70
    32
  0
VERTEX
  5
869
  8
TEAM-NET
 10
-2.487068
 20
-187.287559
 30
883.039842
 70
    32
  0
VERTEX
  5
86A
  8
TEAM-NET
 10
-3.61954
 20
-187.110429
 30
882.877678
 70
    32
  0
VERTEX
  5
86B
  8
TEAM-NET
 10
-4.728536
 20
-186.864143
 30
882.6522
 70
    32
  0
VERTEX
  5
86C
  8
TEAM-NET
 10
-5.806479
 20
-186.550383
 30
882.364949
 70
    32
  0
VERTEX
  5
86D
  8
TEAM-NET
 10
-6.846007
 20
-186.171293
 30
882.017888
 70
    32
  0
VERTEX
  5
86E
  8
TEAM-NET
 10
-7.840018
 20
-185.729462
 30
881.613388
 70
    32
  0
VERTEX
  5
86F
  8
TEAM-NET
 10
-8.781721
 20
-185.227909
 30
881.154211
 70
    32
  0
VERTEX
  5
870
  8
TEAM-NET
 10
-9.664685
 20
-184.67006
 30
880.643493
 70
    32
  0
VERTEX
  5
871
  8
TEAM-NET
 10
-10.482878
 20
-184.059725
 30
880.084725
 70
    32
  0
VERTEX
  5
872
  8
TEAM-NET
 10
-11.230711
 20
-183.401073
 30
879.481722
 70
    32
  0
VERTEX
  5
873
  8
TEAM-NET
 10
-11.903074
 20
-182.698604
 30
878.838605
 70
    32
  0
VERTEX
  5
874
  8
TEAM-NET
 10
-12.495376
 20
-181.957117
 30
878.159765
 70
    32
  0
VERTEX
  5
875
  8
TEAM-NET
 10
-13.00357
 20
-181.181676
 30
877.44984
 70
    32
  0
VERTEX
  5
876
  8
TEAM-NET
 10
-13.424185
 20
-180.377579
 30
876.71368
 70
    32
  0
VERTEX
  5
877
  8
TEAM-NET
 10
-13.754347
 20
-179.550317
 30
875.956314
 70
    32
  0
VERTEX
  5
878
  8
TEAM-NET
 10
-13.991802
 20
-178.705544
 30
875.182914
 70
    32
  0
VERTEX
  5
879
  8
TEAM-NET
 10
-14.134926
 20
-177.849028
 30
874.398765
 70
    32
  0
VERTEX
  5
87A
  8
TEAM-NET
 10
-14.182743
 20
-176.986621
 30
873.609222
 70
    32
  0
SEQEND
  5
87B
  8
TEAM-NET
  0
POLYLINE
  5
87C
  8
TEAM-NET
 66
     1
 10
0.0
 20
0.0
 30
-524.843316
 70
   128
210
0.0
220
-0.675261
230
-0.737579
1001
ACAD
1000
R13OBJECT
1002
{
1005
2C3DCE03000001CB
1002
}
  0
VERTEX
  5
F2D
  8
TEAM-NET
 10
-14.182743
 20
720.455988
 30
-524.843316
  0
VERTEX
  5
F2E
  8
TEAM-NET
 10
-13.991802
 20
718.125494
 30
-524.843316
  0
VERTEX
  5
F2F
  8
TEAM-NET
 10
-13.424185
 20
715.85857
 30
-524.843316
  0
VERTEX
  5
F30
  8
TEAM-NET
 10
-12.495376
 20
713.717051
 30
-524.843316
  0
VERTEX
  5
F31
  8
TEAM-NET
 10
-11.230711
 20
711.759353
 30
-524.843316
  0
VERTEX
  5
F32
  8
TEAM-NET
 10
-9.664685
 20
710.038877
 30
-524.843316
  0
VERTEX
  5
F33
  8
TEAM-NET
 10
-7.840018
 20
708.602552
 30
-524.843316
  0
VERTEX
  5
F34
  8
TEAM-NET
 10
-5.806479
 20
707.489558
 30
-524.843316
  0
VERTEX
  5
F35
  8
TEAM-NET
 10
-3.61954
 20
706.730254
 30
-524.843316
  0
VERTEX
  5
F36
  8
TEAM-NET
 10
-1.338854
 20
706.345353
 30
-524.843316
  0
VERTEX
  5
F37
  8
TEAM-NET
 10
0.973367
 20
706.345353
 30
-524.843316
  0
VERTEX
  5
F38
  8
TEAM-NET
 10
3.254053
 20
706.730254
 30
-524.843316
  0
VERTEX
  5
F39
  8
TEAM-NET
 10
5.440993
 20
707.489558
 30
-524.843316
  0
VERTEX
  5
F3A
  8
TEAM-NET
 10
7.474531
 20
708.602552
 30
-524.843316
  0
VERTEX
  5
F3B
  8
TEAM-NET
 10
9.299199
 20
710.038877
 30
-524.843316
  0
VERTEX
  5
F3C
  8
TEAM-NET
 10
10.865224
 20
711.759353
 30
-524.843316
  0
VERTEX
  5
F3D
  8
TEAM-NET
 10
12.129889
 20
713.717051
 30
-524.843316
  0
VERTEX
  5
F3E
  8
TEAM-NET
 10
13.058698
 20
715.85857
 30
-524.843316
  0
VERTEX
  5
F3F
  8
TEAM-NET
 10
13.626315
 20
718.125494
 30
-524.843316
  0
VERTEX
  5
F40
  8
TEAM-NET
 10
13.817257
 20
720.455988
 30
-524.843316
  0
SEQEND
  5
F41
  8
TEAM-NET
  0
POLYLINE
  5
892
  8
TEAM-NET
 66
     1
 10
0.0
 20
0.0
 30
0.0
 70
     8
1001
ACAD
1000
R13OBJECT
1002
{
1005
1CB
1002
}
  0
VERTEX
  5
893
  8
TEAM-NET
 10
13.817257
 20
-176.986621
 30
873.609222
 70
    32
  0
VERTEX
  5
894
  8
TEAM-NET
 10
13.769439
 20
-177.849028
 30
874.398765
 70
    32
  0
VERTEX
  5
895
  8
TEAM-NET
 10
13.626315
 20
-178.705544
 30
875.182914
 70
    32
  0
VERTEX
  5
896
  8
TEAM-NET
 10
13.38886
 20
-179.550317
 30
875.956314
 70
    32
  0
VERTEX
  5
897
  8
TEAM-NET
 10
13.058698
 20
-180.377579
 30
876.71368
 70
    32
  0
VERTEX
  5
898
  8
TEAM-NET
 10
12.638083
 20
-181.181676
 30
877.44984
 70
    32
  0
VERTEX
  5
899
  8
TEAM-NET
 10
12.129889
 20
-181.957117
 30
878.159765
 70
    32
  0
VERTEX
  5
89A
  8
TEAM-NET
 10
11.537587
 20
-182.698604
 30
878.838605
 70
    32
  0
VERTEX
  5
89B
  8
TEAM-NET
 10
10.865224
 20
-183.401073
 30
879.481722
 70
    32
  0
VERTEX
  5
89C
  8
TEAM-NET
 10
10.117391
 20
-184.059725
 30
880.084725
 70
    32
  0
VERTEX
  5
89D
  8
TEAM-NET
 10
9.299199
 20
-184.67006
 30
880.643493
 70
    32
  0
VERTEX
  5
89E
  8
TEAM-NET
 10
8.416235
 20
-185.227909
 30
881.154211
 70
    32
  0
VERTEX
  5
89F
  8
TEAM-NET
 10
7.474531
 20
-185.729462
 30
881.613388
 70
    32
  0
VERTEX
  5
8A0
  8
TEAM-NET
 10
6.48052
 20
-186.171293
 30
882.017888
 70
    32
  0
VERTEX
  5
8A1
  8
TEAM-NET
 10
5.440993
 20
-186.550383
 30
882.364949
 70
    32
  0
VERTEX
  5
8A2
  8
TEAM-NET
 10
4.363049
 20
-186.864143
 30
882.6522
 70
    32
  0
VERTEX
  5
8A3
  8
TEAM-NET
 10
3.254053
 20
-187.110429
 30
882.877678
 70
    32
  0
VERTEX
  5
8A4
  8
TEAM-NET
 10
2.121581
 20
-187.287559
 30
883.039842
 70
    32
  0
VERTEX
  5
8A5
  8
TEAM-NET
 10
0.973367
 20
-187.394324
 30
883.137587
 70
    32
  0
VERTEX
  5
8A6
  8
TEAM-NET
 10
-0.182743
 20
-187.429993
 30
883.170242
 70
    32
  0
SEQEND
  5
8A7
  8
TEAM-NET
  0
LINE
  5
1CC
  8
TEAM-NET
 10
13.817257
 20
-176.986621
 30
873.609222
 11
13.817257
 21
-102.69649
 31
933.620347
  0
POLYLINE
  5
8A8
  8
TEAM-NET
 66
     1
 10
0.0
 20
0.0
 30
-524.843316
 70
   128
210
0.0
220
-0.675261
230
-0.737579
1001
ACAD
1000
R13OBJECT
1002
{
1005
6039CE03000001CC
1002
}
  0
VERTEX
  5
F42
  8
TEAM-NET
 10
-14.182743
 20
720.455988
 30
-524.843316
  0
VERTEX
  5
F43
  8
TEAM-NET
 10
-13.991802
 20
718.125494
 30
-524.843316
  0
VERTEX
  5
F44
  8
TEAM-NET
 10
-13.424185
 20
715.85857
 30
-524.843316
  0
VERTEX
  5
F45
  8
TEAM-NET
 10
-12.495376
 20
713.717051
 30
-524.843316
  0
VERTEX
  5
F46
  8
TEAM-NET
 10
-11.230711
 20
711.759353
 30
-524.843316
  0
VERTEX
  5
F47
  8
TEAM-NET
 10
-9.664685
 20
710.038877
 30
-524.843316
  0
VERTEX
  5
F48
  8
TEAM-NET
 10
-7.840018
 20
708.602552
 30
-524.843316
  0
VERTEX
  5
F49
  8
TEAM-NET
 10
-5.806479
 20
707.489558
 30
-524.843316
  0
VERTEX
  5
F4A
  8
TEAM-NET
 10
-3.61954
 20
706.730254
 30
-524.843316
  0
VERTEX
  5
F4B
  8
TEAM-NET
 10
-1.338854
 20
706.345353
 30
-524.843316
  0
VERTEX
  5
F4C
  8
TEAM-NET
 10
0.973367
 20
706.345353
 30
-524.843316
  0
VERTEX
  5
F4D
  8
TEAM-NET
 10
3.254053
 20
706.730254
 30
-524.843316
  0
VERTEX
  5
F4E
  8
TEAM-NET
 10
5.440993
 20
707.489558
 30
-524.843316
  0
VERTEX
  5
F4F
  8
TEAM-NET
 10
7.474531
 20
708.602552
 30
-524.843316
  0
VERTEX
  5
F50
  8
TEAM-NET
 10
9.299199
 20
710.038877
 30
-524.843316
  0
VERTEX
  5
F51
  8
TEAM-NET
 10
10.865224
 20
711.759353
 30
-524.843316
  0
VERTEX
  5
F52
  8
TEAM-NET
 10
12.129889
 20
713.717051
 30
-524.843316
  0
VERTEX
  5
F53
  8
TEAM-NET
 10
13.058698
 20
715.85857
 30
-524.843316
  0
VERTEX
  5
F54
  8
TEAM-NET
 10
13.626315
 20
718.125494
 30
-524.843316
  0
VERTEX
  5
F55
  8
TEAM-NET
 10
13.817257
 20
720.455988
 30
-524.843316
  0
SEQEND
  5
F56
  8
TEAM-NET
  0
LINE
  5
8BE
  8
TEAM-NET
 10
-14.182743
 20
-176.986621
 30
873.609222
 11
-14.182743
 21
-102.69649
 31
933.620347
1001
ACAD
1000
R13OBJECT
1002
{
1005
1CC
1002
}
  0
ARC
  5
8BF
  8
TEAM-NET
 10
0.182743
 20
790.798531
 30
506.785167
 40
14.0
210
0.0
220
0.777902
230
0.628385
 50
180.0
 51
360.0
1001
ACAD
1000
R13OBJECT
1002
{
1005
1CC
1002
}
  0
LINE
  5
8C0
  8
TEAM-NET
 10
-0.182743
 20
-93.8991
 30
922.729712
 11
-0.182743
 21
-166.543249
 31
864.048202
1001
ACAD
1000
R13OBJECT
1002
{
1005
1CC
1002
}
  0
LINE
  5
1CD
  8
TEAM-NET
 10
-4.866553
 20
-104.252295
 30
932.363577
 11
-4.866553
 21
-178.566427
 31
872.333064
  0
ARC
  5
8C1
  8
TEAM-NET
 10
0.182743
 20
790.798531
 30
504.785167
 40
4.68381
210
0.0
220
0.777902
230
0.628385
 50
0.0
 51
180.0
1001
ACAD
1000
R13OBJECT
1002
{
1005
1CD
1002
}
  0
LINE
  5
8C2
  8
TEAM-NET
 10
4.501067
 20
-104.252295
 30
932.363577
 11
4.501067
 21
-178.566427
 31
872.333064
1001
ACAD
1000
R13OBJECT
1002
{
1005
1CD
1002
}
  0
POLYLINE
  5
8C3
  8
TEAM-NET
 66
     1
 10
0.0
 20
0.0
 30
0.0
 70
     8
1001
ACAD
1000
R13OBJECT
1002
{
1005
1CD
1002
}
  0
VERTEX
  5
8C4
  8
TEAM-NET
 10
-0.182743
 20
-182.152119
 30
875.45764
 70
    32
  0
VERTEX
  5
8C5
  8
TEAM-NET
 10
0.428616
 20
-182.121442
 30
875.430909
 70
    32
  0
VERTEX
  5
8C6
  8
TEAM-NET
 10
1.029516
 20
-182.029939
 30
875.351173
 70
    32
  0
VERTEX
  5
8C7
  8
TEAM-NET
 10
1.609673
 20
-181.879174
 30
875.219796
 70
    32
  0
VERTEX
  5
8C8
  8
TEAM-NET
 10
2.159162
 20
-181.671727
 30
875.039026
 70
    32
  0
VERTEX
  5
8C9
  8
TEAM-NET
 10
2.668579
 20
-181.411147
 30
874.811957
 70
    32
  0
VERTEX
  5
8CA
  8
TEAM-NET
 10
3.12921
 20
-181.101894
 30
874.542473
 70
    32
  0
VERTEX
  5
8CB
  8
TEAM-NET
 10
3.533173
 20
-180.749258
 30
874.235186
 70
    32
  0
VERTEX
  5
8CC
  8
TEAM-NET
 10
3.873555
 20
-180.359273
 30
873.895352
 70
    32
  0
VERTEX
  5
8CD
  8
TEAM-NET
 10
4.144533
 20
-179.938612
 30
873.528788
 70
    32
  0
VERTEX
  5
8CE
  8
TEAM-NET
 10
4.34147
 20
-179.494472
 30
873.141764
 70
    32
  0
VERTEX
  5
8CF
  8
TEAM-NET
 10
4.460996
 20
-179.034454
 30
872.740903
 70
    32
  0
VERTEX
  5
8D0
  8
TEAM-NET
 10
4.501067
 20
-178.566427
 30
872.333064
 70
    32
  0
SEQEND
  5
8D1
  8
TEAM-NET
  0
POLYLINE
  5
8D2
  8
TEAM-NET
 66
     1
 10
0.0
 20
0.0
 30
0.0
 70
     8
1001
ACAD
1000
R13OBJECT
1002
{
1005
1CD
1002
}
  0
VERTEX
  5
8D3
  8
TEAM-NET
 10
-4.866553
 20
-178.566427
 30
872.333064
 70
    32
  0
VERTEX
  5
8D4
  8
TEAM-NET
 10
-4.826483
 20
-179.034454
 30
872.740903
 70
    32
  0
VERTEX
  5
8D5
  8
TEAM-NET
 10
-4.706956
 20
-179.494472
 30
873.141764
 70
    32
  0
VERTEX
  5
8D6
  8
TEAM-NET
 10
-4.51002
 20
-179.938612
 30
873.528788
 70
    32
  0
VERTEX
  5
8D7
  8
TEAM-NET
 10
-4.239042
 20
-180.359273
 30
873.895352
 70
    32
  0
VERTEX
  5
8D8
  8
TEAM-NET
 10
-3.89866
 20
-180.749258
 30
874.235186
 70
    32
  0
VERTEX
  5
8D9
  8
TEAM-NET
 10
-3.494697
 20
-181.101894
 30
874.542473
 70
    32
  0
VERTEX
  5
8DA
  8
TEAM-NET
 10
-3.034066
 20
-181.411147
 30
874.811957
 70
    32
  0
VERTEX
  5
8DB
  8
TEAM-NET
 10
-2.524648
 20
-181.671727
 30
875.039026
 70
    32
  0
VERTEX
  5
8DC
  8
TEAM-NET
 10
-1.97516
 20
-181.879174
 30
875.219796
 70
    32
  0
VERTEX
  5
8DD
  8
TEAM-NET
 10
-1.395003
 20
-182.029939
 30
875.351173
 70
    32
  0
VERTEX
  5
8DE
  8
TEAM-NET
 10
-0.794103
 20
-182.121442
 30
875.430909
 70
    32
  0
VERTEX
  5
8DF
  8
TEAM-NET
 10
-0.182743
 20
-182.152119
 30
875.45764
 70
    32
  0
SEQEND
  5
8E0
  8
TEAM-NET
  0
ARC
  5
1CE
  8
TEAM-NET
 10
-217.107764
 20
872.711059
 30
0.0
 40
7.0
210
0.0
220
1.0
230
0.0
 50
90.0
 51
180.0
  0
ARC
  5
1CF
  8
TEAM-NET
 10
218.892236
 20
872.711059
 30
0.0
 40
7.0
210
0.0
220
1.0
230
0.0
 50
0.0
 51
90.0
  0
LINE
  5
1D0
  8
TEAM-NET
 10
-0.182743
 20
-122.669383
 30
942.225744
 11
-0.182743
 21
-104.945933
 31
841.711059
  0
POLYLINE
  5
8E1
  8
TEAM-NET
 66
     1
 10
0.0
 20
0.0
 30
841.711059
 70
   128
1001
ACAD
1000
R13OBJECT
1002
{
1005
D807CE03000001D0
1002
}
  0
VERTEX
  5
F57
  8
TEAM-NET
 10
-0.182743
 20
-104.945933
 30
841.711059
  0
VERTEX
  5
F58
  8
TEAM-NET
 10
5.640685
 20
-104.167437
 30
841.711059
  0
VERTEX
  5
F59
  8
TEAM-NET
 10
11.067257
 20
-101.885002
 30
841.711059
  0
VERTEX
  5
F5A
  8
TEAM-NET
 10
15.727159
 20
-98.254172
 30
841.711059
  0
VERTEX
  5
F5B
  8
TEAM-NET
 10
19.302828
 20
-93.522383
 30
841.711059
  0
VERTEX
  5
F5C
  8
TEAM-NET
 10
21.550588
 20
-88.012098
 30
841.711059
  0
VERTEX
  5
F5D
  8
TEAM-NET
 10
22.317257
 20
-82.098834
 30
841.711059
  0
VERTEX
  5
F5E
  8
TEAM-NET
 10
21.550588
 20
-76.185569
 30
841.711059
  0
VERTEX
  5
F5F
  8
TEAM-NET
 10
19.302828
 20
-70.675284
 30
841.711059
  0
VERTEX
  5
F60
  8
TEAM-NET
 10
15.727159
 20
-65.943495
 30
841.711059
  0
VERTEX
  5
F61
  8
TEAM-NET
 10
11.067257
 20
-62.312666
 30
841.711059
  0
VERTEX
  5
F62
  8
TEAM-NET
 10
5.640685
 20
-60.030231
 30
841.711059
  0
VERTEX
  5
F63
  8
TEAM-NET
 10
-0.182743
 20
-59.251735
 30
841.711059
  0
SEQEND
  5
F64
  8
TEAM-NET
  0
LINE
  5
8F0
  8
TEAM-NET
 10
-0.182743
 20
-78.353035
 30
950.039912
 11
-0.182743
 21
-59.251735
 31
841.711059
1001
ACAD
1000
R13OBJECT
1002
{
1005
1D0
1002
}
  0
ARC
  5
8F1
  8
TEAM-NET
 10
0.182743
 20
65.310024
 30
-949.212533
 40
22.5
210
0.0
220
0.173648
230
-0.984808
 50
90.0
 51
270.0
1001
ACAD
1000
R13OBJECT
1002
{
1005
1D0
1002
}
  0
LINE
  5
8F2
  8
TEAM-NET
 10
22.317257
 20
-82.098834
 30
841.711059
 11
22.317257
 21
-100.511209
 31
946.132828
1001
ACAD
1000
R13OBJECT
1002
{
1005
1D0
1002
}
  0
LINE
  5
1D1
  8
TEAM-NET
 10
-0.182743
 20
-122.669383
 30
942.225744
 11
-0.182743
 21
-104.945933
 31
841.711059
  0
ARC
  5
8F3
  8
TEAM-NET
 10
0.182743
 20
65.310024
 30
-949.212533
 40
22.5
210
-0.0
220
0.173648
230
-0.984808
 50
270.0
 51
90.0
1001
ACAD
1000
R13OBJECT
1002
{
1005
1D1
1002
}
  0
LINE
  5
8F4
  8
TEAM-NET
 10
-0.182743
 20
-78.353035
 30
950.039912
 11
-0.182743
 21
-59.251735
 31
841.711059
1001
ACAD
1000
R13OBJECT
1002
{
1005
1D1
1002
}
  0
POLYLINE
  5
8F5
  8
TEAM-NET
 66
     1
 10
0.0
 20
0.0
 30
841.711059
 70
   128
1001
ACAD
1000
R13OBJECT
1002
{
1005
E828CE03000001D1
1002
}
  0
VERTEX
  5
F65
  8
TEAM-NET
 10
-0.182743
 20
-59.251735
 30
841.711059
  0
VERTEX
  5
F66
  8
TEAM-NET
 10
-6.006172
 20
-60.030231
 30
841.711059
  0
VERTEX
  5
F67
  8
TEAM-NET
 10
-11.432743
 20
-62.312666
 30
841.711059
  0
VERTEX
  5
F68
  8
TEAM-NET
 10
-16.092646
 20
-65.943495
 30
841.711059
  0
VERTEX
  5
F69
  8
TEAM-NET
 10
-19.668315
 20
-70.675284
 30
841.711059
  0
VERTEX
  5
F6A
  8
TEAM-NET
 10
-21.916075
 20
-76.185569
 30
841.711059
  0
VERTEX
  5
F6B
  8
TEAM-NET
 10
-22.682743
 20
-82.098834
 30
841.711059
  0
VERTEX
  5
F6C
  8
TEAM-NET
 10
-21.916075
 20
-88.012098
 30
841.711059
  0
VERTEX
  5
F6D
  8
TEAM-NET
 10
-19.668315
 20
-93.522383
 30
841.711059
  0
VERTEX
  5
F6E
  8
TEAM-NET
 10
-16.092646
 20
-98.254172
 30
841.711059
  0
VERTEX
  5
F6F
  8
TEAM-NET
 10
-11.432743
 20
-101.885002
 30
841.711059
  0
VERTEX
  5
F70
  8
TEAM-NET
 10
-6.006172
 20
-104.167437
 30
841.711059
  0
VERTEX
  5
F71
  8
TEAM-NET
 10
-0.182743
 20
-104.945933
 30
841.711059
  0
SEQEND
  5
F72
  8
TEAM-NET
  0
LINE
  5
904
  8
TEAM-NET
 10
-22.682743
 20
-82.098834
 30
841.711059
 11
-22.682743
 21
-100.511209
 31
946.132828
1001
ACAD
1000
R13OBJECT
1002
{
1005
1D1
1002
}
  0
ARC
  5
1D2
  8
TEAM-NET
 10
-21.392236
 20
838.711059
 30
84.470413
 40
3.0
210
0.0
220
-1.0
230
0.0
 50
360.0
 51
90.0
  0
ARC
  5
1D3
  8
TEAM-NET
 10
-19.607764
 20
838.711059
 30
-84.470413
 40
3.0
210
0.0
220
1.0
230
0.0
 50
360.0
 51
90.0
  0
LINE
  5
1D4
  8
TEAM-NET
 10
-225.892236
 20
-290.0
 30
842.711059
 11
-225.892236
 21
-290.0
 31
826.711949
  0
LINE
  5
1D5
  8
TEAM-NET
 10
-195.892236
 20
-320.0
 30
826.711949
 11
-195.892236
 21
-320.0
 31
842.711059
  0
LINE
  5
1D6
  8
TEAM-NET
 10
-195.892236
 20
-320.0
 30
826.711949
 11
-195.892236
 21
-320.0
 31
842.711059
210
0.0
220
-1.0
230
0.0
  0
LINE
  5
1D7
  8
TEAM-NET
 10
194.107764
 20
-320.0
 30
842.711059
 11
194.107764
 21
-320.0
 31
826.711949
210
0.0
220
-1.0
230
0.0
  0
LINE
  5
1D8
  8
TEAM-NET
 10
194.107764
 20
-320.0
 30
842.711059
 11
194.107764
 21
-320.0
 31
826.711949
  0
LINE
  5
1D9
  8
TEAM-NET
 10
224.107764
 20
-290.0
 30
826.711949
 11
224.107764
 21
-290.0
 31
842.711059
  0
ARC
  5
1DA
  8
TEAM-NET
 10
-21.392236
 20
838.711059
 30
84.470413
 40
3.0
210
0.0
220
-1.0
230
0.0
 50
360.0
 51
90.0
  0
ARC
  5
1DB
  8
TEAM-NET
 10
-19.607764
 20
838.711059
 30
-84.470413
 40
3.0
210
0.0
220
1.0
230
0.0
 50
360.0
 51
90.0
  0
ARC
  5
1DC
  8
TEAM-NET
 10
-10.209557
 20
834.711059
 30
-225.562753
 40
7.0
210
0.869301
220
0.494283
230
0.0
 50
90.0
 51
171.965525
  0
POLYLINE
  5
1DD
  8
TEAM-NET
 66
     1
 10
0.0
 20
0.0
 30
0.0
 70
     8
  0
VERTEX
  5
905
  8
TEAM-NET
 10
-194.786529
 20
-134.475584
 30
844.190362
 70
    32
  0
VERTEX
  5
906
  8
TEAM-NET
 10
-193.754951
 20
-132.239777
 30
841.334006
 70
    32
  0
VERTEX
  5
907
  8
TEAM-NET
 10
-192.196816
 20
-130.0816
 30
838.792751
 70
    32
  0
VERTEX
  5
908
  8
TEAM-NET
 10
-190.123526
 20
-128.078296
 30
836.78122
 70
    32
  0
VERTEX
  5
909
  8
TEAM-NET
 10
-187.609558
 20
-126.392317
 30
835.689442
 70
    32
  0
SEQEND
  5
90A
  8
TEAM-NET
  0
ARC
  5
1DE
  8
TEAM-NET
 10
11.09159
 20
834.711059
 30
-224.01151
 40
7.0
210
-0.869301
220
0.494283
230
0.0
 50
8.034475
 51
90.0
  0
POLYLINE
  5
1DF
  8
TEAM-NET
 66
     1
 10
0.0
 20
0.0
 30
0.0
 70
     8
  0
VERTEX
  5
90B
  8
TEAM-NET
 10
185.825087
 20
-126.392317
 30
835.689442
 70
    32
  0
VERTEX
  5
90C
  8
TEAM-NET
 10
188.339083
 20
-128.07831
 30
836.781235
 70
    32
  0
VERTEX
  5
90D
  8
TEAM-NET
 10
190.412285
 20
-130.081474
 30
838.792606
 70
    32
  0
VERTEX
  5
90E
  8
TEAM-NET
 10
191.97045
 20
-132.239752
 30
841.333977
 70
    32
  0
VERTEX
  5
90F
  8
TEAM-NET
 10
193.002058
 20
-134.475584
 30
844.190362
 70
    32
  0
SEQEND
  5
910
  8
TEAM-NET
  0
ARC
  5
1E0
  8
TEAM-NET
 10
-118.0
 20
834.711059
 30
-182.014902
 40
7.0
210
1.0
220
0.0
230
0.0
 50
90.0
 51
180.0
  0
ARC
  5
1E1
  8
TEAM-NET
 10
118.0
 20
834.711059
 30
-180.230431
 40
7.0
210
-1.0
220
0.0
230
0.0
 50
0.0
 51
90.0
  0
ARC
  5
1E2
  8
TEAM-NET
 10
11.09159
 20
834.711059
 30
-224.01151
 40
7.0
210
-0.869301
220
0.494283
230
0.0
 50
8.034475
 51
90.0
  0
ARC
  5
1E3
  8
TEAM-NET
 10
118.0
 20
834.711059
 30
-180.230431
 40
7.0
210
-1.0
220
0.0
230
0.0
 50
0.0
 51
90.0
  0
ARC
  5
1E4
  8
TEAM-NET
 10
-10.209557
 20
834.711059
 30
-225.562753
 40
7.0
210
0.869301
220
0.494283
230
0.0
 50
90.0
 51
171.965525
  0
ARC
  5
1E5
  8
TEAM-NET
 10
-118.0
 20
834.711059
 30
-182.014902
 40
7.0
210
1.0
220
0.0
230
0.0
 50
90.0
 51
180.0
  0
ARC
  5
1E6
  8
TEAM-NET
 10
51.712229
 20
869.711059
 30
225.892236
 40
27.0
210
-1.0
220
0.0
230
0.0
 50
187.0
 51
270.0
  0
LINE
  5
1E7
  8
TEAM-NET
 10
-225.892236
 20
0.0
 30
826.711949
 11
-225.892236
 21
0.0
 31
872.711059
210
-1.0
220
0.0
230
0.0
  0
LINE
  5
1E8
  8
TEAM-NET
 10
-225.892236
 20
-290.0
 30
842.711059
 11
-225.892236
 21
-290.0
 31
826.711949
210
-1.0
220
0.0
230
0.0
  0
ARC
  5
1E9
  8
TEAM-NET
 10
-51.712229
 20
869.711059
 30
224.107764
 40
27.0
210
1.0
220
0.0
230
0.0
 50
270.0
 51
353.0
  0
LINE
  5
1EA
  8
TEAM-NET
 10
224.107764
 20
-290.0
 30
826.711949
 11
224.107764
 21
-290.0
 31
842.711059
210
1.0
220
0.0
230
0.0
  0
LINE
  5
1EB
  8
TEAM-NET
 10
224.107764
 20
0.0
 30
826.711949
 11
224.107764
 21
0.0
 31
872.711059
210
1.0
220
0.0
230
0.0
  0
ARC
  5
1EC
  8
TEAM-NET
 10
-51.712229
 20
869.711059
 30
224.107764
 40
27.0
210
1.0
220
0.0
230
0.0
 50
270.0
 51
353.0
  0
ARC
  5
1ED
  8
TEAM-NET
 10
51.712229
 20
869.711059
 30
225.892236
 40
27.0
210
-1.0
220
0.0
230
0.0
 50
187.0
 51
270.0
  0
LINE
  5
1EE
  8
TEAM-NET
 10
224.107764
 20
0.0
 30
826.711949
 11
224.107764
 21
0.0
 31
872.711059
210
0.0
220
1.0
230
0.0
  0
LINE
  5
1EF
  8
TEAM-NET
 10
-225.892236
 20
0.0
 30
826.711949
 11
-225.892236
 21
0.0
 31
872.711059
210
0.0
220
1.0
230
0.0
  0
POLYLINE
  5
1F0
  8
TEAM-NET
 66
     1
 10
0.0
 20
0.0
 30
0.0
 70
     8
  0
VERTEX
  5
911
  8
TEAM-NET
 10
-194.786529
 20
-134.475584
 30
844.190362
 70
    32
  0
VERTEX
  5
912
  8
TEAM-NET
 10
-193.754951
 20
-132.239777
 30
841.334006
 70
    32
  0
VERTEX
  5
913
  8
TEAM-NET
 10
-192.196816
 20
-130.0816
 30
838.792751
 70
    32
  0
VERTEX
  5
914
  8
TEAM-NET
 10
-190.123526
 20
-128.078296
 30
836.78122
 70
    32
  0
VERTEX
  5
915
  8
TEAM-NET
 10
-187.609558
 20
-126.392317
 30
835.689442
 70
    32
  0
SEQEND
  5
916
  8
TEAM-NET
  0
POLYLINE
  5
1F1
  8
TEAM-NET
 66
     1
 10
0.0
 20
0.0
 30
0.0
 70
     8
  0
VERTEX
  5
917
  8
TEAM-NET
 10
185.825087
 20
-126.392317
 30
835.689442
 70
    32
  0
VERTEX
  5
918
  8
TEAM-NET
 10
188.339083
 20
-128.07831
 30
836.781235
 70
    32
  0
VERTEX
  5
919
  8
TEAM-NET
 10
190.412285
 20
-130.081474
 30
838.792606
 70
    32
  0
VERTEX
  5
91A
  8
TEAM-NET
 10
191.97045
 20
-132.239752
 30
841.333977
 70
    32
  0
VERTEX
  5
91B
  8
TEAM-NET
 10
193.002058
 20
-134.475584
 30
844.190362
 70
    32
  0
SEQEND
  5
91C
  8
TEAM-NET
  0
ARC
  5
1F2
  8
TEAM-NET
 10
34.107764
 20
814.711059
 30
120.0
 40
10.0
210
0.0
220
-1.0
230
0.0
 50
180.0
 51
0.0
  0
ARC
  5
1F3
  8
TEAM-NET
 10
34.107764
 20
814.711059
 30
120.0
 40
10.0
210
0.0
220
-1.0
230
0.0
 50
180.0
 51
0.0
  0
ARC
  5
1F4
  8
TEAM-NET
 10
34.107764
 20
814.711059
 30
120.0
 40
10.0
210
0.0
220
-1.0
230
0.0
 50
360.0
 51
180.0
  0
ARC
  5
1F5
  8
TEAM-NET
 10
-34.107764
 20
814.711059
 30
-122.0
 40
10.0
210
0.0
220
1.0
230
0.0
 50
0.0
 51
90.0
  0
ARC
  5
1F6
  8
TEAM-NET
 10
34.107764
 20
814.711059
 30
125.0
 40
13.0
210
0.0
220
-1.0
230
0.0
 50
90.0
 51
270.0
  0
ARC
  5
1F7
  8
TEAM-NET
 10
313.0
 20
826.711949
 30
-194.107764
 40
7.0
210
-1.0
220
0.0
230
0.0
 50
270.0
 51
0.0
  0
ARC
  5
1F8
  8
TEAM-NET
 10
-313.0
 20
826.711949
 30
-195.892236
 40
7.0
210
1.0
220
0.0
230
0.0
 50
180.0
 51
270.0
  0
ARC
  5
1F9
  8
TEAM-NET
 10
-313.0
 20
826.711949
 30
-195.892236
 40
7.0
210
1.0
220
0.0
230
0.0
 50
180.0
 51
270.0
  0
ARC
  5
1FA
  8
TEAM-NET
 10
-218.892236
 20
826.711949
 30
290.0
 40
7.0
210
0.0
220
-1.0
230
0.0
 50
180.0
 51
270.0
  0
ARC
  5
1FB
  8
TEAM-NET
 10
313.0
 20
826.711949
 30
-194.107764
 40
7.0
210
-1.0
220
0.0
230
0.0
 50
270.0
 51
0.0
  0
ARC
  5
1FC
  8
TEAM-NET
 10
217.107764
 20
826.711949
 30
290.0
 40
7.0
210
0.0
220
-1.0
230
0.0
 50
270.0
 51
0.0
  0
ARC
  5
1FD
  8
TEAM-NET
 10
-218.892236
 20
826.711949
 30
290.0
 40
7.0
210
0.0
220
-1.0
230
0.0
 50
180.0
 51
270.0
  0
ARC
  5
1FE
  8
TEAM-NET
 10
-218.892236
 20
826.711949
 30
0.0
 40
7.0
210
0.0
220
-1.0
230
0.0
 50
180.0
 51
270.0
  0
ARC
  5
1FF
  8
TEAM-NET
 10
217.107764
 20
826.711949
 30
290.0
 40
7.0
210
0.0
220
-1.0
230
0.0
 50
270.0
 51
0.0
  0
ARC
  5
200
  8
TEAM-NET
 10
217.107764
 20
826.711949
 30
0.0
 40
7.0
210
0.0
220
-1.0
230
0.0
 50
270.0
 51
360.0
  0
ARC
  5
201
  8
TEAM-NET
 10
-217.107764
 20
826.711949
 30
0.0
 40
7.0
210
0.0
220
1.0
230
0.0
 50
180.0
 51
270.0
  0
ARC
  5
202
  8
TEAM-NET
 10
218.892236
 20
826.711949
 30
0.0
 40
7.0
210
0.0
220
1.0
230
0.0
 50
270.0
 51
0.0
  0
ARC
  5
203
  8
TEAM-NET
 10
34.107764
 20
814.711059
 30
125.0
 40
13.0
210
0.0
220
-1.0
230
0.0
 50
90.0
 51
270.0
  0
ARC
  5
204
  8
TEAM-NET
 10
34.107764
 20
814.711059
 30
125.0
 40
13.0
210
0.0
220
-1.0
230
0.0
 50
360.0
 51
90.0
  0
ARC
  5
205
  8
TEAM-NET
 10
-34.107764
 20
814.711059
 30
-122.0
 40
10.0
210
0.0
220
1.0
230
0.0
 50
90.0
 51
180.0
  0
ARC
  5
206
  8
TEAM-NET
 10
34.107764
 20
814.711059
 30
125.0
 40
13.0
210
0.0
220
-1.0
230
0.0
 50
360.0
 51
90.0
  0
ARC
  5
207
  8
TEAM-NET
 10
-34.107764
 20
814.711059
 30
-122.0
 40
10.0
210
0.0
220
1.0
230
0.0
 50
90.0
 51
180.0
  0
ARC
  5
208
  8
TEAM-NET
 10
-34.107764
 20
814.711059
 30
-122.0
 40
10.0
210
0.0
220
1.0
230
0.0
 50
0.0
 51
90.0
  0
ARC
  5
209
  8
TEAM-NET
 10
34.107764
 20
814.711059
 30
120.0
 40
10.0
210
0.0
220
-1.0
230
0.0
 50
360.0
 51
180.0
  0
LINE
  5
20A
  8
TEAM-NET
 10
214.107764
 20
0.0
 30
819.711949
 11
214.107764
 21
-276.181667
 31
819.711949
210
0.0
220
0.0
230
-1.0
  0
LINE
  5
20B
  8
TEAM-NET
 10
217.107764
 20
0.0
 30
819.711949
 11
214.107764
 21
0.0
 31
819.711949
210
0.0
220
0.0
230
-1.0
  0
POLYLINE
  5
20C
  8
TEAM-NET
 66
     1
 10
0.0
 20
0.0
 30
0.0
 70
     8
  0
VERTEX
  5
91D
  8
TEAM-NET
 10
214.107764
 20
-276.181667
 30
819.711949
 70
    32
  0
VERTEX
  5
91E
  8
TEAM-NET
 10
213.531923
 20
-282.07882
 30
819.711949
 70
    32
  0
VERTEX
  5
91F
  8
TEAM-NET
 10
211.824898
 20
-287.752693
 30
819.711949
 70
    32
  0
VERTEX
  5
920
  8
TEAM-NET
 10
209.055235
 20
-292.977775
 30
819.711949
 70
    32
  0
VERTEX
  5
921
  8
TEAM-NET
 10
205.326142
 20
-297.561952
 30
819.711949
 70
    32
  0
VERTEX
  5
922
  8
TEAM-NET
 10
200.773003
 20
-301.333365
 30
819.711949
 70
    32
  0
VERTEX
  5
923
  8
TEAM-NET
 10
195.573207
 20
-304.139923
 30
819.711949
 70
    32
  0
VERTEX
  5
924
  8
TEAM-NET
 10
189.922337
 20
-305.871981
 30
819.711949
 70
    32
  0
VERTEX
  5
925
  8
TEAM-NET
 10
184.042576
 20
-306.457513
 30
819.711949
 70
    32
  0
SEQEND
  5
926
  8
TEAM-NET
  0
LINE
  5
20D
  8
TEAM-NET
 10
217.107764
 20
-290.0
 30
819.711949
 11
217.107764
 21
0.0
 31
819.711949
210
0.0
220
0.0
230
-1.0
  0
LINE
  5
20E
  8
TEAM-NET
 10
184.042576
 20
-306.457513
 30
819.711949
 11
-185.827047
 21
-306.457513
 31
819.711949
210
0.0
220
0.0
230
-1.0
  0
ARC
  5
20F
  8
TEAM-NET
 10
-194.107764
 20
-290.0
 30
-819.711949
 40
23.0
210
0.0
220
0.0
230
-1.0
 50
180.0
 51
270.0
  0
POLYLINE
  5
210
  8
TEAM-NET
 66
     1
 10
0.0
 20
0.0
 30
0.0
 70
     8
  0
VERTEX
  5
927
  8
TEAM-NET
 10
-185.827047
 20
-306.457513
 30
819.711949
 70
    32
  0
VERTEX
  5
928
  8
TEAM-NET
 10
-191.709729
 20
-305.871393
 30
819.711949
 70
    32
  0
VERTEX
  5
929
  8
TEAM-NET
 10
-197.361824
 20
-304.138187
 30
819.711949
 70
    32
  0
VERTEX
  5
92A
  8
TEAM-NET
 10
-202.565438
 20
-301.327992
 30
819.711949
 70
    32
  0
VERTEX
  5
92B
  8
TEAM-NET
 10
-207.118782
 20
-297.553705
 30
819.711949
 70
    32
  0
VERTEX
  5
92C
  8
TEAM-NET
 10
-210.84905
 20
-292.963663
 30
819.711949
 70
    32
  0
VERTEX
  5
92D
  8
TEAM-NET
 10
-213.616448
 20
-287.73545
 30
819.711949
 70
    32
  0
VERTEX
  5
92E
  8
TEAM-NET
 10
-215.318151
 20
-282.069865
 30
819.711949
 70
    32
  0
VERTEX
  5
92F
  8
TEAM-NET
 10
-215.892236
 20
-276.181667
 30
819.711949
 70
    32
  0
SEQEND
  5
930
  8
TEAM-NET
  0
LINE
  5
211
  8
TEAM-NET
 10
-195.892236
 20
-313.0
 30
819.711949
 11
194.107764
 21
-313.0
 31
819.711949
210
0.0
220
0.0
230
-1.0
  0
LINE
  5
212
  8
TEAM-NET
 10
-215.892236
 20
0.0
 30
819.711949
 11
-215.892236
 21
-276.181667
 31
819.711949
210
0.0
220
0.0
230
-1.0
  0
ARC
  5
213
  8
TEAM-NET
 10
195.892236
 20
-290.0
 30
-819.711949
 40
23.0
210
0.0
220
0.0
230
-1.0
 50
270.0
 51
0.0
  0
LINE
  5
214
  8
TEAM-NET
 10
-215.892236
 20
0.0
 30
819.711949
 11
-218.892236
 21
0.0
 31
819.711949
210
0.0
220
0.0
230
-1.0
  0
LINE
  5
215
  8
TEAM-NET
 10
-218.892236
 20
0.0
 30
819.711949
 11
-218.892236
 21
-290.0
 31
819.711949
210
0.0
220
0.0
230
-1.0
  0
LINE
  5
216
  8
TEAM-NET
 10
44.107764
 20
-122.0
 30
814.711059
 11
44.107764
 21
-120.0
 31
814.711059
  0
ARC
  5
217
  8
TEAM-NET
 10
-34.107764
 20
814.711059
 30
-122.0
 40
10.0
210
0.0
220
1.0
230
0.0
 50
180.0
 51
270.0
  0
ARC
  5
218
  8
TEAM-NET
 10
-34.107764
 20
814.711059
 30
-122.0
 40
10.0
210
0.0
220
1.0
230
0.0
 50
270.0
 51
0.0
  0
LINE
  5
219
  8
TEAM-NET
 10
24.107764
 20
-122.0
 30
814.711059
 11
24.107764
 21
-120.0
 31
814.711059
  0
POLYLINE
  5
21A
  8
TEAM-NET
 66
     1
 10
0.0
 20
0.0
 30
0.0
 70
     8
  0
VERTEX
  5
931
  8
TEAM-NET
 10
-185.827047
 20
-306.457513
 30
819.711949
 70
    32
  0
VERTEX
  5
932
  8
TEAM-NET
 10
-191.709729
 20
-305.871393
 30
819.711949
 70
    32
  0
VERTEX
  5
933
  8
TEAM-NET
 10
-197.361824
 20
-304.138187
 30
819.711949
 70
    32
  0
VERTEX
  5
934
  8
TEAM-NET
 10
-202.565438
 20
-301.327992
 30
819.711949
 70
    32
  0
VERTEX
  5
935
  8
TEAM-NET
 10
-207.118782
 20
-297.553705
 30
819.711949
 70
    32
  0
VERTEX
  5
936
  8
TEAM-NET
 10
-210.84905
 20
-292.963663
 30
819.711949
 70
    32
  0
VERTEX
  5
937
  8
TEAM-NET
 10
-213.616448
 20
-287.73545
 30
819.711949
 70
    32
  0
VERTEX
  5
938
  8
TEAM-NET
 10
-215.318151
 20
-282.069865
 30
819.711949
 70
    32
  0
VERTEX
  5
939
  8
TEAM-NET
 10
-215.892236
 20
-276.181667
 30
819.711949
 70
    32
  0
SEQEND
  5
93A
  8
TEAM-NET
  0
POLYLINE
  5
21B
  8
TEAM-NET
 66
     1
 10
0.0
 20
0.0
 30
0.0
 70
     8
  0
VERTEX
  5
93B
  8
TEAM-NET
 10
214.107764
 20
-276.181667
 30
819.711949
 70
    32
  0
VERTEX
  5
93C
  8
TEAM-NET
 10
213.531923
 20
-282.07882
 30
819.711949
 70
    32
  0
VERTEX
  5
93D
  8
TEAM-NET
 10
211.824898
 20
-287.752693
 30
819.711949
 70
    32
  0
VERTEX
  5
93E
  8
TEAM-NET
 10
209.055235
 20
-292.977775
 30
819.711949
 70
    32
  0
VERTEX
  5
93F
  8
TEAM-NET
 10
205.326142
 20
-297.561952
 30
819.711949
 70
    32
  0
VERTEX
  5
940
  8
TEAM-NET
 10
200.773003
 20
-301.333365
 30
819.711949
 70
    32
  0
VERTEX
  5
941
  8
TEAM-NET
 10
195.573207
 20
-304.139923
 30
819.711949
 70
    32
  0
VERTEX
  5
942
  8
TEAM-NET
 10
189.922337
 20
-305.871981
 30
819.711949
 70
    32
  0
VERTEX
  5
943
  8
TEAM-NET
 10
184.042576
 20
-306.457513
 30
819.711949
 70
    32
  0
SEQEND
  5
944
  8
TEAM-NET
  0
LINE
  5
21C
  8
TEAM-NET
 10
-215.892236
 20
0.0
 30
819.711949
 11
-215.892236
 21
-276.181667
 31
819.711949
  0
LINE
  5
21D
  8
TEAM-NET
 10
184.042576
 20
-306.457513
 30
819.711949
 11
-185.827047
 21
-306.457513
 31
819.711949
  0
LINE
  5
21E
  8
TEAM-NET
 10
214.107764
 20
0.0
 30
819.711949
 11
214.107764
 21
-276.181667
 31
819.711949
  0
ARC
  5
21F
  8
TEAM-NET
 10
-34.107764
 20
814.711059
 30
-122.0
 40
10.0
210
0.0
220
1.0
230
0.0
 50
270.0
 51
0.0
  0
ARC
  5
220
  8
TEAM-NET
 10
-122.0
 20
801.711059
 30
34.107764
 40
3.0
210
1.0
220
0.0
230
0.0
 50
90.0
 51
180.0
  0
LINE
  5
221
  8
TEAM-NET
 10
-195.892236
 20
-313.0
 30
819.711949
 11
194.107764
 21
-313.0
 31
819.711949
  0
ARC
  5
222
  8
TEAM-NET
 10
-195.892236
 20
-290.0
 30
819.711949
 40
23.0
 50
180.0
 51
270.0
  0
ARC
  5
223
  8
TEAM-NET
 10
194.107764
 20
-290.0
 30
819.711949
 40
23.0
 50
270.0
 51
0.0
  0
LINE
  5
224
  8
TEAM-NET
 10
-218.892236
 20
0.0
 30
819.711949
 11
-218.892236
 21
-290.0
 31
819.711949
  0
LINE
  5
225
  8
TEAM-NET
 10
217.107764
 20
-290.0
 30
819.711949
 11
217.107764
 21
0.0
 31
819.711949
  0
LINE
  5
226
  8
TEAM-NET
 10
217.107764
 20
0.0
 30
819.711949
 11
214.107764
 21
0.0
 31
819.711949
210
0.0
220
1.0
230
0.0
  0
LINE
  5
227
  8
TEAM-NET
 10
-215.892236
 20
0.0
 30
819.711949
 11
-218.892236
 21
0.0
 31
819.711949
210
0.0
220
1.0
230
0.0
  0
ARC
  5
228
  8
TEAM-NET
 10
-34.107764
 20
814.711059
 30
-122.0
 40
10.0
210
0.0
220
1.0
230
0.0
 50
180.0
 51
270.0
  0
ARC
  5
229
  8
TEAM-NET
 10
-122.0
 20
801.711059
 30
34.107764
 40
3.0
210
1.0
220
0.0
230
0.0
 50
90.0
 51
180.0
  0
LINE
  5
22A
  8
TEAM-NET
 10
44.107764
 20
-122.0
 30
814.711059
 11
44.107764
 21
-120.0
 31
814.711059
  0
LINE
  5
22B
  8
TEAM-NET
 10
24.107764
 20
-122.0
 30
814.711059
 11
24.107764
 21
-120.0
 31
814.711059
  0
LINE
  5
22C
  8
TEAM-NET
 10
16.607764
 20
-84.470413
 30
838.711059
 11
16.607764
 21
-84.470413
 31
829.711059
  0
ARC
  5
22D
  8
TEAM-NET
 10
0.892236
 20
-84.470413
 30
-829.711059
 40
17.5
210
0.0
220
0.0
230
-1.0
 50
180.0
 51
0.0
  0
ARC
  5
22E
  8
TEAM-NET
 10
0.892236
 20
-84.470413
 30
-838.711059
 40
17.5
210
0.0
220
0.0
230
-1.0
 50
180.0
 51
0.0
  0
LINE
  5
22F
  8
TEAM-NET
 10
-18.392236
 20
-84.470413
 30
838.711059
 11
-18.392236
 21
-84.470413
 31
829.711059
  0
LINE
  5
230
  8
TEAM-NET
 10
16.607764
 20
-84.470413
 30
838.711059
 11
16.607764
 21
-84.470413
 31
829.711059
  0
ARC
  5
231
  8
TEAM-NET
 10
0.892236
 20
-84.470413
 30
-838.711059
 40
17.5
210
0.0
220
0.0
230
-1.0
 50
0.0
 51
180.0
  0
ARC
  5
232
  8
TEAM-NET
 10
0.892236
 20
-84.470413
 30
-829.711059
 40
17.5
210
0.0
220
0.0
230
-1.0
 50
0.0
 51
180.0
  0
LINE
  5
233
  8
TEAM-NET
 10
-18.392236
 20
-84.470413
 30
838.711059
 11
-18.392236
 21
-84.470413
 31
829.711059
  0
ARC
  5
234
  8
TEAM-NET
 10
0.892236
 20
-84.470413
 30
-829.711059
 40
17.5
210
0.0
220
0.0
230
-1.0
 50
0.0
 51
180.0
  0
ARC
  5
235
  8
TEAM-NET
 10
0.892236
 20
-84.470413
 30
-829.711059
 40
17.5
210
0.0
220
0.0
230
-1.0
 50
180.0
 51
0.0
  0
LINE
  5
236
  8
TEAM-NET
 10
-115.892236
 20
-110.0
 30
829.711059
 11
-115.892236
 21
-35.0
 31
829.711059
210
0.0
220
0.0
230
-1.0
  0
LINE
  5
237
  8
TEAM-NET
 10
-115.892236
 20
-35.0
 30
829.711059
 11
114.107764
 21
-35.0
 31
829.711059
210
0.0
220
0.0
230
-1.0
  0
LINE
  5
238
  8
TEAM-NET
 10
114.107764
 20
-110.0
 30
829.711059
 11
-115.892236
 21
-110.0
 31
829.711059
210
0.0
220
0.0
230
-1.0
  0
LINE
  5
239
  8
TEAM-NET
 10
114.107764
 20
-35.0
 30
829.711059
 11
114.107764
 21
-110.0
 31
829.711059
210
0.0
220
0.0
230
-1.0
  0
ARC
  5
23A
  8
TEAM-NET
 10
0.892236
 20
-84.470413
 30
-838.711059
 40
17.5
210
0.0
220
0.0
230
-1.0
 50
180.0
 51
0.0
  0
ARC
  5
23B
  8
TEAM-NET
 10
195.892236
 20
-290.0
 30
-826.711949
 40
30.0
210
0.0
220
0.0
230
-1.0
 50
270.0
 51
0.0
  0
LINE
  5
23C
  8
TEAM-NET
 10
194.107764
 20
-320.0
 30
826.711949
 11
-195.892236
 21
-320.0
 31
826.711949
210
0.0
220
-1.0
230
0.0
  0
ARC
  5
23D
  8
TEAM-NET
 10
-194.107764
 20
-290.0
 30
-826.711949
 40
30.0
210
0.0
220
0.0
230
-1.0
 50
180.0
 51
270.0
  0
ARC
  5
23E
  8
TEAM-NET
 10
0.892236
 20
-84.470413
 30
-838.711059
 40
17.5
210
0.0
220
0.0
230
-1.0
 50
0.0
 51
180.0
  0
LINE
  5
23F
  8
TEAM-NET
 10
-182.014902
 20
-125.0
 30
834.711059
 11
180.230431
 21
-125.0
 31
834.711059
  0
POLYLINE
  5
240
  8
TEAM-NET
 66
     1
 10
0.0
 20
0.0
 30
-792.250052
 70
   128
210
0.180078
220
0.032767
230
-0.983106
  0
VERTEX
  5
E67
  8
TEAM-NET
 10
-155.245687
 20
305.105215
 30
-792.250052
  0
VERTEX
  5
E68
  8
TEAM-NET
 10
-156.110494
 20
307.941901
 30
-792.250052
  0
VERTEX
  5
E69
  8
TEAM-NET
 10
-157.617072
 20
310.450539
 30
-792.250052
  0
SEQEND
  5
E6A
  8
TEAM-NET
  0
POLYLINE
  5
241
  8
TEAM-NET
 66
     1
 10
0.0
 20
0.0
 30
-791.92871
 70
   128
210
-0.180078
220
0.032767
230
-0.983106
  0
VERTEX
  5
E6B
  8
TEAM-NET
 10
157.936658
 20
312.176451
 30
-791.92871
  0
VERTEX
  5
E6C
  8
TEAM-NET
 10
156.430387
 20
309.668523
 30
-791.92871
  0
VERTEX
  5
E6D
  8
TEAM-NET
 10
155.565268
 20
306.831129
 30
-791.92871
  0
SEQEND
  5
E6E
  8
TEAM-NET
  0
LINE
  5
242
  8
TEAM-NET
 10
-225.892236
 20
-290.0
 30
826.711949
 11
-225.892236
 21
0.0
 31
826.711949
210
-1.0
220
0.0
230
0.0
  0
LINE
  5
243
  8
TEAM-NET
 10
224.107764
 20
0.0
 30
826.711949
 11
224.107764
 21
-290.0
 31
826.711949
210
1.0
220
0.0
230
0.0
  0
ARC
  5
244
  8
TEAM-NET
 10
122.0
 20
827.711059
 30
-34.107764
 40
3.0
210
-1.0
220
0.0
230
0.0
 50
270.0
 51
360.0
  0
LINE
  5
245
  8
TEAM-NET
 10
194.107764
 20
-320.0
 30
826.711949
 11
-195.892236
 21
-320.0
 31
826.711949
  0
ARC
  5
246
  8
TEAM-NET
 10
195.892236
 20
-290.0
 30
-826.711949
 40
30.0
210
0.0
220
0.0
230
-1.0
 50
270.0
 51
0.0
  0
ARC
  5
247
  8
TEAM-NET
 10
-194.107764
 20
-290.0
 30
-826.711949
 40
30.0
210
0.0
220
0.0
230
-1.0
 50
180.0
 51
270.0
  0
LINE
  5
248
  8
TEAM-NET
 10
-225.892236
 20
-290.0
 30
826.711949
 11
-225.892236
 21
0.0
 31
826.711949
  0
LINE
  5
249
  8
TEAM-NET
 10
224.107764
 20
0.0
 30
826.711949
 11
224.107764
 21
-290.0
 31
826.711949
  0
LINE
  5
24A
  8
TEAM-NET
 10
-115.892236
 20
-110.0
 30
829.711059
 11
-115.892236
 21
-35.0
 31
829.711059
210
1.0
220
0.0
230
0.0
  0
LINE
  5
24B
  8
TEAM-NET
 10
114.107764
 20
-35.0
 30
829.711059
 11
114.107764
 21
-110.0
 31
829.711059
210
-1.0
220
0.0
230
0.0
  0
LINE
  5
24C
  8
TEAM-NET
 10
-115.892236
 20
-35.0
 30
829.711059
 11
114.107764
 21
-35.0
 31
829.711059
210
0.0
220
-1.0
230
0.0
  0
POLYLINE
  5
24D
  8
TEAM-NET
 66
     1
 10
0.0
 20
0.0
 30
-791.92871
 70
   128
210
-0.180078
220
0.032767
230
-0.983106
  0
VERTEX
  5
E6F
  8
TEAM-NET
 10
157.936658
 20
312.176451
 30
-791.92871
  0
VERTEX
  5
E70
  8
TEAM-NET
 10
156.430387
 20
309.668523
 30
-791.92871
  0
VERTEX
  5
E71
  8
TEAM-NET
 10
155.565268
 20
306.831129
 30
-791.92871
  0
SEQEND
  5
E72
  8
TEAM-NET
  0
POLYLINE
  5
24E
  8
TEAM-NET
 66
     1
 10
0.0
 20
0.0
 30
-792.250052
 70
   128
210
0.180078
220
0.032767
230
-0.983106
  0
VERTEX
  5
E73
  8
TEAM-NET
 10
-155.245687
 20
305.105215
 30
-792.250052
  0
VERTEX
  5
E74
  8
TEAM-NET
 10
-156.110494
 20
307.941901
 30
-792.250052
  0
VERTEX
  5
E75
  8
TEAM-NET
 10
-157.617072
 20
310.450539
 30
-792.250052
  0
SEQEND
  5
E76
  8
TEAM-NET
  0
LINE
  5
24F
  8
TEAM-NET
 10
-182.014902
 20
-125.0
 30
834.711059
 11
180.230431
 21
-125.0
 31
834.711059
210
0.0
220
-1.0
230
0.0
  0
ARC
  5
250
  8
TEAM-NET
 10
122.0
 20
827.711059
 30
-34.107764
 40
3.0
210
-1.0
220
0.0
230
0.0
 50
270.0
 51
360.0
  0
LINE
  5
251
  8
TEAM-NET
 10
114.107764
 20
-110.0
 30
829.711059
 11
-115.892236
 21
-110.0
 31
829.711059
210
0.0
220
1.0
230
0.0
  0
POLYLINE
  5
252
  8
TEAM-NET
 66
     1
 10
0.0
 20
0.0
 30
137.317889
 70
   128
210
-0.0
220
-0.992546
230
0.121869
  0
VERTEX
  5
E77
  8
TEAM-NET
 10
189.251103
 20
834.710547
 30
137.317889
  0
VERTEX
  5
E78
  8
TEAM-NET
 10
191.158313
 20
845.762975
 30
137.317889
  0
VERTEX
  5
E79
  8
TEAM-NET
 10
192.259203
 20
856.926229
 30
137.317889
  0
SEQEND
  5
E7A
  8
TEAM-NET
  0
POLYLINE
  5
253
  8
TEAM-NET
 66
     1
 10
0.0
 20
0.0
 30
137.317889
 70
   128
210
-0.0
220
-0.992546
230
0.121869
  0
VERTEX
  5
E7B
  8
TEAM-NET
 10
-194.043674
 20
856.926229
 30
137.317889
  0
VERTEX
  5
E7C
  8
TEAM-NET
 10
-192.942784
 20
845.762975
 30
137.317889
  0
VERTEX
  5
E7D
  8
TEAM-NET
 10
-191.035574
 20
834.710547
 30
137.317889
  0
SEQEND
  5
E7E
  8
TEAM-NET
  0
ARC
  5
254
  8
TEAM-NET
 10
51.712229
 20
869.711059
 30
-217.107764
 40
20.0
210
-1.0
220
0.0
230
0.0
 50
187.0
 51
270.0
  0
ARC
  5
255
  8
TEAM-NET
 10
-51.712229
 20
869.711059
 30
-218.892236
 40
20.0
210
1.0
220
0.0
230
0.0
 50
270.0
 51
353.0
  0
POLYLINE
  5
256
  8
TEAM-NET
 66
     1
 10
0.0
 20
0.0
 30
0.0
 70
     8
  0
VERTEX
  5
95D
  8
TEAM-NET
 10
-194.043674
 20
-31.861306
 30
867.273672
 70
    32
  0
VERTEX
  5
95E
  8
TEAM-NET
 10
-197.27136
 20
-32.852897
 30
863.053312
 70
    32
  0
VERTEX
  5
95F
  8
TEAM-NET
 10
-200.051421
 20
-34.812877
 30
859.014708
 70
    32
  0
VERTEX
  5
960
  8
TEAM-NET
 10
-201.155405
 20
-36.175101
 30
857.117503
 70
    32
  0
VERTEX
  5
961
  8
TEAM-NET
 10
-201.975814
 20
-37.792089
 30
855.350359
 70
    32
  0
VERTEX
  5
962
  8
TEAM-NET
 10
-202.422055
 20
-39.650367
 30
853.757643
 70
    32
  0
VERTEX
  5
963
  8
TEAM-NET
 10
-202.38353
 20
-41.708267
 30
852.392839
 70
    32
  0
SEQEND
  5
964
  8
TEAM-NET
  0
ARC
  5
257
  8
TEAM-NET
 10
-51.712229
 20
869.711059
 30
-218.892236
 40
20.0
210
1.0
220
0.0
230
0.0
 50
270.0
 51
353.0
  0
POLYLINE
  5
258
  8
TEAM-NET
 66
     1
 10
0.0
 20
0.0
 30
0.0
 70
     8
  0
VERTEX
  5
965
  8
TEAM-NET
 10
-194.043674
 20
-31.861306
 30
867.273672
 70
    32
  0
VERTEX
  5
966
  8
TEAM-NET
 10
-197.27136
 20
-32.852897
 30
863.053312
 70
    32
  0
VERTEX
  5
967
  8
TEAM-NET
 10
-200.051421
 20
-34.812877
 30
859.014708
 70
    32
  0
VERTEX
  5
968
  8
TEAM-NET
 10
-201.155405
 20
-36.175101
 30
857.117503
 70
    32
  0
VERTEX
  5
969
  8
TEAM-NET
 10
-201.975814
 20
-37.792089
 30
855.350359
 70
    32
  0
VERTEX
  5
96A
  8
TEAM-NET
 10
-202.422055
 20
-39.650367
 30
853.757643
 70
    32
  0
VERTEX
  5
96B
  8
TEAM-NET
 10
-202.38353
 20
-41.708267
 30
852.392839
 70
    32
  0
SEQEND
  5
96C
  8
TEAM-NET
  0
POLYLINE
  5
259
  8
TEAM-NET
 66
     1
 10
0.0
 20
0.0
 30
0.0
 70
     8
  0
VERTEX
  5
96D
  8
TEAM-NET
 10
-195.510265
 20
-38.20688
 30
847.657445
 70
    32
  0
VERTEX
  5
96E
  8
TEAM-NET
 10
-195.827254
 20
-35.964929
 30
851.711148
 70
    32
  0
VERTEX
  5
96F
  8
TEAM-NET
 10
-195.573553
 20
-34.134222
 30
856.508629
 70
    32
  0
VERTEX
  5
970
  8
TEAM-NET
 10
-194.939765
 20
-32.771528
 30
861.753213
 70
    32
  0
VERTEX
  5
971
  8
TEAM-NET
 10
-194.043674
 20
-31.861306
 30
867.273672
 70
    32
  0
SEQEND
  5
972
  8
TEAM-NET
  0
POLYLINE
  5
25A
  8
TEAM-NET
 66
     1
 10
0.0
 20
0.0
 30
0.0
 70
     8
  0
VERTEX
  5
973
  8
TEAM-NET
 10
192.259203
 20
-31.861306
 30
867.273672
 70
    32
  0
VERTEX
  5
974
  8
TEAM-NET
 10
193.155299
 20
-32.771543
 30
861.753163
 70
    32
  0
VERTEX
  5
975
  8
TEAM-NET
 10
193.789069
 20
-34.134181
 30
856.508763
 70
    32
  0
VERTEX
  5
976
  8
TEAM-NET
 10
194.042776
 20
-35.964939
 30
851.711147
 70
    32
  0
VERTEX
  5
977
  8
TEAM-NET
 10
193.725794
 20
-38.20688
 30
847.657445
 70
    32
  0
SEQEND
  5
978
  8
TEAM-NET
  0
POLYLINE
  5
25B
  8
TEAM-NET
 66
     1
 10
0.0
 20
0.0
 30
0.0
 70
     8
  0
VERTEX
  5
979
  8
TEAM-NET
 10
200.599059
 20
-41.708267
 30
852.392839
 70
    32
  0
VERTEX
  5
97A
  8
TEAM-NET
 10
200.637572
 20
-39.650364
 30
853.757659
 70
    32
  0
VERTEX
  5
97B
  8
TEAM-NET
 10
200.19133
 20
-37.79211
 30
855.350359
 70
    32
  0
VERTEX
  5
97C
  8
TEAM-NET
 10
199.370886
 20
-36.17506
 30
857.117576
 70
    32
  0
VERTEX
  5
97D
  8
TEAM-NET
 10
198.266885
 20
-34.812814
 30
859.014811
 70
    32
  0
VERTEX
  5
97E
  8
TEAM-NET
 10
195.486914
 20
-32.85292
 30
863.053273
 70
    32
  0
VERTEX
  5
97F
  8
TEAM-NET
 10
192.259203
 20
-31.861306
 30
867.273672
 70
    32
  0
SEQEND
  5
980
  8
TEAM-NET
  0
POLYLINE
  5
25C
  8
TEAM-NET
 66
     1
 10
0.0
 20
0.0
 30
-137.317889
 70
   128
210
-0.0
220
0.992546
230
-0.121869
  0
VERTEX
  5
E7F
  8
TEAM-NET
 10
-192.259203
 20
856.926229
 30
-137.317889
  0
VERTEX
  5
E80
  8
TEAM-NET
 10
-191.158313
 20
845.762975
 30
-137.317889
  0
VERTEX
  5
E81
  8
TEAM-NET
 10
-189.251103
 20
834.710547
 30
-137.317889
  0
SEQEND
  5
E82
  8
TEAM-NET
  0
POLYLINE
  5
25D
  8
TEAM-NET
 66
     1
 10
0.0
 20
0.0
 30
0.0
 70
     8
  0
VERTEX
  5
985
  8
TEAM-NET
 10
192.259203
 20
-31.861306
 30
867.273672
 70
    32
  0
VERTEX
  5
986
  8
TEAM-NET
 10
193.155299
 20
-32.771543
 30
861.753163
 70
    32
  0
VERTEX
  5
987
  8
TEAM-NET
 10
193.789069
 20
-34.134181
 30
856.508763
 70
    32
  0
VERTEX
  5
988
  8
TEAM-NET
 10
194.042776
 20
-35.964939
 30
851.711147
 70
    32
  0
VERTEX
  5
989
  8
TEAM-NET
 10
193.725794
 20
-38.20688
 30
847.657445
 70
    32
  0
SEQEND
  5
98A
  8
TEAM-NET
  0
POLYLINE
  5
25E
  8
TEAM-NET
 66
     1
 10
0.0
 20
0.0
 30
0.0
 70
     8
  0
VERTEX
  5
98B
  8
TEAM-NET
 10
200.599059
 20
-41.708267
 30
852.392839
 70
    32
  0
VERTEX
  5
98C
  8
TEAM-NET
 10
200.637572
 20
-39.650364
 30
853.757659
 70
    32
  0
VERTEX
  5
98D
  8
TEAM-NET
 10
200.19133
 20
-37.79211
 30
855.350359
 70
    32
  0
VERTEX
  5
98E
  8
TEAM-NET
 10
199.370886
 20
-36.17506
 30
857.117576
 70
    32
  0
VERTEX
  5
98F
  8
TEAM-NET
 10
198.266885
 20
-34.812814
 30
859.014811
 70
    32
  0
VERTEX
  5
990
  8
TEAM-NET
 10
195.486914
 20
-32.85292
 30
863.053273
 70
    32
  0
VERTEX
  5
991
  8
TEAM-NET
 10
192.259203
 20
-31.861306
 30
867.273672
 70
    32
  0
SEQEND
  5
992
  8
TEAM-NET
  0
ARC
  5
25F
  8
TEAM-NET
 10
51.712229
 20
869.711059
 30
-217.107764
 40
20.0
210
-1.0
220
0.0
230
0.0
 50
187.0
 51
270.0
  0
POLYLINE
  5
260
  8
TEAM-NET
 66
     1
 10
0.0
 20
0.0
 30
-137.317889
 70
   128
210
0.0
220
0.992546
230
-0.121869
  0
VERTEX
  5
E83
  8
TEAM-NET
 10
191.035574
 20
834.710547
 30
-137.317889
  0
VERTEX
  5
E84
  8
TEAM-NET
 10
192.942784
 20
845.762975
 30
-137.317889
  0
VERTEX
  5
E85
  8
TEAM-NET
 10
194.043674
 20
856.926229
 30
-137.317889
  0
SEQEND
  5
E86
  8
TEAM-NET
  0
POLYLINE
  5
261
  8
TEAM-NET
 66
     1
 10
0.0
 20
0.0
 30
0.0
 70
     8
  0
VERTEX
  5
997
  8
TEAM-NET
 10
-195.510265
 20
-38.20688
 30
847.657445
 70
    32
  0
VERTEX
  5
998
  8
TEAM-NET
 10
-195.827254
 20
-35.964929
 30
851.711148
 70
    32
  0
VERTEX
  5
999
  8
TEAM-NET
 10
-195.573553
 20
-34.134222
 30
856.508629
 70
    32
  0
VERTEX
  5
99A
  8
TEAM-NET
 10
-194.939765
 20
-32.771528
 30
861.753213
 70
    32
  0
VERTEX
  5
99B
  8
TEAM-NET
 10
-194.043674
 20
-31.861306
 30
867.273672
 70
    32
  0
SEQEND
  5
99C
  8
TEAM-NET
  0
LINE
  5
262
  8
TEAM-NET
 10
0.817257
 20
-71.741612
 30
841.902489
 11
0.817257
 21
-65.282056
 31
876.301241
  0
ARC
  5
99D
  8
TEAM-NET
 10
0.817257
 20
227.889653
 30
-849.199315
 40
2.0
210
0.0
220
-0.184559
230
-0.982821
 50
270.0
 51
0.0
1001
ACAD
1000
R13OBJECT
1002
{
1005
262
1002
}
  0
LINE
  5
99E
  8
TEAM-NET
 10
2.817257
 20
-67.247699
 30
876.670359
 11
2.817257
 21
-73.707255
 31
842.271607
1001
ACAD
1000
R13OBJECT
1002
{
1005
262
1002
}
  0
ARC
  5
99F
  8
TEAM-NET
 10
-0.817257
 20
227.889653
 30
814.199315
 40
2.0
210
0.0
220
0.184559
230
0.982821
 50
180.0
 51
270.0
1001
ACAD
1000
R13OBJECT
1002
{
1005
262
1002
}
  0
LINE
  5
9A0
  8
TEAM-NET
 10
2.23147
 20
-65.85778
 30
876.409353
 11
2.23147
 21
-72.317335
 31
842.010601
1001
ACAD
1000
R13OBJECT
1002
{
1005
262
1002
}
  0
LINE
  5
263
  8
TEAM-NET
 10
-1.182743
 20
-65.282056
 30
876.301241
 11
-1.182743
 21
-71.741612
 31
841.902489
  0
LINE
  5
9A1
  8
TEAM-NET
 10
-1.182743
 20
-65.282056
 30
876.301241
 11
0.817257
 21
-65.282056
 31
876.301241
1001
ACAD
1000
R13OBJECT
1002
{
1005
263
1002
}
  0
LINE
  5
9A2
  8
TEAM-NET
 10
0.817257
 20
-71.741612
 30
841.902489
 11
0.817257
 21
-65.282056
 31
876.301241
1001
ACAD
1000
R13OBJECT
1002
{
1005
263
1002
}
  0
LINE
  5
9A3
  8
TEAM-NET
 10
0.817257
 20
-71.741612
 30
841.902489
 11
-1.182743
 21
-71.741612
 31
841.902489
1001
ACAD
1000
R13OBJECT
1002
{
1005
263
1002
}
  0
LINE
  5
264
  8
TEAM-NET
 10
-3.182743
 20
-67.247699
 30
876.670359
 11
-3.182743
 21
-73.707255
 31
842.271607
  0
ARC
  5
9A4
  8
TEAM-NET
 10
-1.182743
 20
227.889653
 30
-849.199315
 40
2.0
210
-0.0
220
-0.184559
230
-0.982821
 50
180.0
 51
270.0
1001
ACAD
1000
R13OBJECT
1002
{
1005
264
1002
}
  0
LINE
  5
9A5
  8
TEAM-NET
 10
-1.182743
 20
-65.282056
 30
876.301241
 11
-1.182743
 21
-71.741612
 31
841.902489
1001
ACAD
1000
R13OBJECT
1002
{
1005
264
1002
}
  0
ARC
  5
9A6
  8
TEAM-NET
 10
1.182743
 20
227.889653
 30
814.199315
 40
2.0
210
-0.0
220
0.184559
230
0.982821
 50
270.0
 51
360.0
1001
ACAD
1000
R13OBJECT
1002
{
1005
264
1002
}
  0
LINE
  5
9A7
  8
TEAM-NET
 10
-2.596957
 20
-65.85778
 30
876.409353
 11
-2.596957
 21
-72.317335
 31
842.010601
1001
ACAD
1000
R13OBJECT
1002
{
1005
264
1002
}
  0
LINE
  5
265
  8
TEAM-NET
 10
2.817257
 20
-74.690079
 30
842.456166
 11
2.817257
 21
-68.244631
 31
876.779794
  0
ARC
  5
9A8
  8
TEAM-NET
 10
1.817257
 20
228.889656
 30
-849.122878
 40
1.0
210
0.0
220
-0.184559
230
-0.982821
 50
0.0
 51
90.0
1001
ACAD
1000
R13OBJECT
1002
{
1005
265
1002
}
  0
LINE
  5
9A9
  8
TEAM-NET
 10
1.817257
 20
-69.227452
 30
876.964353
 11
1.817257
 21
-75.672901
 31
842.640725
1001
ACAD
1000
R13OBJECT
1002
{
1005
265
1002
}
  0
ARC
  5
9AA
  8
TEAM-NET
 10
-1.817257
 20
228.889656
 30
814.199315
 40
1.0
210
-0.0
220
0.184559
230
0.982821
 50
90.0
 51
180.0
1001
ACAD
1000
R13OBJECT
1002
{
1005
265
1002
}
  0
LINE
  5
9AB
  8
TEAM-NET
 10
2.524363
 20
-68.939591
 30
876.910297
 11
2.524363
 21
-75.385039
 31
842.586669
1001
ACAD
1000
R13OBJECT
1002
{
1005
265
1002
}
  0
LINE
  5
266
  8
TEAM-NET
 10
-2.182743
 20
-75.672901
 30
842.640725
 11
-2.182743
 21
-69.227452
 31
876.964353
  0
LINE
  5
9AC
  8
TEAM-NET
 10
-2.182743
 20
-75.672901
 30
842.640725
 11
1.817257
 21
-75.672901
 31
842.640725
1001
ACAD
1000
R13OBJECT
1002
{
1005
266
1002
}
  0
LINE
  5
9AD
  8
TEAM-NET
 10
1.817257
 20
-69.227452
 30
876.964353
 11
1.817257
 21
-75.672901
 31
842.640725
1001
ACAD
1000
R13OBJECT
1002
{
1005
266
1002
}
  0
LINE
  5
9AE
  8
TEAM-NET
 10
1.817257
 20
-69.227452
 30
876.964353
 11
-2.182743
 21
-69.227452
 31
876.964353
1001
ACAD
1000
R13OBJECT
1002
{
1005
266
1002
}
  0
LINE
  5
267
  8
TEAM-NET
 10
-2.182743
 20
-75.672901
 30
842.640725
 11
-2.182743
 21
-69.227452
 31
876.964353
  0
ARC
  5
9AF
  8
TEAM-NET
 10
-2.182743
 20
228.889656
 30
-849.122878
 40
1.0
210
-0.0
220
-0.184559
230
-0.982821
 50
90.0
 51
180.0
1001
ACAD
1000
R13OBJECT
1002
{
1005
267
1002
}
  0
LINE
  5
9B0
  8
TEAM-NET
 10
-3.182743
 20
-68.244631
 30
876.779794
 11
-3.182743
 21
-74.690079
 31
842.456166
1001
ACAD
1000
R13OBJECT
1002
{
1005
267
1002
}
  0
ARC
  5
9B1
  8
TEAM-NET
 10
2.182743
 20
228.889656
 30
814.199315
 40
1.0
210
0.0
220
0.184559
230
0.982821
 50
0.0
 51
90.0
1001
ACAD
1000
R13OBJECT
1002
{
1005
267
1002
}
  0
LINE
  5
9B2
  8
TEAM-NET
 10
-2.88985
 20
-75.385039
 30
842.586669
 11
-2.88985
 21
-68.939591
 31
876.910297
1001
ACAD
1000
R13OBJECT
1002
{
1005
267
1002
}
  0
ARC
  5
268
  8
TEAM-NET
 10
-313.0
 20
842.711059
 30
-195.892236
 40
7.0
210
1.0
220
0.0
230
0.0
 50
90.0
 51
180.0
  0
LINE
  5
269
  8
TEAM-NET
 10
-195.892236
 20
-320.0
 30
842.711059
 11
194.107764
 21
-320.0
 31
842.711059
  0
LINE
  5
26A
  8
TEAM-NET
 10
194.107764
 20
-313.0
 30
849.711059
 11
-195.892236
 21
-313.0
 31
849.711059
  0
ARC
  5
26B
  8
TEAM-NET
 10
313.0
 20
842.711059
 30
-194.107764
 40
7.0
210
-1.0
220
0.0
230
0.0
 50
0.0
 51
90.0
  0
ARC
  5
26C
  8
TEAM-NET
 10
313.0
 20
842.711059
 30
-194.107764
 40
7.0
210
-1.0
220
0.0
230
0.0
 50
0.0
 51
90.0
  0
ARC
  5
26D
  8
TEAM-NET
 10
194.107764
 20
-290.0
 30
842.711059
 40
30.0
 50
270.0
 51
0.0
  0
ARC
  5
26E
  8
TEAM-NET
 10
-194.107764
 20
-290.0
 30
-849.711059
 40
23.0
210
0.0
220
0.0
230
-1.0
 50
180.0
 51
270.0
  0
ARC
  5
26F
  8
TEAM-NET
 10
217.107764
 20
842.711059
 30
290.0
 40
7.0
210
0.0
220
-1.0
230
0.0
 50
0.0
 51
90.0
  0
ARC
  5
270
  8
TEAM-NET
 10
-313.0
 20
842.711059
 30
-195.892236
 40
7.0
210
1.0
220
0.0
230
0.0
 50
90.0
 51
180.0
  0
ARC
  5
271
  8
TEAM-NET
 10
195.892236
 20
-290.0
 30
-849.711059
 40
23.0
210
0.0
220
0.0
230
-1.0
 50
270.0
 51
0.0
  0
ARC
  5
272
  8
TEAM-NET
 10
-195.892236
 20
-290.0
 30
842.711059
 40
30.0
 50
180.0
 51
270.0
  0
ARC
  5
273
  8
TEAM-NET
 10
-218.892236
 20
842.711059
 30
290.0
 40
7.0
210
0.0
220
-1.0
230
0.0
 50
90.0
 51
180.0
  0
ARC
  5
274
  8
TEAM-NET
 10
217.107764
 20
842.711059
 30
290.0
 40
7.0
210
0.0
220
-1.0
230
0.0
 50
0.0
 51
90.0
  0
LINE
  5
275
  8
TEAM-NET
 10
224.107764
 20
-290.0
 30
842.711059
 11
224.107764
 21
-51.712229
 31
842.711059
  0
LINE
  5
276
  8
TEAM-NET
 10
217.107764
 20
-51.712229
 30
849.711059
 11
217.107764
 21
-290.0
 31
849.711059
  0
ARC
  5
277
  8
TEAM-NET
 10
217.107764
 20
842.711059
 30
51.712229
 40
7.0
210
0.0
220
-1.0
230
0.0
 50
0.0
 51
90.0
  0
ARC
  5
278
  8
TEAM-NET
 10
-218.892236
 20
842.711059
 30
290.0
 40
7.0
210
0.0
220
-1.0
230
0.0
 50
90.0
 51
180.0
  0
LINE
  5
279
  8
TEAM-NET
 10
-218.892236
 20
-290.0
 30
849.711059
 11
-218.892236
 21
-51.712229
 31
849.711059
  0
LINE
  5
27A
  8
TEAM-NET
 10
-225.892236
 20
-51.712229
 30
842.711059
 11
-225.892236
 21
-290.0
 31
842.711059
  0
ARC
  5
27B
  8
TEAM-NET
 10
-218.892236
 20
842.711059
 30
51.712229
 40
7.0
210
0.0
220
-1.0
230
0.0
 50
90.0
 51
180.0
  0
LINE
  5
27C
  8
TEAM-NET
 10
199.858042
 20
-275.103096
 30
849.711059
 11
199.858042
 21
-135.0
 31
849.711059
  0
POLYLINE
  5
27D
  8
TEAM-NET
 66
     1
 10
0.0
 20
0.0
 30
849.711059
 70
   128
  0
VERTEX
  5
E87
  8
TEAM-NET
 10
177.19353
 20
-297.250726
 30
849.711059
  0
VERTEX
  5
E88
  8
TEAM-NET
 10
181.565717
 20
-296.835121
 30
849.711059
  0
VERTEX
  5
E89
  8
TEAM-NET
 10
185.782181
 20
-295.599371
 30
849.711059
  0
VERTEX
  5
E8A
  8
TEAM-NET
 10
189.682902
 20
-293.583548
 30
849.711059
  0
VERTEX
  5
E8B
  8
TEAM-NET
 10
193.125636
 20
-290.851589
 30
849.711059
  0
VERTEX
  5
E8C
  8
TEAM-NET
 10
195.966687
 20
-287.505295
 30
849.711059
  0
VERTEX
  5
E8D
  8
TEAM-NET
 10
198.094341
 20
-283.66047
 30
849.711059
  0
VERTEX
  5
E8E
  8
TEAM-NET
 10
199.41119
 20
-279.472107
 30
849.711059
  0
VERTEX
  5
E8F
  8
TEAM-NET
 10
199.858042
 20
-275.103096
 30
849.711059
  0
SEQEND
  5
E90
  8
TEAM-NET
  0
LINE
  5
27E
  8
TEAM-NET
 10
199.858042
 20
-135.0
 30
849.711059
 11
199.834108
 21
-134.108493
 31
849.711059
  0
LINE
  5
27F
  8
TEAM-NET
 10
-178.978001
 20
-297.250726
 30
849.711059
 11
177.19353
 21
-297.250726
 31
849.711059
  0
LINE
  5
280
  8
TEAM-NET
 10
199.834108
 20
-134.108493
 30
849.711059
 11
199.834108
 21
-51.712229
 31
849.711059
  0
POLYLINE
  5
281
  8
TEAM-NET
 66
     1
 10
0.0
 20
0.0
 30
849.711059
 70
   128
  0
VERTEX
  5
E91
  8
TEAM-NET
 10
-201.642513
 20
-275.103096
 30
849.711059
  0
VERTEX
  5
E92
  8
TEAM-NET
 10
-201.194528
 20
-279.478186
 30
849.711059
  0
VERTEX
  5
E93
  8
TEAM-NET
 10
-199.874756
 20
-283.670459
 30
849.711059
  0
VERTEX
  5
E94
  8
TEAM-NET
 10
-197.741885
 20
-287.518746
 30
849.711059
  0
VERTEX
  5
E95
  8
TEAM-NET
 10
-194.896408
 20
-290.864765
 30
849.711059
  0
VERTEX
  5
E96
  8
TEAM-NET
 10
-191.444841
 20
-293.598027
 30
849.711059
  0
VERTEX
  5
E97
  8
TEAM-NET
 10
-187.539647
 20
-295.60992
 30
849.711059
  0
VERTEX
  5
E98
  8
TEAM-NET
 10
-183.336524
 20
-296.837741
 30
849.711059
  0
VERTEX
  5
E99
  8
TEAM-NET
 10
-178.978001
 20
-297.250726
 30
849.711059
  0
SEQEND
  5
E9A
  8
TEAM-NET
  0
LINE
  5
282
  8
TEAM-NET
 10
199.834108
 20
-51.712229
 30
849.711059
 11
217.107764
 21
-51.712229
 31
849.711059
  0
LINE
  5
283
  8
TEAM-NET
 10
-201.642513
 20
-135.0
 30
849.711059
 11
-201.642513
 21
-275.103096
 31
849.711059
  0
LINE
  5
284
  8
TEAM-NET
 10
217.107764
 20
-51.712229
 30
849.711059
 11
217.107764
 21
-290.0
 31
849.711059
  0
LINE
  5
285
  8
TEAM-NET
 10
-201.618579
 20
-134.108493
 30
849.711059
 11
-201.642513
 21
-135.0
 31
849.711059
  0
ARC
  5
286
  8
TEAM-NET
 10
194.107764
 20
-290.0
 30
849.711059
 40
23.0
 50
270.0
 51
0.0
  0
LINE
  5
287
  8
TEAM-NET
 10
-201.618579
 20
-51.712229
 30
849.711059
 11
-201.618579
 21
-134.108493
 31
849.711059
  0
LINE
  5
288
  8
TEAM-NET
 10
194.107764
 20
-313.0
 30
849.711059
 11
-195.892236
 21
-313.0
 31
849.711059
  0
LINE
  5
289
  8
TEAM-NET
 10
-218.892236
 20
-51.712229
 30
849.711059
 11
-201.618579
 21
-51.712229
 31
849.711059
  0
ARC
  5
28A
  8
TEAM-NET
 10
-195.892236
 20
-290.0
 30
849.711059
 40
23.0
 50
180.0
 51
270.0
  0
LINE
  5
28B
  8
TEAM-NET
 10
-218.892236
 20
-290.0
 30
849.711059
 11
-218.892236
 21
-51.712229
 31
849.711059
  0
ARC
  5
28C
  8
TEAM-NET
 10
-205.370018
 20
741.720432
 30
-407.884492
 40
7.0
210
0.096052
220
-0.861907
230
-0.497885
 50
12.61645
 51
93.175781
  0
POLYLINE
  5
28D
  8
TEAM-NET
 66
     1
 10
0.0
 20
0.0
 30
-5.242064
 70
   128
210
-0.971367
220
-0.011108
230
-0.237325
  0
VERTEX
  5
E9B
  8
TEAM-NET
 10
39.391286
 20
876.180958
 30
-5.242064
  0
VERTEX
  5
E9C
  8
TEAM-NET
 10
42.021457
 20
874.872261
 30
-5.242064
  0
VERTEX
  5
E9D
  8
TEAM-NET
 10
44.810336
 20
873.970141
 30
-5.242064
  0
SEQEND
  5
E9E
  8
TEAM-NET
  0
POLYLINE
  5
28E
  8
TEAM-NET
 66
     1
 10
0.0
 20
0.0
 30
-41.733252
 70
   128
210
0.983984
220
0.007978
230
0.17808
  0
VERTEX
  5
E9F
  8
TEAM-NET
 10
-43.931949
 20
866.158804
 30
-41.733252
  0
VERTEX
  5
EA0
  8
TEAM-NET
 10
-40.168727
 20
867.309566
 30
-41.733252
  0
VERTEX
  5
EA1
  8
TEAM-NET
 10
-36.620496
 20
868.978969
 30
-41.733252
  0
SEQEND
  5
EA2
  8
TEAM-NET
  0
ARC
  5
28F
  8
TEAM-NET
 10
203.816189
 20
829.075808
 30
158.945092
 40
7.0
210
-0.048557
220
0.972146
230
0.229292
 50
89.34383
 51
167.710795
  0
ARC
  5
290
  8
TEAM-NET
 10
203.816189
 20
829.075808
 30
158.945092
 40
7.0
210
-0.048557
220
0.972146
230
0.229292
 50
89.34383
 51
167.710795
  0
LINE
  5
291
  8
TEAM-NET
 10
-201.796916
 20
-47.120964
 30
850.245184
 11
-201.618579
 21
-51.712229
 31
849.711059
  0
LINE
  5
292
  8
TEAM-NET
 10
-194.88394
 20
-51.712229
 30
844.62015
 11
-194.948789
 21
-45.514021
 31
844.882357
  0
ARC
  5
293
  8
TEAM-NET
 10
201.618579
 20
842.711059
 30
-51.712229
 40
7.0
210
0.0
220
1.0
230
0.0
 50
90.0
 51
164.17338
  0
ARC
  5
294
  8
TEAM-NET
 10
201.618579
 20
842.711059
 30
-51.712229
 40
7.0
210
0.0
220
1.0
230
0.0
 50
90.0
 51
164.17338
  0
LINE
  5
295
  8
TEAM-NET
 10
-201.618579
 20
-51.712229
 30
849.711059
 11
-201.618579
 21
-134.108493
 31
849.711059
  0
LINE
  5
296
  8
TEAM-NET
 10
-194.88394
 20
-134.108493
 30
844.62015
 11
-194.88394
 21
-51.712229
 31
844.62015
  0
ARC
  5
297
  8
TEAM-NET
 10
201.618579
 20
842.711059
 30
-134.108493
 40
7.0
210
0.0
220
1.0
230
0.0
 50
90.0
 51
164.17338
  0
ARC
  5
298
  8
TEAM-NET
 10
201.618579
 20
842.711059
 30
-134.108493
 40
7.0
210
0.0
220
1.0
230
0.0
 50
90.0
 51
164.17338
  0
ARC
  5
299
  8
TEAM-NET
 10
-166.845085
 20
555.500582
 30
657.555237
 40
7.0
210
-0.1747
220
-0.767901
230
0.616285
 50
15.56589
 51
20.261795
  0
ARC
  5
29A
  8
TEAM-NET
 10
194.132804
 20
842.711059
 30
-144.732836
 40
7.0
210
0.053653
220
0.99856
230
0.0
 50
90.0
 51
167.799756
  0
ARC
  5
29B
  8
TEAM-NET
 10
-201.642513
 20
842.711059
 30
135.0
 40
7.0
210
0.0
220
-1.0
230
0.0
 50
12.215538
 51
90.0
  0
LINE
  5
29C
  8
TEAM-NET
 10
-201.642513
 20
-135.0
 30
849.711059
 11
-201.642513
 21
-275.103096
 31
849.711059
  0
LINE
  5
29D
  8
TEAM-NET
 10
-194.801004
 20
-275.103096
 30
844.192188
 11
-194.801004
 21
-135.0
 31
844.192188
  0
ARC
  5
29E
  8
TEAM-NET
 10
201.642513
 20
842.711059
 30
-275.103096
 40
7.0
210
0.0
220
1.0
230
0.0
 50
90.0
 51
167.784462
  0
ARC
  5
29F
  8
TEAM-NET
 10
201.642513
 20
842.711059
 30
-275.103096
 40
7.0
210
0.0
220
1.0
230
0.0
 50
90.0
 51
167.784462
  0
POLYLINE
  5
2A0
  8
TEAM-NET
 66
     1
 10
0.0
 20
0.0
 30
849.711059
 70
   128
  0
VERTEX
  5
EA3
  8
TEAM-NET
 10
-201.642513
 20
-275.103096
 30
849.711059
  0
VERTEX
  5
EA4
  8
TEAM-NET
 10
-201.194528
 20
-279.478186
 30
849.711059
  0
VERTEX
  5
EA5
  8
TEAM-NET
 10
-199.874756
 20
-283.670459
 30
849.711059
  0
VERTEX
  5
EA6
  8
TEAM-NET
 10
-197.741885
 20
-287.518746
 30
849.711059
  0
VERTEX
  5
EA7
  8
TEAM-NET
 10
-194.896408
 20
-290.864765
 30
849.711059
  0
VERTEX
  5
EA8
  8
TEAM-NET
 10
-191.444841
 20
-293.598027
 30
849.711059
  0
VERTEX
  5
EA9
  8
TEAM-NET
 10
-187.539647
 20
-295.60992
 30
849.711059
  0
VERTEX
  5
EAA
  8
TEAM-NET
 10
-183.336524
 20
-296.837741
 30
849.711059
  0
VERTEX
  5
EAB
  8
TEAM-NET
 10
-178.978001
 20
-297.250726
 30
849.711059
  0
SEQEND
  5
EAC
  8
TEAM-NET
  0
POLYLINE
  5
2A1
  8
TEAM-NET
 66
     1
 10
0.0
 20
0.0
 30
0.0
 70
     8
  0
VERTEX
  5
9D9
  8
TEAM-NET
 10
-178.978001
 20
-290.251312
 30
842.620446
 70
    32
  0
VERTEX
  5
9DA
  8
TEAM-NET
 10
-182.021029
 20
-289.965164
 30
842.904627
 70
    32
  0
VERTEX
  5
9DB
  8
TEAM-NET
 10
-184.952058
 20
-289.122095
 30
843.171856
 70
    32
  0
VERTEX
  5
9DC
  8
TEAM-NET
 10
-187.673439
 20
-287.743486
 30
843.418698
 70
    32
  0
VERTEX
  5
9DD
  8
TEAM-NET
 10
-190.078388
 20
-285.872574
 30
843.640811
 70
    32
  0
VERTEX
  5
9DE
  8
TEAM-NET
 10
-192.062241
 20
-283.583972
 30
843.833253
 70
    32
  0
VERTEX
  5
9DF
  8
TEAM-NET
 10
-193.552039
 20
-280.953537
 30
843.992637
 70
    32
  0
VERTEX
  5
9E0
  8
TEAM-NET
 10
-194.478532
 20
-278.089772
 30
844.113875
 70
    32
  0
VERTEX
  5
9E1
  8
TEAM-NET
 10
-194.801004
 20
-275.103096
 30
844.192188
 70
    32
  0
SEQEND
  5
9E2
  8
TEAM-NET
  0
ARC
  5
2A2
  8
TEAM-NET
 10
297.250726
 20
842.711059
 30
178.978001
 40
7.0
210
-1.0
220
0.0
230
0.0
 50
90.0
 51
180.741701
  0
ARC
  5
2A3
  8
TEAM-NET
 10
297.250726
 20
842.711059
 30
178.978001
 40
7.0
210
-1.0
220
0.0
230
0.0
 50
90.0
 51
180.741701
  0
LINE
  5
2A4
  8
TEAM-NET
 10
-178.978001
 20
-297.250726
 30
849.711059
 11
177.19353
 21
-297.250726
 31
849.711059
  0
LINE
  5
2A5
  8
TEAM-NET
 10
177.19353
 20
-290.251312
 30
842.620446
 11
-178.978001
 21
-290.251312
 31
842.620446
  0
ARC
  5
2A6
  8
TEAM-NET
 10
297.250726
 20
842.711059
 30
-177.19353
 40
7.0
210
-1.0
220
0.0
230
0.0
 50
90.0
 51
180.741701
  0
ARC
  5
2A7
  8
TEAM-NET
 10
297.250726
 20
842.711059
 30
-177.19353
 40
7.0
210
-1.0
220
0.0
230
0.0
 50
90.0
 51
180.741701
  0
POLYLINE
  5
2A8
  8
TEAM-NET
 66
     1
 10
0.0
 20
0.0
 30
849.711059
 70
   128
  0
VERTEX
  5
EAD
  8
TEAM-NET
 10
177.19353
 20
-297.250726
 30
849.711059
  0
VERTEX
  5
EAE
  8
TEAM-NET
 10
181.565717
 20
-296.835121
 30
849.711059
  0
VERTEX
  5
EAF
  8
TEAM-NET
 10
185.782181
 20
-295.599371
 30
849.711059
  0
VERTEX
  5
EB0
  8
TEAM-NET
 10
189.682902
 20
-293.583548
 30
849.711059
  0
VERTEX
  5
EB1
  8
TEAM-NET
 10
193.125636
 20
-290.851589
 30
849.711059
  0
VERTEX
  5
EB2
  8
TEAM-NET
 10
195.966687
 20
-287.505295
 30
849.711059
  0
VERTEX
  5
EB3
  8
TEAM-NET
 10
198.094341
 20
-283.66047
 30
849.711059
  0
VERTEX
  5
EB4
  8
TEAM-NET
 10
199.41119
 20
-279.472107
 30
849.711059
  0
VERTEX
  5
EB5
  8
TEAM-NET
 10
199.858042
 20
-275.103096
 30
849.711059
  0
SEQEND
  5
EB6
  8
TEAM-NET
  0
POLYLINE
  5
2A9
  8
TEAM-NET
 66
     1
 10
0.0
 20
0.0
 30
0.0
 70
     8
  0
VERTEX
  5
9ED
  8
TEAM-NET
 10
193.016533
 20
-275.103096
 30
844.192188
 70
    32
  0
VERTEX
  5
9EE
  8
TEAM-NET
 10
192.694863
 20
-278.08562
 30
844.114013
 70
    32
  0
VERTEX
  5
9EF
  8
TEAM-NET
 10
191.770407
 20
-280.946712
 30
843.992973
 70
    32
  0
VERTEX
  5
9F0
  8
TEAM-NET
 10
190.28424
 20
-283.574775
 30
843.833906
 70
    32
  0
VERTEX
  5
9F1
  8
TEAM-NET
 10
188.303463
 20
-285.863558
 30
843.641708
 70
    32
  0
VERTEX
  5
9F2
  8
TEAM-NET
 10
185.904666
 20
-287.73357
 30
843.420127
 70
    32
  0
VERTEX
  5
9F3
  8
TEAM-NET
 10
183.18641
 20
-289.11486
 30
843.173559
 70
    32
  0
VERTEX
  5
9F4
  8
TEAM-NET
 10
180.24609
 20
-289.963361
 30
842.905499
 70
    32
  0
VERTEX
  5
9F5
  8
TEAM-NET
 10
177.19353
 20
-290.251312
 30
842.620446
 70
    32
  0
SEQEND
  5
9F6
  8
TEAM-NET
  0
ARC
  5
2AA
  8
TEAM-NET
 10
199.858042
 20
842.711059
 30
275.103096
 40
7.0
210
0.0
220
-1.0
230
0.0
 50
90.0
 51
167.784462
  0
ARC
  5
2AB
  8
TEAM-NET
 10
199.858042
 20
842.711059
 30
275.103096
 40
7.0
210
0.0
220
-1.0
230
0.0
 50
90.0
 51
167.784462
  0
LINE
  5
2AC
  8
TEAM-NET
 10
199.858042
 20
-275.103096
 30
849.711059
 11
199.858042
 21
-135.0
 31
849.711059
  0
LINE
  5
2AD
  8
TEAM-NET
 10
193.016533
 20
-135.0
 30
844.192188
 11
193.016533
 21
-275.103096
 31
844.192188
  0
ARC
  5
2AE
  8
TEAM-NET
 10
199.858042
 20
842.711059
 30
135.0
 40
7.0
210
0.0
220
-1.0
230
0.0
 50
90.0
 51
167.784462
  0
ARC
  5
2AF
  8
TEAM-NET
 10
194.132804
 20
842.711059
 30
-144.732836
 40
7.0
210
0.053653
220
0.99856
230
0.0
 50
90.0
 51
167.799756
  0
LINE
  5
2B0
  8
TEAM-NET
 10
-201.618579
 20
-134.108493
 30
849.711059
 11
-201.642513
 21
-135.0
 31
849.711059
  0
LINE
  5
2B1
  8
TEAM-NET
 10
-194.801004
 20
-135.0
 30
844.192188
 11
-194.786529
 21
-134.475584
 31
844.190362
  0
ARC
  5
2B2
  8
TEAM-NET
 10
-201.642513
 20
842.711059
 30
135.0
 40
7.0
210
0.0
220
-1.0
230
0.0
 50
12.215538
 51
90.0
  0
ARC
  5
2B3
  8
TEAM-NET
 10
199.858042
 20
842.711059
 30
135.0
 40
7.0
210
0.0
220
-1.0
230
0.0
 50
90.0
 51
167.784462
  0
LINE
  5
2B4
  8
TEAM-NET
 10
199.858042
 20
-135.0
 30
849.711059
 11
199.834108
 21
-134.108493
 31
849.711059
  0
LINE
  5
2B5
  8
TEAM-NET
 10
193.002058
 20
-134.475584
 30
844.190362
 11
193.016533
 21
-135.0
 31
844.192188
  0
ARC
  5
2B6
  8
TEAM-NET
 10
192.350904
 20
842.711059
 30
144.637093
 40
7.0
210
0.053653
220
-0.99856
230
0.0
 50
90.0
 51
167.799756
  0
ARC
  5
2B7
  8
TEAM-NET
 10
192.350904
 20
842.711059
 30
144.637093
 40
7.0
210
0.053653
220
-0.99856
230
0.0
 50
90.0
 51
167.799756
  0
ARC
  5
2B8
  8
TEAM-NET
 10
165.105075
 20
555.744544
 30
657.243489
 40
7.0
210
0.1747
220
-0.767901
230
0.616285
 50
159.738205
 51
164.43411
  0
ARC
  5
2B9
  8
TEAM-NET
 10
199.834108
 20
842.711059
 30
134.108493
 40
7.0
210
0.0
220
-1.0
230
0.0
 50
90.0
 51
164.17338
  0
ARC
  5
2BA
  8
TEAM-NET
 10
199.834108
 20
842.711059
 30
134.108493
 40
7.0
210
0.0
220
-1.0
230
0.0
 50
90.0
 51
164.17338
  0
LINE
  5
2BB
  8
TEAM-NET
 10
199.834108
 20
-134.108493
 30
849.711059
 11
199.834108
 21
-51.712229
 31
849.711059
  0
LINE
  5
2BC
  8
TEAM-NET
 10
193.099469
 20
-51.712229
 30
844.62015
 11
193.099469
 21
-134.108493
 31
844.62015
  0
ARC
  5
2BD
  8
TEAM-NET
 10
199.834108
 20
842.711059
 30
51.712229
 40
7.0
210
0.0
220
-1.0
230
0.0
 50
90.0
 51
164.17338
  0
ARC
  5
2BE
  8
TEAM-NET
 10
203.596525
 20
741.818834
 30
-407.713091
 40
7.0
210
-0.096052
220
-0.861907
230
-0.497885
 50
86.824219
 51
167.38355
  0
POLYLINE
  5
2BF
  8
TEAM-NET
 66
     1
 10
0.0
 20
0.0
 30
-39.972007
 70
   128
210
-0.983983
220
0.007976
230
0.178086
  0
VERTEX
  5
EB7
  8
TEAM-NET
 10
36.635426
 20
868.661428
 30
-39.972007
  0
VERTEX
  5
EB8
  8
TEAM-NET
 10
40.18333
 20
866.992056
 30
-39.972007
  0
VERTEX
  5
EB9
  8
TEAM-NET
 10
43.946877
 20
865.84126
 30
-39.972007
  0
SEQEND
  5
EBA
  8
TEAM-NET
  0
POLYLINE
  5
2C0
  8
TEAM-NET
 66
     1
 10
0.0
 20
0.0
 30
-6.982561
 70
   128
210
0.971365
220
-0.011105
230
-0.237333
  0
VERTEX
  5
EBB
  8
TEAM-NET
 10
-44.831414
 20
873.546578
 30
-6.982561
  0
VERTEX
  5
EBC
  8
TEAM-NET
 10
-42.042294
 20
874.448725
 30
-6.982561
  0
VERTEX
  5
EBD
  8
TEAM-NET
 10
-39.412365
 20
875.7574
 30
-6.982561
  0
SEQEND
  5
EBE
  8
TEAM-NET
  0
ARC
  5
2C1
  8
TEAM-NET
 10
-202.033939
 20
829.096219
 30
158.858443
 40
7.0
210
0.048557
220
0.972146
230
0.229292
 50
12.289205
 51
90.65617
  0
ARC
  5
2C2
  8
TEAM-NET
 10
199.834108
 20
842.711059
 30
51.712229
 40
7.0
210
0.0
220
-1.0
230
0.0
 50
90.0
 51
164.17338
  0
LINE
  5
2C3
  8
TEAM-NET
 10
199.834108
 20
-51.712229
 30
849.711059
 11
200.012445
 21
-47.120964
 31
850.245184
  0
LINE
  5
2C4
  8
TEAM-NET
 10
193.164318
 20
-45.514021
 30
844.882357
 11
193.099469
 21
-51.712229
 31
844.62015
  0
ARC
  5
2C5
  8
TEAM-NET
 10
-202.033939
 20
829.096219
 30
158.858443
 40
7.0
210
0.048557
220
0.972146
230
0.229292
 50
12.289205
 51
90.65617
  0
LINE
  5
2C6
  8
TEAM-NET
 10
193.164318
 20
-45.514021
 30
844.882357
 11
193.164318
 21
-38.538901
 31
844.882357
  0
LINE
  5
2C7
  8
TEAM-NET
 10
193.164318
 20
-38.538901
 30
844.882357
 11
193.725794
 21
-38.20688
 31
847.657445
  0
POLYLINE
  5
2C8
  8
TEAM-NET
 66
     1
 10
0.0
 20
0.0
 30
-39.972007
 70
   128
210
-0.983983
220
0.007976
230
0.178086
  0
VERTEX
  5
EBF
  8
TEAM-NET
 10
36.635426
 20
868.661428
 30
-39.972007
  0
VERTEX
  5
EC0
  8
TEAM-NET
 10
40.18333
 20
866.992056
 30
-39.972007
  0
VERTEX
  5
EC1
  8
TEAM-NET
 10
43.946877
 20
865.84126
 30
-39.972007
  0
SEQEND
  5
EC2
  8
TEAM-NET
  0
LINE
  5
2C9
  8
TEAM-NET
 10
-195.510265
 20
-38.20688
 30
847.657445
 11
-194.948789
 21
-38.538901
 31
844.882357
  0
LINE
  5
2CA
  8
TEAM-NET
 10
-194.948789
 20
-38.538901
 30
844.882357
 11
-194.948789
 21
-45.514021
 31
844.882357
  0
POLYLINE
  5
2CB
  8
TEAM-NET
 66
     1
 10
0.0
 20
0.0
 30
-41.733252
 70
   128
210
0.983984
220
0.007978
230
0.17808
  0
VERTEX
  5
EC3
  8
TEAM-NET
 10
-43.931949
 20
866.158804
 30
-41.733252
  0
VERTEX
  5
EC4
  8
TEAM-NET
 10
-40.168727
 20
867.309566
 30
-41.733252
  0
VERTEX
  5
EC5
  8
TEAM-NET
 10
-36.620496
 20
868.978969
 30
-41.733252
  0
SEQEND
  5
EC6
  8
TEAM-NET
  0
ARC
  5
2CC
  8
TEAM-NET
 10
-0.892236
 20
-84.470413
 30
841.711059
 40
20.5
 50
180.0
 51
0.0
  0
ARC
  5
2CD
  8
TEAM-NET
 10
-0.892236
 20
-84.470413
 30
841.711059
 40
20.5
 50
360.0
 51
180.0
  0
LINE
  5
2CE
  8
TEAM-NET
 10
-191.035574
 20
-120.366939
 30
841.711059
 11
-191.035574
 21
-38.538901
 31
841.711059
  0
POLYLINE
  5
2CF
  8
TEAM-NET
 66
     1
 10
0.0
 20
0.0
 30
841.711059
 70
   128
  0
VERTEX
  5
EC7
  8
TEAM-NET
 10
-182.014902
 20
-118.0
 30
841.711059
  0
VERTEX
  5
EC8
  8
TEAM-NET
 10
-186.679625
 20
-118.598006
 30
841.711059
  0
VERTEX
  5
EC9
  8
TEAM-NET
 10
-191.035574
 20
-120.366939
 30
841.711059
  0
SEQEND
  5
ECA
  8
TEAM-NET
  0
LINE
  5
2D0
  8
TEAM-NET
 10
-191.035574
 20
-38.538901
 30
841.711059
 11
189.251103
 21
-38.538901
 31
841.711059
  0
LINE
  5
2D1
  8
TEAM-NET
 10
180.230431
 20
-118.0
 30
841.711059
 11
-182.014902
 21
-118.0
 31
841.711059
  0
LINE
  5
2D2
  8
TEAM-NET
 10
189.251103
 20
-38.538901
 30
841.711059
 11
189.251103
 21
-120.366939
 31
841.711059
  0
POLYLINE
  5
2D3
  8
TEAM-NET
 66
     1
 10
0.0
 20
0.0
 30
841.711059
 70
   128
  0
VERTEX
  5
ECB
  8
TEAM-NET
 10
189.251103
 20
-120.366939
 30
841.711059
  0
VERTEX
  5
ECC
  8
TEAM-NET
 10
184.893959
 20
-118.5977
 30
841.711059
  0
VERTEX
  5
ECD
  8
TEAM-NET
 10
180.230431
 20
-118.0
 30
841.711059
  0
SEQEND
  5
ECE
  8
TEAM-NET
  0
ARC
  5
2D4
  8
TEAM-NET
 10
-0.892236
 20
-84.470413
 30
841.711059
 40
20.5
 50
180.0
 51
0.0
  0
ARC
  5
2D5
  8
TEAM-NET
 10
-195.892236
 20
-290.0
 30
842.711059
 40
30.0
 50
180.0
 51
270.0
  0
LINE
  5
2D6
  8
TEAM-NET
 10
-195.892236
 20
-320.0
 30
842.711059
 11
194.107764
 21
-320.0
 31
842.711059
210
0.0
220
-1.0
230
0.0
  0
ARC
  5
2D7
  8
TEAM-NET
 10
194.107764
 20
-290.0
 30
842.711059
 40
30.0
 50
270.0
 51
0.0
  0
ARC
  5
2D8
  8
TEAM-NET
 10
-0.892236
 20
-84.470413
 30
841.711059
 40
20.5
 50
360.0
 51
180.0
  0
LINE
  5
2D9
  8
TEAM-NET
 10
-191.035574
 20
-120.366939
 30
841.711059
 11
-191.035574
 21
-38.538901
 31
841.711059
  0
ARC
  5
2DA
  8
TEAM-NET
 10
191.035574
 20
845.711059
 30
-38.538901
 40
4.0
210
0.0
220
1.0
230
0.0
 50
270.0
 51
348.043117
  0
POLYLINE
  5
2DB
  8
TEAM-NET
 66
     1
 10
0.0
 20
0.0
 30
0.0
 70
     8
  0
VERTEX
  5
A0F
  8
TEAM-NET
 10
-191.035574
 20
-120.366939
 30
841.711059
 70
    32
  0
VERTEX
  5
A10
  8
TEAM-NET
 10
-192.476049
 20
-123.233103
 30
841.97942
 70
    32
  0
VERTEX
  5
A11
  8
TEAM-NET
 10
-193.604789
 20
-126.63872
 30
842.645281
 70
    32
  0
VERTEX
  5
A12
  8
TEAM-NET
 10
-194.405163
 20
-130.307621
 30
843.555607
 70
    32
  0
VERTEX
  5
A13
  8
TEAM-NET
 10
-194.88394
 20
-134.108493
 30
844.62015
 70
    32
  0
SEQEND
  5
A14
  8
TEAM-NET
  0
LINE
  5
2DC
  8
TEAM-NET
 10
-194.948789
 20
-38.538901
 30
844.882357
 11
-194.948789
 21
-45.514021
 31
844.882357
  0
LINE
  5
2DD
  8
TEAM-NET
 10
-194.88394
 20
-134.108493
 30
844.62015
 11
-194.88394
 21
-51.712229
 31
844.62015
  0
LINE
  5
2DE
  8
TEAM-NET
 10
-194.88394
 20
-51.712229
 30
844.62015
 11
-194.948789
 21
-45.514021
 31
844.882357
  0
POLYLINE
  5
2DF
  8
TEAM-NET
 66
     1
 10
0.0
 20
0.0
 30
0.0
 70
     8
  0
VERTEX
  5
A15
  8
TEAM-NET
 10
-191.035574
 20
-120.366939
 30
841.711059
 70
    32
  0
VERTEX
  5
A16
  8
TEAM-NET
 10
-192.476049
 20
-123.233103
 30
841.97942
 70
    32
  0
VERTEX
  5
A17
  8
TEAM-NET
 10
-193.604789
 20
-126.63872
 30
842.645281
 70
    32
  0
VERTEX
  5
A18
  8
TEAM-NET
 10
-194.405163
 20
-130.307621
 30
843.555607
 70
    32
  0
VERTEX
  5
A19
  8
TEAM-NET
 10
-194.88394
 20
-134.108493
 30
844.62015
 70
    32
  0
SEQEND
  5
A1A
  8
TEAM-NET
  0
ARC
  5
2E0
  8
TEAM-NET
 10
-166.845085
 20
555.500582
 30
657.555237
 40
7.0
210
-0.1747
220
-0.767901
230
0.616285
 50
15.56589
 51
20.261795
  0
POLYLINE
  5
2E1
  8
TEAM-NET
 66
     1
 10
0.0
 20
0.0
 30
0.0
 70
     8
  0
VERTEX
  5
A1B
  8
TEAM-NET
 10
193.099469
 20
-134.108493
 30
844.62015
 70
    32
  0
VERTEX
  5
A1C
  8
TEAM-NET
 10
192.620675
 20
-130.307578
 30
843.555597
 70
    32
  0
VERTEX
  5
A1D
  8
TEAM-NET
 10
191.820288
 20
-126.638506
 30
842.645226
 70
    32
  0
VERTEX
  5
A1E
  8
TEAM-NET
 10
190.691593
 20
-123.233127
 30
841.979424
 70
    32
  0
VERTEX
  5
A1F
  8
TEAM-NET
 10
189.251103
 20
-120.366939
 30
841.711059
 70
    32
  0
SEQEND
  5
A20
  8
TEAM-NET
  0
ARC
  5
2E2
  8
TEAM-NET
 10
165.105075
 20
555.744544
 30
657.243489
 40
7.0
210
0.1747
220
-0.767901
230
0.616285
 50
159.738205
 51
164.43411
  0
ARC
  5
2E3
  8
TEAM-NET
 10
-189.251103
 20
845.711059
 30
-38.538901
 40
4.0
210
0.0
220
1.0
230
0.0
 50
191.956883
 51
270.0
  0
LINE
  5
2E4
  8
TEAM-NET
 10
189.251103
 20
-38.538901
 30
841.711059
 11
189.251103
 21
-120.366939
 31
841.711059
  0
LINE
  5
2E5
  8
TEAM-NET
 10
193.164318
 20
-45.514021
 30
844.882357
 11
193.164318
 21
-38.538901
 31
844.882357
  0
POLYLINE
  5
2E6
  8
TEAM-NET
 66
     1
 10
0.0
 20
0.0
 30
0.0
 70
     8
  0
VERTEX
  5
A21
  8
TEAM-NET
 10
193.099469
 20
-134.108493
 30
844.62015
 70
    32
  0
VERTEX
  5
A22
  8
TEAM-NET
 10
192.620675
 20
-130.307578
 30
843.555597
 70
    32
  0
VERTEX
  5
A23
  8
TEAM-NET
 10
191.820288
 20
-126.638506
 30
842.645226
 70
    32
  0
VERTEX
  5
A24
  8
TEAM-NET
 10
190.691593
 20
-123.233127
 30
841.979424
 70
    32
  0
VERTEX
  5
A25
  8
TEAM-NET
 10
189.251103
 20
-120.366939
 30
841.711059
 70
    32
  0
SEQEND
  5
A26
  8
TEAM-NET
  0
LINE
  5
2E7
  8
TEAM-NET
 10
193.164318
 20
-45.514021
 30
844.882357
 11
193.099469
 21
-51.712229
 31
844.62015
  0
LINE
  5
2E8
  8
TEAM-NET
 10
193.099469
 20
-51.712229
 30
844.62015
 11
193.099469
 21
-134.108493
 31
844.62015
  0
LINE
  5
2E9
  8
TEAM-NET
 10
180.230431
 20
-118.0
 30
841.711059
 11
-182.014902
 21
-118.0
 31
841.711059
  0
POLYLINE
  5
2EA
  8
TEAM-NET
 66
     1
 10
0.0
 20
0.0
 30
841.711059
 70
   128
  0
VERTEX
  5
ECF
  8
TEAM-NET
 10
189.251103
 20
-120.366939
 30
841.711059
  0
VERTEX
  5
ED0
  8
TEAM-NET
 10
184.893959
 20
-118.5977
 30
841.711059
  0
VERTEX
  5
ED1
  8
TEAM-NET
 10
180.230431
 20
-118.0
 30
841.711059
  0
SEQEND
  5
ED2
  8
TEAM-NET
  0
POLYLINE
  5
2EB
  8
TEAM-NET
 66
     1
 10
0.0
 20
0.0
 30
841.711059
 70
   128
  0
VERTEX
  5
ED3
  8
TEAM-NET
 10
-182.014902
 20
-118.0
 30
841.711059
  0
VERTEX
  5
ED4
  8
TEAM-NET
 10
-186.679625
 20
-118.598006
 30
841.711059
  0
VERTEX
  5
ED5
  8
TEAM-NET
 10
-191.035574
 20
-120.366939
 30
841.711059
  0
SEQEND
  5
ED6
  8
TEAM-NET
  0
ARC
  5
2EC
  8
TEAM-NET
 10
38.538901
 20
845.711059
 30
-189.251103
 40
4.0
210
-1.0
220
0.0
230
0.0
 50
187.0
 51
270.0
  0
ARC
  5
2ED
  8
TEAM-NET
 10
128.266557
 20
60.834768
 30
-855.789252
 40
4.0
210
-0.205697
220
-0.119263
230
-0.971321
 50
210.833819
 51
299.387042
  0
ARC
  5
2EE
  8
TEAM-NET
 10
-189.251103
 20
845.711059
 30
-38.538901
 40
4.0
210
0.0
220
1.0
230
0.0
 50
191.956883
 51
270.0
  0
ARC
  5
2EF
  8
TEAM-NET
 10
-38.538901
 20
845.711059
 30
-191.035574
 40
4.0
210
1.0
220
0.0
230
0.0
 50
270.0
 51
353.0
  0
ARC
  5
2F0
  8
TEAM-NET
 10
191.035574
 20
845.711059
 30
-38.538901
 40
4.0
210
0.0
220
1.0
230
0.0
 50
270.0
 51
348.043117
  0
ARC
  5
2F1
  8
TEAM-NET
 10
-129.161629
 20
59.335284
 30
-856.156312
 40
4.0
210
0.205697
220
-0.119263
230
-0.971321
 50
240.612958
 51
329.166181
  0
ARC
  5
2F2
  8
TEAM-NET
 10
-38.538901
 20
845.711059
 30
-191.035574
 40
4.0
210
1.0
220
0.0
230
0.0
 50
270.0
 51
353.0
  0
LINE
  5
2F3
  8
TEAM-NET
 10
-191.035574
 20
-38.538901
 30
841.711059
 11
189.251103
 21
-38.538901
 31
841.711059
  0
LINE
  5
2F4
  8
TEAM-NET
 10
189.251103
 20
-34.568716
 30
845.223582
 11
-191.035574
 21
-34.568716
 31
845.223582
  0
ARC
  5
2F5
  8
TEAM-NET
 10
38.538901
 20
845.711059
 30
-189.251103
 40
4.0
210
-1.0
220
0.0
230
0.0
 50
187.0
 51
270.0
  0
LINE
  5
2F6
  8
TEAM-NET
 10
-225.892236
 20
-51.712229
 30
842.711059
 11
-225.892236
 21
-290.0
 31
842.711059
210
-1.0
220
0.0
230
0.0
  0
LINE
  5
2F7
  8
TEAM-NET
 10
224.107764
 20
-290.0
 30
842.711059
 11
224.107764
 21
-51.712229
 31
842.711059
210
1.0
220
0.0
230
0.0
  0
LINE
  5
2F8
  8
TEAM-NET
 10
189.251103
 20
-34.568716
 30
845.223582
 11
-191.035574
 21
-34.568716
 31
845.223582
210
0.0
220
-0.992546
230
0.121869
  0
ARC
  5
2F9
  8
TEAM-NET
 10
217.107764
 20
842.711059
 30
51.712229
 40
7.0
210
0.0
220
-1.0
230
0.0
 50
0.0
 51
90.0
  0
ARC
  5
2FA
  8
TEAM-NET
 10
-218.892236
 20
842.711059
 30
51.712229
 40
7.0
210
0.0
220
-1.0
230
0.0
 50
90.0
 51
180.0
  0
POLYLINE
  5
2FB
  8
TEAM-NET
 66
     1
 10
0.0
 20
0.0
 30
-5.242064
 70
   128
210
-0.971367
220
-0.011108
230
-0.237325
  0
VERTEX
  5
ED7
  8
TEAM-NET
 10
39.391286
 20
876.180958
 30
-5.242064
  0
VERTEX
  5
ED8
  8
TEAM-NET
 10
42.021457
 20
874.872261
 30
-5.242064
  0
VERTEX
  5
ED9
  8
TEAM-NET
 10
44.810336
 20
873.970141
 30
-5.242064
  0
SEQEND
  5
EDA
  8
TEAM-NET
  0
LINE
  5
2FC
  8
TEAM-NET
 10
-201.796916
 20
-47.120964
 30
850.245184
 11
-201.618579
 21
-51.712229
 31
849.711059
  0
LINE
  5
2FD
  8
TEAM-NET
 10
-218.892236
 20
-51.712229
 30
849.711059
 11
-201.618579
 21
-51.712229
 31
849.711059
  0
ARC
  5
2FE
  8
TEAM-NET
 10
-205.370018
 20
741.720432
 30
-407.884492
 40
7.0
210
0.096052
220
-0.861907
230
-0.497885
 50
12.61645
 51
93.175781
  0
ARC
  5
2FF
  8
TEAM-NET
 10
203.596525
 20
741.818834
 30
-407.713091
 40
7.0
210
-0.096052
220
-0.861907
230
-0.497885
 50
86.824219
 51
167.38355
  0
ARC
  5
300
  8
TEAM-NET
 10
128.266557
 20
60.834768
 30
-855.789252
 40
4.0
210
-0.205697
220
-0.119263
230
-0.971321
 50
210.833819
 51
299.387042
  0
LINE
  5
301
  8
TEAM-NET
 10
193.164318
 20
-38.538901
 30
844.882357
 11
193.725794
 21
-38.20688
 31
847.657445
  0
POLYLINE
  5
302
  8
TEAM-NET
 66
     1
 10
0.0
 20
0.0
 30
-6.982561
 70
   128
210
0.971365
220
-0.011105
230
-0.237333
  0
VERTEX
  5
EDB
  8
TEAM-NET
 10
-44.831414
 20
873.546578
 30
-6.982561
  0
VERTEX
  5
EDC
  8
TEAM-NET
 10
-42.042294
 20
874.448725
 30
-6.982561
  0
VERTEX
  5
EDD
  8
TEAM-NET
 10
-39.412365
 20
875.7574
 30
-6.982561
  0
SEQEND
  5
EDE
  8
TEAM-NET
  0
LINE
  5
303
  8
TEAM-NET
 10
199.834108
 20
-51.712229
 30
849.711059
 11
200.012445
 21
-47.120964
 31
850.245184
  0
LINE
  5
304
  8
TEAM-NET
 10
199.834108
 20
-51.712229
 30
849.711059
 11
217.107764
 21
-51.712229
 31
849.711059
  0
ARC
  5
305
  8
TEAM-NET
 10
-129.161629
 20
59.335284
 30
-856.156312
 40
4.0
210
0.205697
220
-0.119263
230
-0.971321
 50
240.612958
 51
329.166181
  0
LINE
  5
306
  8
TEAM-NET
 10
-195.510265
 20
-38.20688
 30
847.657445
 11
-194.948789
 21
-38.538901
 31
844.882357
  0
LINE
  5
307
  8
TEAM-NET
 10
-2.182743
 20
-75.672901
 30
842.640725
 11
1.817257
 21
-75.672901
 31
842.640725
  0
ARC
  5
A37
  8
TEAM-NET
 10
2.182743
 20
228.889656
 30
814.199315
 40
1.0
210
0.0
220
0.184559
230
0.982821
 50
0.0
 51
90.0
1001
ACAD
1000
R13OBJECT
1002
{
1005
307
1002
}
  0
LINE
  5
A38
  8
TEAM-NET
 10
-3.182743
 20
-73.707255
 30
842.271607
 11
-3.182743
 21
-74.690079
 31
842.456166
1001
ACAD
1000
R13OBJECT
1002
{
1005
307
1002
}
  0
ARC
  5
A39
  8
TEAM-NET
 10
1.182743
 20
227.889653
 30
814.199315
 40
2.0
210
-0.0
220
0.184559
230
0.982821
 50
270.0
 51
360.0
1001
ACAD
1000
R13OBJECT
1002
{
1005
307
1002
}
  0
LINE
  5
A3A
  8
TEAM-NET
 10
0.817257
 20
-71.741612
 30
841.902489
 11
-1.182743
 21
-71.741612
 31
841.902489
1001
ACAD
1000
R13OBJECT
1002
{
1005
307
1002
}
  0
ARC
  5
A3B
  8
TEAM-NET
 10
-0.817257
 20
227.889653
 30
814.199315
 40
2.0
210
0.0
220
0.184559
230
0.982821
 50
180.0
 51
270.0
1001
ACAD
1000
R13OBJECT
1002
{
1005
307
1002
}
  0
LINE
  5
A3C
  8
TEAM-NET
 10
2.817257
 20
-74.690079
 30
842.456166
 11
2.817257
 21
-73.707255
 31
842.271607
1001
ACAD
1000
R13OBJECT
1002
{
1005
307
1002
}
  0
ARC
  5
A3D
  8
TEAM-NET
 10
-1.817257
 20
228.889656
 30
814.199315
 40
1.0
210
-0.0
220
0.184559
230
0.982821
 50
90.0
 51
180.0
1001
ACAD
1000
R13OBJECT
1002
{
1005
307
1002
}
  0
LINE
  5
308
  8
TEAM-NET
 10
-194.801004
 20
-135.0
 30
844.192188
 11
-194.786529
 21
-134.475584
 31
844.190362
  0
LINE
  5
309
  8
TEAM-NET
 10
-194.801004
 20
-275.103096
 30
844.192188
 11
-194.801004
 21
-135.0
 31
844.192188
  0
POLYLINE
  5
30A
  8
TEAM-NET
 66
     1
 10
0.0
 20
0.0
 30
0.0
 70
     8
  0
VERTEX
  5
A3E
  8
TEAM-NET
 10
-178.978001
 20
-290.251312
 30
842.620446
 70
    32
  0
VERTEX
  5
A3F
  8
TEAM-NET
 10
-182.021029
 20
-289.965164
 30
842.904627
 70
    32
  0
VERTEX
  5
A40
  8
TEAM-NET
 10
-184.952058
 20
-289.122095
 30
843.171856
 70
    32
  0
VERTEX
  5
A41
  8
TEAM-NET
 10
-187.673439
 20
-287.743486
 30
843.418698
 70
    32
  0
VERTEX
  5
A42
  8
TEAM-NET
 10
-190.078388
 20
-285.872574
 30
843.640811
 70
    32
  0
VERTEX
  5
A43
  8
TEAM-NET
 10
-192.062241
 20
-283.583972
 30
843.833253
 70
    32
  0
VERTEX
  5
A44
  8
TEAM-NET
 10
-193.552039
 20
-280.953537
 30
843.992637
 70
    32
  0
VERTEX
  5
A45
  8
TEAM-NET
 10
-194.478532
 20
-278.089772
 30
844.113875
 70
    32
  0
VERTEX
  5
A46
  8
TEAM-NET
 10
-194.801004
 20
-275.103096
 30
844.192188
 70
    32
  0
SEQEND
  5
A47
  8
TEAM-NET
  0
LINE
  5
30B
  8
TEAM-NET
 10
177.19353
 20
-290.251312
 30
842.620446
 11
-178.978001
 21
-290.251312
 31
842.620446
  0
POLYLINE
  5
30C
  8
TEAM-NET
 66
     1
 10
0.0
 20
0.0
 30
0.0
 70
     8
  0
VERTEX
  5
A48
  8
TEAM-NET
 10
193.016533
 20
-275.103096
 30
844.192188
 70
    32
  0
VERTEX
  5
A49
  8
TEAM-NET
 10
192.694863
 20
-278.08562
 30
844.114013
 70
    32
  0
VERTEX
  5
A4A
  8
TEAM-NET
 10
191.770407
 20
-280.946712
 30
843.992973
 70
    32
  0
VERTEX
  5
A4B
  8
TEAM-NET
 10
190.28424
 20
-283.574775
 30
843.833906
 70
    32
  0
VERTEX
  5
A4C
  8
TEAM-NET
 10
188.303463
 20
-285.863558
 30
843.641708
 70
    32
  0
VERTEX
  5
A4D
  8
TEAM-NET
 10
185.904666
 20
-287.73357
 30
843.420127
 70
    32
  0
VERTEX
  5
A4E
  8
TEAM-NET
 10
183.18641
 20
-289.11486
 30
843.173559
 70
    32
  0
VERTEX
  5
A4F
  8
TEAM-NET
 10
180.24609
 20
-289.963361
 30
842.905499
 70
    32
  0
VERTEX
  5
A50
  8
TEAM-NET
 10
177.19353
 20
-290.251312
 30
842.620446
 70
    32
  0
SEQEND
  5
A51
  8
TEAM-NET
  0
LINE
  5
30D
  8
TEAM-NET
 10
193.002058
 20
-134.475584
 30
844.190362
 11
193.016533
 21
-135.0
 31
844.192188
  0
LINE
  5
30E
  8
TEAM-NET
 10
193.016533
 20
-135.0
 30
844.192188
 11
193.016533
 21
-275.103096
 31
844.192188
  0
POLYLINE
  5
30F
  8
TEAM-NET
 66
     1
 10
0.0
 20
0.0
 30
841.711059
 70
   128
  0
VERTEX
  5
EDF
  8
TEAM-NET
 10
-0.182743
 20
-59.251735
 30
841.711059
  0
VERTEX
  5
EE0
  8
TEAM-NET
 10
-6.006172
 20
-60.030231
 30
841.711059
  0
VERTEX
  5
EE1
  8
TEAM-NET
 10
-11.432743
 20
-62.312666
 30
841.711059
  0
VERTEX
  5
EE2
  8
TEAM-NET
 10
-16.092646
 20
-65.943495
 30
841.711059
  0
VERTEX
  5
EE3
  8
TEAM-NET
 10
-19.668315
 20
-70.675284
 30
841.711059
  0
VERTEX
  5
EE4
  8
TEAM-NET
 10
-21.916075
 20
-76.185569
 30
841.711059
  0
VERTEX
  5
EE5
  8
TEAM-NET
 10
-22.682743
 20
-82.098834
 30
841.711059
  0
VERTEX
  5
EE6
  8
TEAM-NET
 10
-21.916075
 20
-88.012098
 30
841.711059
  0
VERTEX
  5
EE7
  8
TEAM-NET
 10
-19.668315
 20
-93.522383
 30
841.711059
  0
VERTEX
  5
EE8
  8
TEAM-NET
 10
-16.092646
 20
-98.254172
 30
841.711059
  0
VERTEX
  5
EE9
  8
TEAM-NET
 10
-11.432743
 20
-101.885002
 30
841.711059
  0
VERTEX
  5
EEA
  8
TEAM-NET
 10
-6.006172
 20
-104.167437
 30
841.711059
  0
VERTEX
  5
EEB
  8
TEAM-NET
 10
-0.182743
 20
-104.945933
 30
841.711059
  0
SEQEND
  5
EEC
  8
TEAM-NET
  0
POLYLINE
  5
A60
  8
TEAM-NET
 66
     1
 10
0.0
 20
0.0
 30
841.711059
 70
   128
1001
ACAD
1000
R13OBJECT
1002
{
1005
203DCE030000030F
1002
}
  0
VERTEX
  5
F73
  8
TEAM-NET
 10
-0.182743
 20
-104.945933
 30
841.711059
  0
VERTEX
  5
F74
  8
TEAM-NET
 10
5.640685
 20
-104.167437
 30
841.711059
  0
VERTEX
  5
F75
  8
TEAM-NET
 10
11.067257
 20
-101.885002
 30
841.711059
  0
VERTEX
  5
F76
  8
TEAM-NET
 10
15.727159
 20
-98.254172
 30
841.711059
  0
VERTEX
  5
F77
  8
TEAM-NET
 10
19.302828
 20
-93.522383
 30
841.711059
  0
VERTEX
  5
F78
  8
TEAM-NET
 10
21.550588
 20
-88.012098
 30
841.711059
  0
VERTEX
  5
F79
  8
TEAM-NET
 10
22.317257
 20
-82.098834
 30
841.711059
  0
VERTEX
  5
F7A
  8
TEAM-NET
 10
21.550588
 20
-76.185569
 30
841.711059
  0
VERTEX
  5
F7B
  8
TEAM-NET
 10
19.302828
 20
-70.675284
 30
841.711059
  0
VERTEX
  5
F7C
  8
TEAM-NET
 10
15.727159
 20
-65.943495
 30
841.711059
  0
VERTEX
  5
F7D
  8
TEAM-NET
 10
11.067257
 20
-62.312666
 30
841.711059
  0
VERTEX
  5
F7E
  8
TEAM-NET
 10
5.640685
 20
-60.030231
 30
841.711059
  0
VERTEX
  5
F7F
  8
TEAM-NET
 10
-0.182743
 20
-59.251735
 30
841.711059
  0
SEQEND
  5
F80
  8
TEAM-NET
  0
ARC
  5
310
  8
TEAM-NET
 10
217.107764
 20
130.317889
 30
-856.926229
 40
7.0
210
0.0
220
-0.121869
230
-0.992546
 50
0.0
 51
90.0
  0
LINE
  5
311
  8
TEAM-NET
 10
224.107764
 20
-24.913483
 30
866.420587
 11
224.107764
 21
-24.14111
 31
872.711059
  0
LINE
  5
312
  8
TEAM-NET
 10
217.107764
 20
-31.088933
 30
873.564144
 11
217.107764
 21
-31.861306
 31
867.273672
  0
ARC
  5
313
  8
TEAM-NET
 10
-217.107764
 20
130.317889
 30
863.263942
 40
7.0
210
-0.0
220
0.121869
230
0.992546
 50
90.0
 51
180.0
  0
ARC
  5
314
  8
TEAM-NET
 10
-218.892236
 20
130.317889
 30
-856.926229
 40
7.0
210
0.0
220
-0.121869
230
-0.992546
 50
90.0
 51
180.0
  0
LINE
  5
315
  8
TEAM-NET
 10
-218.892236
 20
-31.861306
 30
867.273672
 11
-218.892236
 21
-31.088933
 31
873.564144
  0
LINE
  5
316
  8
TEAM-NET
 10
-225.892236
 20
-24.14111
 30
872.711059
 11
-225.892236
 21
-24.913483
 31
866.420587
  0
ARC
  5
317
  8
TEAM-NET
 10
218.892236
 20
130.317889
 30
863.263942
 40
7.0
210
-0.0
220
0.121869
230
0.992546
 50
360.0
 51
90.0
  0
LINE
  5
318
  8
TEAM-NET
 10
224.107764
 20
-24.14111
 30
872.711059
 11
224.107764
 21
0.0
 31
872.711059
  0
LINE
  5
319
  8
TEAM-NET
 10
-218.892236
 20
-31.088933
 30
873.564144
 11
217.107764
 21
-31.088933
 31
873.564144
  0
ARC
  5
31A
  8
TEAM-NET
 10
-217.107764
 20
130.317889
 30
863.263942
 40
7.0
210
-0.0
220
0.121869
230
0.992546
 50
90.0
 51
180.0
  0
LINE
  5
31B
  8
TEAM-NET
 10
-225.892236
 20
0.0
 30
872.711059
 11
-225.892236
 21
-24.14111
 31
872.711059
  0
ARC
  5
31C
  8
TEAM-NET
 10
218.892236
 20
130.317889
 30
863.263942
 40
7.0
210
-0.0
220
0.121869
230
0.992546
 50
360.0
 51
90.0
  0
ARC
  5
31D
  8
TEAM-NET
 10
16.910559
 20
544.888391
 30
-707.135148
 40
1.0
210
-0.032843
220
0.753513
230
-0.656612
 50
1.639337
 51
91.639337
  0
ARC
  5
A6F
  8
TEAM-NET
 10
-0.25448
 20
707.525205
 30
-545.181597
 40
9.0
210
-0.0
220
-0.656966
230
-0.75392
 50
178.117883
 51
358.117883
1001
ACAD
1000
R13OBJECT
1002
{
1005
31D
1002
}
  0
ARC
  5
A70
  8
TEAM-NET
 10
1.082073
 20
544.373448
 30
707.135148
 40
1.0
210
0.032843
220
-0.753513
230
0.656612
 50
358.360663
 51
88.360663
1001
ACAD
1000
R13OBJECT
1002
{
1005
31D
1002
}
  0
ARC
  5
A71
  8
TEAM-NET
 10
0.25448
 20
707.525205
 30
544.181597
 40
10.0
210
-0.0
220
0.656966
230
0.75392
 50
181.882117
 51
1.882117
1001
ACAD
1000
R13OBJECT
1002
{
1005
31D
1002
}
  0
ARC
  5
A72
  8
TEAM-NET
 10
169.061043
 20
868.875514
 30
23.491761
 40
1.0
210
-0.999461
220
-0.024761
230
0.021577
 50
131.053616
 51
221.053616
1001
ACAD
1000
R13OBJECT
1002
{
1005
31D
1002
}
  0
ARC
  5
31E
  8
TEAM-NET
 10
0.25448
 20
707.525205
 30
535.181597
 40
8.0
210
0.0
220
0.656966
230
0.75392
 50
181.882117
 51
1.882117
  0
ARC
  5
A73
  8
TEAM-NET
 10
0.25448
 20
707.525205
 30
535.181597
 40
8.0
210
0.0
220
0.656966
230
0.75392
 50
1.882117
 51
181.882117
1001
ACAD
1000
R13OBJECT
1002
{
1005
31E
1002
}
  0
ARC
  5
A74
  8
TEAM-NET
 10
0.25448
 20
707.525205
 30
535.181597
 40
9.0
210
0.0
220
0.656966
230
0.75392
 50
181.882117
 51
1.882117
1001
ACAD
1000
R13OBJECT
1002
{
1005
31E
1002
}
  0
ARC
  5
A75
  8
TEAM-NET
 10
0.25448
 20
707.525205
 30
535.181597
 40
9.0
210
0.0
220
0.656966
230
0.75392
 50
1.882117
 51
181.882117
1001
ACAD
1000
R13OBJECT
1002
{
1005
31E
1002
}
  0
ARC
  5
31F
  8
TEAM-NET
 10
17.139423
 20
536.891665
 30
-707.135148
 40
1.0
210
-0.032843
220
0.753513
230
-0.656612
 50
271.639337
 51
1.639337
  0
ARC
  5
A76
  8
TEAM-NET
 10
-0.25448
 20
707.525205
 30
-536.181597
 40
10.0
210
-0.0
220
-0.656966
230
-0.75392
 50
178.117883
 51
358.117883
1001
ACAD
1000
R13OBJECT
1002
{
1005
31F
1002
}
  0
ARC
  5
A77
  8
TEAM-NET
 10
0.85321
 20
536.376723
 30
707.135148
 40
1.0
210
0.032843
220
-0.753513
230
0.656612
 50
268.360663
 51
358.360663
1001
ACAD
1000
R13OBJECT
1002
{
1005
31F
1002
}
  0
ARC
  5
A78
  8
TEAM-NET
 10
0.25448
 20
707.525205
 30
535.181597
 40
9.0
210
0.0
220
0.656966
230
0.75392
 50
181.882117
 51
1.882117
1001
ACAD
1000
R13OBJECT
1002
{
1005
31F
1002
}
  0
ARC
  5
A79
  8
TEAM-NET
 10
174.315163
 20
862.842752
 30
23.491761
 40
1.0
210
-0.999461
220
-0.024761
230
0.021577
 50
221.053616
 51
311.053616
1001
ACAD
1000
R13OBJECT
1002
{
1005
31F
1002
}
  0
ARC
  5
320
  8
TEAM-NET
 10
17.139423
 20
536.891665
 30
-707.135148
 40
1.0
210
-0.032843
220
0.753513
230
-0.656612
 50
271.639337
 51
1.639337
  0
ARC
  5
A7A
  8
TEAM-NET
 10
0.25448
 20
707.525205
 30
535.181597
 40
9.0
210
0.0
220
0.656966
230
0.75392
 50
1.882117
 51
181.882117
1001
ACAD
1000
R13OBJECT
1002
{
1005
320
1002
}
  0
ARC
  5
A7B
  8
TEAM-NET
 10
0.85321
 20
536.376723
 30
707.135148
 40
1.0
210
0.032843
220
-0.753513
230
0.656612
 50
268.360663
 51
358.360663
1001
ACAD
1000
R13OBJECT
1002
{
1005
320
1002
}
  0
ARC
  5
A7C
  8
TEAM-NET
 10
-0.25448
 20
707.525205
 30
-536.181597
 40
10.0
210
-0.0
220
-0.656966
230
-0.75392
 50
358.117883
 51
178.117883
1001
ACAD
1000
R13OBJECT
1002
{
1005
320
1002
}
  0
ARC
  5
A7D
  8
TEAM-NET
 10
-187.888879
 20
874.664521
 30
-23.491761
 40
1.0
210
0.999461
220
0.024761
230
-0.021577
 50
138.946384
 51
228.946384
1001
ACAD
1000
R13OBJECT
1002
{
1005
320
1002
}
  0
LINE
  5
321
  8
TEAM-NET
 10
-10.249085
 20
-176.155775
 30
875.30539
 11
-10.249085
 21
-181.411507
 31
869.274032
  0
ARC
  5
A7E
  8
TEAM-NET
 10
0.25448
 20
707.525205
 30
544.181597
 40
10.0
210
-0.0
220
0.656966
230
0.75392
 50
181.882117
 51
1.882117
1001
ACAD
1000
R13OBJECT
1002
{
1005
321
1002
}
  0
LINE
  5
A7F
  8
TEAM-NET
 10
9.740126
 20
-175.660552
 30
874.873852
 11
9.740126
 21
-180.916283
 31
868.842494
1001
ACAD
1000
R13OBJECT
1002
{
1005
321
1002
}
  0
ARC
  5
A80
  8
TEAM-NET
 10
-0.25448
 20
707.525205
 30
-536.181597
 40
10.0
210
-0.0
220
-0.656966
230
-0.75392
 50
178.117883
 51
358.117883
1001
ACAD
1000
R13OBJECT
1002
{
1005
321
1002
}
  0
LINE
  5
A81
  8
TEAM-NET
 10
-0.582912
 20
-173.628765
 30
862.492142
 11
-0.582912
 21
-168.373033
 31
868.5235
1001
ACAD
1000
R13OBJECT
1002
{
1005
321
1002
}
  0
LINE
  5
322
  8
TEAM-NET
 10
-8.250164
 20
-182.018951
 30
868.476958
 11
-8.250164
 21
-175.449286
 31
876.016156
  0
ARC
  5
A82
  8
TEAM-NET
 10
0.25448
 20
707.525205
 30
535.181597
 40
8.0
210
0.0
220
0.656966
230
0.75392
 50
181.882117
 51
1.882117
1001
ACAD
1000
R13OBJECT
1002
{
1005
322
1002
}
  0
LINE
  5
A83
  8
TEAM-NET
 10
7.741205
 20
-181.622772
 30
868.131728
 11
7.741205
 21
-175.053107
 31
875.670926
1001
ACAD
1000
R13OBJECT
1002
{
1005
322
1002
}
  0
ARC
  5
A84
  8
TEAM-NET
 10
-0.25448
 20
707.525205
 30
-545.181597
 40
8.0
210
0.0
220
-0.656966
230
-0.75392
 50
178.117883
 51
358.117883
1001
ACAD
1000
R13OBJECT
1002
{
1005
322
1002
}
  0
LINE
  5
323
  8
TEAM-NET
 10
-225.892236
 20
-24.14111
 30
872.711059
 11
-225.892236
 21
-24.913483
 31
866.420587
210
-1.0
220
0.0
230
0.0
  0
LINE
  5
324
  8
TEAM-NET
 10
-225.892236
 20
0.0
 30
872.711059
 11
-225.892236
 21
-24.14111
 31
872.711059
210
-1.0
220
0.0
230
0.0
  0
LINE
  5
325
  8
TEAM-NET
 10
224.107764
 20
-24.913483
 30
866.420587
 11
224.107764
 21
-24.14111
 31
872.711059
210
1.0
220
0.0
230
0.0
  0
LINE
  5
326
  8
TEAM-NET
 10
224.107764
 20
-24.14111
 30
872.711059
 11
224.107764
 21
0.0
 31
872.711059
210
1.0
220
0.0
230
0.0
  0
LINE
  5
327
  8
TEAM-NET
 10
217.107764
 20
-31.861306
 30
867.273672
 11
192.259203
 21
-31.861306
 31
867.273672
210
0.0
220
-0.992546
230
0.121869
  0
LINE
  5
328
  8
TEAM-NET
 10
-218.892236
 20
-31.861306
 30
867.273672
 11
-194.043674
 21
-31.861306
 31
867.273672
210
0.0
220
-0.992546
230
0.121869
  0
LINE
  5
329
  8
TEAM-NET
 10
217.107764
 20
-31.088933
 30
873.564144
 11
217.107764
 21
-31.861306
 31
867.273672
210
0.0
220
-0.992546
230
0.121869
  0
LINE
  5
32A
  8
TEAM-NET
 10
-218.892236
 20
-31.861306
 30
867.273672
 11
-218.892236
 21
-31.088933
 31
873.564144
210
0.0
220
-0.992546
230
0.121869
  0
LINE
  5
32B
  8
TEAM-NET
 10
-218.892236
 20
-31.088933
 30
873.564144
 11
217.107764
 21
-31.088933
 31
873.564144
210
0.0
220
-0.992546
230
0.121869
  0
ARC
  5
32C
  8
TEAM-NET
 10
217.107764
 20
130.317889
 30
-856.926229
 40
7.0
210
0.0
220
-0.121869
230
-0.992546
 50
0.0
 51
90.0
  0
ARC
  5
32D
  8
TEAM-NET
 10
-218.892236
 20
130.317889
 30
-856.926229
 40
7.0
210
0.0
220
-0.121869
230
-0.992546
 50
90.0
 51
180.0
  0
LINE
  5
32E
  8
TEAM-NET
 10
-218.892236
 20
-31.861306
 30
867.273672
 11
-194.043674
 21
-31.861306
 31
867.273672
  0
LINE
  5
32F
  8
TEAM-NET
 10
217.107764
 20
-31.861306
 30
867.273672
 11
192.259203
 21
-31.861306
 31
867.273672
  0
LINE
  5
330
  8
TEAM-NET
 10
-218.892236
 20
-24.14111
 30
879.711059
 11
-218.892236
 21
0.0
 31
879.711059
  0
LINE
  5
331
  8
TEAM-NET
 10
217.107764
 20
-24.14111
 30
879.711059
 11
-218.892236
 21
-24.14111
 31
879.711059
  0
LINE
  5
332
  8
TEAM-NET
 10
-218.892236
 20
0.0
 30
879.711059
 11
217.107764
 21
0.0
 31
879.711059
  0
LINE
  5
333
  8
TEAM-NET
 10
217.107764
 20
0.0
 30
879.711059
 11
217.107764
 21
-24.14111
 31
879.711059
  0
LINE
  5
334
  8
TEAM-NET
 10
217.107764
 20
0.0
 30
879.711059
 11
217.107764
 21
-24.14111
 31
879.711059
  0
LINE
  5
335
  8
TEAM-NET
 10
217.107764
 20
-24.14111
 30
879.711059
 11
-218.892236
 21
-24.14111
 31
879.711059
  0
LINE
  5
336
  8
TEAM-NET
 10
-218.892236
 20
-24.14111
 30
879.711059
 11
-218.892236
 21
0.0
 31
879.711059
  0
LINE
  5
337
  8
TEAM-NET
 10
1.817257
 20
-47.886296
 30
890.634536
 11
1.817257
 21
-47.70006
 31
891.62629
  0
POLYLINE
  5
A85
  8
TEAM-NET
 66
     1
 10
0.0
 20
0.0
 30
0.0
 70
     8
1001
ACAD
1000
R13OBJECT
1002
{
1005
337
1002
}
  0
VERTEX
  5
A86
  8
TEAM-NET
 10
0.817257
 20
-48.072103
 30
889.645063
 70
    32
  0
VERTEX
  5
A87
  8
TEAM-NET
 10
1.039713
 20
-48.067441
 30
889.669891
 70
    32
  0
VERTEX
  5
A88
  8
TEAM-NET
 10
1.250953
 20
-48.053712
 30
889.743003
 70
    32
  0
VERTEX
  5
A89
  8
TEAM-NET
 10
1.441252
 20
-48.031491
 30
889.861334
 70
    32
  0
VERTEX
  5
A8A
  8
TEAM-NET
 10
1.692807
 20
-47.976042
 30
890.156616
 70
    32
  0
VERTEX
  5
A8B
  8
TEAM-NET
 10
1.718525
 20
-47.966775
 30
890.205963
 70
    32
  0
VERTEX
  5
A8C
  8
TEAM-NET
 10
1.79215
 20
-47.92761
 30
890.414524
 70
    32
  0
VERTEX
  5
A8D
  8
TEAM-NET
 10
1.817257
 20
-47.886296
 30
890.634536
 70
    32
  0
SEQEND
  5
A8E
  8
TEAM-NET
  0
LINE
  5
A8F
  8
TEAM-NET
 10
-1.182743
 20
-48.072103
 30
889.645063
 11
0.817257
 21
-48.072103
 31
889.645063
1001
ACAD
1000
R13OBJECT
1002
{
1005
337
1002
}
  0
POLYLINE
  5
A90
  8
TEAM-NET
 66
     1
 10
0.0
 20
0.0
 30
0.0
 70
     8
1001
ACAD
1000
R13OBJECT
1002
{
1005
337
1002
}
  0
VERTEX
  5
A91
  8
TEAM-NET
 10
-2.182743
 20
-47.886296
 30
890.634536
 70
    32
  0
VERTEX
  5
A92
  8
TEAM-NET
 10
-2.176514
 20
-47.907008
 30
890.524236
 70
    32
  0
VERTEX
  5
A93
  8
TEAM-NET
 10
-2.157698
 20
-47.927584
 30
890.414663
 70
    32
  0
VERTEX
  5
A94
  8
TEAM-NET
 10
-2.084214
 20
-47.966706
 30
890.206329
 70
    32
  0
VERTEX
  5
A95
  8
TEAM-NET
 10
-1.965065
 20
-48.002005
 30
890.018354
 70
    32
  0
VERTEX
  5
A96
  8
TEAM-NET
 10
-1.928899
 20
-48.009971
 30
889.975936
 70
    32
  0
VERTEX
  5
A97
  8
TEAM-NET
 10
-1.806924
 20
-48.031434
 30
889.861639
 70
    32
  0
VERTEX
  5
A98
  8
TEAM-NET
 10
-1.616486
 20
-48.053695
 30
889.743089
 70
    32
  0
VERTEX
  5
A99
  8
TEAM-NET
 10
-1.40527
 20
-48.067424
 30
889.669983
 70
    32
  0
VERTEX
  5
A9A
  8
TEAM-NET
 10
-1.182743
 20
-48.072103
 30
889.645063
 70
    32
  0
SEQEND
  5
A9B
  8
TEAM-NET
  0
LINE
  5
A9C
  8
TEAM-NET
 10
-2.182743
 20
-47.70006
 30
891.62629
 11
-2.182743
 21
-47.886296
 31
890.634536
1001
ACAD
1000
R13OBJECT
1002
{
1005
337
1002
}
  0
LINE
  5
A9D
  8
TEAM-NET
 10
1.817257
 20
-47.70006
 30
891.62629
 11
-2.182743
 21
-47.70006
 31
891.62629
1001
ACAD
1000
R13OBJECT
1002
{
1005
337
1002
}
  0
ARC
  5
338
  8
TEAM-NET
 10
-48.682881
 20
891.810848
 30
1.817257
 40
1.0
210
1.0
220
-0.0
230
-0.0
 50
349.364593
 51
85.712041
  0
LINE
  5
A9E
  8
TEAM-NET
 10
1.817257
 20
-47.70006
 30
891.62629
 11
-2.182743
 21
-47.70006
 31
891.62629
1001
ACAD
1000
R13OBJECT
1002
{
1005
338
1002
}
  0
ARC
  5
A9F
  8
TEAM-NET
 10
48.682881
 20
891.810848
 30
2.182743
 40
1.0
210
-1.0
220
0.0
230
0.0
 50
94.287959
 51
190.635407
1001
ACAD
1000
R13OBJECT
1002
{
1005
338
1002
}
  0
LINE
  5
AA0
  8
TEAM-NET
 10
-2.182743
 20
-48.608112
 30
892.808049
 11
1.817257
 21
-48.608112
 31
892.808049
1001
ACAD
1000
R13OBJECT
1002
{
1005
338
1002
}
  0
LINE
  5
AA1
  8
TEAM-NET
 10
-2.182743
 20
-47.889935
 30
892.42014
 11
1.817257
 21
-47.889935
 31
892.42014
1001
ACAD
1000
R13OBJECT
1002
{
1005
338
1002
}
  0
ARC
  5
339
  8
TEAM-NET
 10
-48.682881
 20
891.810848
 30
1.817257
 40
1.0
210
1.0
220
-0.0
230
-0.0
 50
349.364593
 51
85.712041
  0
ARC
  5
AA2
  8
TEAM-NET
 10
-1.817257
 20
885.674573
 30
-115.226568
 40
1.0
210
-0.0
220
0.997201
230
-0.074769
 50
90.0
 51
180.0
1001
ACAD
1000
R13OBJECT
1002
{
1005
339
1002
}
  0
ARC
  5
AA3
  8
TEAM-NET
 10
1.817257
 20
212.43806
 30
-867.506013
 40
1.0
210
-0.0
220
-0.184559
230
-0.982821
 50
270.0
 51
360.0
1001
ACAD
1000
R13OBJECT
1002
{
1005
339
1002
}
  0
ARC
  5
AA4
  8
TEAM-NET
 10
-1.817257
 20
867.506013
 30
-212.43806
 40
1.0
210
-0.0
220
0.982821
230
-0.184559
 50
90.0
 51
180.0
1001
ACAD
1000
R13OBJECT
1002
{
1005
339
1002
}
  0
ARC
  5
AA5
  8
TEAM-NET
 10
-48.682881
 20
891.810848
 30
2.524363
 40
0.707107
210
1.0
220
-0.0
230
-0.0
 50
349.364593
 51
85.712041
1001
ACAD
1000
R13OBJECT
1002
{
1005
339
1002
}
  0
ARC
  5
33A
  8
TEAM-NET
 10
48.682881
 20
891.810848
 30
2.182743
 40
1.0
210
-1.0
220
0.0
230
0.0
 50
94.287959
 51
190.635407
  0
ARC
  5
AA6
  8
TEAM-NET
 10
-2.182743
 20
212.43806
 30
-867.506013
 40
1.0
210
0.0
220
-0.184559
230
-0.982821
 50
180.0
 51
270.0
1001
ACAD
1000
R13OBJECT
1002
{
1005
33A
1002
}
  0
ARC
  5
AA7
  8
TEAM-NET
 10
2.182743
 20
885.674573
 30
-115.226568
 40
1.0
210
0.0
220
0.997201
230
-0.074769
 50
360.0
 51
90.0
1001
ACAD
1000
R13OBJECT
1002
{
1005
33A
1002
}
  0
ARC
  5
AA8
  8
TEAM-NET
 10
2.182743
 20
867.506013
 30
-212.43806
 40
1.0
210
0.0
220
0.982821
230
-0.184559
 50
360.0
 51
90.0
1001
ACAD
1000
R13OBJECT
1002
{
1005
33A
1002
}
  0
ARC
  5
AA9
  8
TEAM-NET
 10
-48.682881
 20
891.810848
 30
-2.88985
 40
0.707107
210
1.0
220
-0.0
230
-0.0
 50
349.364593
 51
85.712041
1001
ACAD
1000
R13OBJECT
1002
{
1005
33A
1002
}
  0
ARC
  5
33B
  8
TEAM-NET
 10
-49.054925
 20
889.829621
 30
0.817257
 40
1.0
210
1.0
220
-0.0
230
-0.0
 50
266.21218
 51
349.364593
  0
LINE
  5
AAA
  8
TEAM-NET
 10
0.817257
 20
-49.120987
 30
888.831806
 11
-1.182743
 21
-49.120987
 31
888.831806
1001
ACAD
1000
R13OBJECT
1002
{
1005
33B
1002
}
  0
ARC
  5
AAB
  8
TEAM-NET
 10
49.054925
 20
889.829621
 30
1.182743
 40
1.0
210
-1.0
220
0.0
230
0.0
 50
190.635407
 51
273.78782
1001
ACAD
1000
R13OBJECT
1002
{
1005
33B
1002
}
  0
LINE
  5
AAC
  8
TEAM-NET
 10
-1.182743
 20
-48.072103
 30
889.645063
 11
0.817257
 21
-48.072103
 31
889.645063
1001
ACAD
1000
R13OBJECT
1002
{
1005
33B
1002
}
  0
LINE
  5
AAD
  8
TEAM-NET
 10
-1.182743
 20
-48.442178
 30
889.039342
 11
0.817257
 21
-48.442178
 31
889.039342
1001
ACAD
1000
R13OBJECT
1002
{
1005
33B
1002
}
  0
ARC
  5
33C
  8
TEAM-NET
 10
-1.817257
 20
212.43806
 30
866.496924
 40
1.0
210
0.0
220
0.184559
230
0.982821
 50
180.0
 51
270.0
  0
POLYLINE
  5
AAE
  8
TEAM-NET
 66
     1
 10
0.0
 20
0.0
 30
0.0
 70
     8
1001
ACAD
1000
R13OBJECT
1002
{
1005
33C
1002
}
  0
VERTEX
  5
AAF
  8
TEAM-NET
 10
2.817257
 20
-48.869117
 30
890.819094
 70
    32
  0
VERTEX
  5
AB0
  8
TEAM-NET
 10
2.767044
 20
-48.92633
 30
890.377232
 70
    32
  0
VERTEX
  5
AB1
  8
TEAM-NET
 10
2.619793
 20
-48.979949
 30
889.958355
 70
    32
  0
VERTEX
  5
AB2
  8
TEAM-NET
 10
2.568357
 20
-48.992546
 30
889.859245
 70
    32
  0
VERTEX
  5
AB3
  8
TEAM-NET
 10
2.065248
 20
-49.067171
 30
889.266185
 70
    32
  0
VERTEX
  5
AB4
  8
TEAM-NET
 10
1.68465
 20
-49.096706
 30
889.028519
 70
    32
  0
VERTEX
  5
AB5
  8
TEAM-NET
 10
1.26217
 20
-49.114846
 30
888.881675
 70
    32
  0
VERTEX
  5
AB6
  8
TEAM-NET
 10
0.817257
 20
-49.120987
 30
888.831806
 70
    32
  0
SEQEND
  5
AB7
  8
TEAM-NET
  0
ARC
  5
AB8
  8
TEAM-NET
 10
-49.054925
 20
889.829621
 30
0.817257
 40
1.0
210
1.0
220
-0.0
230
-0.0
 50
266.21218
 51
349.364593
1001
ACAD
1000
R13OBJECT
1002
{
1005
33C
1002
}
  0
POLYLINE
  5
AB9
  8
TEAM-NET
 66
     1
 10
0.0
 20
0.0
 30
0.0
 70
     8
1001
ACAD
1000
R13OBJECT
1002
{
1005
33C
1002
}
  0
VERTEX
  5
ABA
  8
TEAM-NET
 10
0.817257
 20
-48.072103
 30
889.645063
 70
    32
  0
VERTEX
  5
ABB
  8
TEAM-NET
 10
1.039713
 20
-48.067441
 30
889.669891
 70
    32
  0
VERTEX
  5
ABC
  8
TEAM-NET
 10
1.250953
 20
-48.053712
 30
889.743003
 70
    32
  0
VERTEX
  5
ABD
  8
TEAM-NET
 10
1.441252
 20
-48.031491
 30
889.861334
 70
    32
  0
VERTEX
  5
ABE
  8
TEAM-NET
 10
1.692807
 20
-47.976042
 30
890.156616
 70
    32
  0
VERTEX
  5
ABF
  8
TEAM-NET
 10
1.718525
 20
-47.966775
 30
890.205963
 70
    32
  0
VERTEX
  5
AC0
  8
TEAM-NET
 10
1.79215
 20
-47.92761
 30
890.414524
 70
    32
  0
VERTEX
  5
AC1
  8
TEAM-NET
 10
1.817257
 20
-47.886296
 30
890.634536
 70
    32
  0
SEQEND
  5
AC2
  8
TEAM-NET
  0
ARC
  5
33D
  8
TEAM-NET
 10
1.817257
 20
212.43806
 30
-867.506013
 40
1.0
210
-0.0
220
-0.184559
230
-0.982821
 50
270.0
 51
360.0
  0
LINE
  5
AC3
  8
TEAM-NET
 10
2.817257
 20
-48.682881
 30
891.810848
 11
2.817257
 21
-48.869117
 31
890.819094
1001
ACAD
1000
R13OBJECT
1002
{
1005
33D
1002
}
  0
ARC
  5
AC4
  8
TEAM-NET
 10
-1.817257
 20
212.43806
 30
866.496924
 40
1.0
210
0.0
220
0.184559
230
0.982821
 50
180.0
 51
270.0
1001
ACAD
1000
R13OBJECT
1002
{
1005
33D
1002
}
  0
LINE
  5
AC5
  8
TEAM-NET
 10
1.817257
 20
-47.886296
 30
890.634536
 11
1.817257
 21
-47.70006
 31
891.62629
1001
ACAD
1000
R13OBJECT
1002
{
1005
33D
1002
}
  0
LINE
  5
AC6
  8
TEAM-NET
 10
2.524363
 20
-47.987921
 30
891.680346
 11
2.524363
 21
-48.174157
 31
890.688592
1001
ACAD
1000
R13OBJECT
1002
{
1005
33D
1002
}
  0
ARC
  5
33E
  8
TEAM-NET
 10
49.054925
 20
889.829621
 30
1.182743
 40
1.0
210
-1.0
220
0.0
230
0.0
 50
190.635407
 51
273.78782
  0
POLYLINE
  5
AC7
  8
TEAM-NET
 66
     1
 10
0.0
 20
0.0
 30
0.0
 70
     8
1001
ACAD
1000
R13OBJECT
1002
{
1005
33E
1002
}
  0
VERTEX
  5
AC8
  8
TEAM-NET
 10
-1.182743
 20
-49.120987
 30
888.831806
 70
    32
  0
VERTEX
  5
AC9
  8
TEAM-NET
 10
-1.627797
 20
-49.114823
 30
888.881858
 70
    32
  0
VERTEX
  5
ACA
  8
TEAM-NET
 10
-2.050229
 20
-49.096684
 30
889.028692
 70
    32
  0
VERTEX
  5
ACB
  8
TEAM-NET
 10
-2.431104
 20
-49.067093
 30
889.266797
 70
    32
  0
VERTEX
  5
ACC
  8
TEAM-NET
 10
-2.675054
 20
-49.038361
 30
889.496359
 70
    32
  0
VERTEX
  5
ACD
  8
TEAM-NET
 10
-2.747387
 20
-49.027649
 30
889.581553
 70
    32
  0
VERTEX
  5
ACE
  8
TEAM-NET
 10
-2.985685
 20
-48.979856
 30
889.959092
 70
    32
  0
VERTEX
  5
ACF
  8
TEAM-NET
 10
-3.132652
 20
-48.926295
 30
890.377511
 70
    32
  0
VERTEX
  5
AD0
  8
TEAM-NET
 10
-3.170285
 20
-48.897882
 30
890.597574
 70
    32
  0
VERTEX
  5
AD1
  8
TEAM-NET
 10
-3.182743
 20
-48.869117
 30
890.819094
 70
    32
  0
SEQEND
  5
AD2
  8
TEAM-NET
  0
ARC
  5
AD3
  8
TEAM-NET
 10
2.182743
 20
212.43806
 30
866.496924
 40
1.0
210
-0.0
220
0.184559
230
0.982821
 50
270.0
 51
360.0
1001
ACAD
1000
R13OBJECT
1002
{
1005
33E
1002
}
  0
POLYLINE
  5
AD4
  8
TEAM-NET
 66
     1
 10
0.0
 20
0.0
 30
0.0
 70
     8
1001
ACAD
1000
R13OBJECT
1002
{
1005
33E
1002
}
  0
VERTEX
  5
AD5
  8
TEAM-NET
 10
-2.182743
 20
-47.886296
 30
890.634536
 70
    32
  0
VERTEX
  5
AD6
  8
TEAM-NET
 10
-2.176514
 20
-47.907008
 30
890.524236
 70
    32
  0
VERTEX
  5
AD7
  8
TEAM-NET
 10
-2.157698
 20
-47.927584
 30
890.414663
 70
    32
  0
VERTEX
  5
AD8
  8
TEAM-NET
 10
-2.084214
 20
-47.966706
 30
890.206329
 70
    32
  0
VERTEX
  5
AD9
  8
TEAM-NET
 10
-1.965065
 20
-48.002005
 30
890.018354
 70
    32
  0
VERTEX
  5
ADA
  8
TEAM-NET
 10
-1.928899
 20
-48.009971
 30
889.975936
 70
    32
  0
VERTEX
  5
ADB
  8
TEAM-NET
 10
-1.806924
 20
-48.031434
 30
889.861639
 70
    32
  0
VERTEX
  5
ADC
  8
TEAM-NET
 10
-1.616486
 20
-48.053695
 30
889.743089
 70
    32
  0
VERTEX
  5
ADD
  8
TEAM-NET
 10
-1.40527
 20
-48.067424
 30
889.669983
 70
    32
  0
VERTEX
  5
ADE
  8
TEAM-NET
 10
-1.182743
 20
-48.072103
 30
889.645063
 70
    32
  0
SEQEND
  5
ADF
  8
TEAM-NET
  0
ARC
  5
33F
  8
TEAM-NET
 10
-2.182743
 20
212.43806
 30
-867.506013
 40
1.0
210
0.0
220
-0.184559
230
-0.982821
 50
180.0
 51
270.0
  0
LINE
  5
AE0
  8
TEAM-NET
 10
-2.182743
 20
-47.70006
 30
891.62629
 11
-2.182743
 21
-47.886296
 31
890.634536
1001
ACAD
1000
R13OBJECT
1002
{
1005
33F
1002
}
  0
ARC
  5
AE1
  8
TEAM-NET
 10
2.182743
 20
212.43806
 30
866.496924
 40
1.0
210
-0.0
220
0.184559
230
0.982821
 50
270.0
 51
360.0
1001
ACAD
1000
R13OBJECT
1002
{
1005
33F
1002
}
  0
LINE
  5
AE2
  8
TEAM-NET
 10
-3.182743
 20
-48.869117
 30
890.819094
 11
-3.182743
 21
-48.682881
 31
891.810848
1001
ACAD
1000
R13OBJECT
1002
{
1005
33F
1002
}
  0
LINE
  5
AE3
  8
TEAM-NET
 10
-2.88985
 20
-47.987921
 30
891.680346
 11
-2.88985
 21
-48.174157
 31
890.688592
1001
ACAD
1000
R13OBJECT
1002
{
1005
33F
1002
}
  0
LINE
  5
340
  8
TEAM-NET
 10
-218.892236
 20
0.0
 30
879.711059
 11
217.107764
 21
0.0
 31
879.711059
210
0.0
220
1.0
230
0.0
  0
LINE
  5
341
  8
TEAM-NET
 10
-5.677788
 20
-106.175263
 30
937.926857
 11
-5.677788
 21
-99.351578
 31
929.479549
  0
LINE
  5
AE4
  8
TEAM-NET
 10
-5.677788
 20
-99.351578
 30
929.479549
 11
5.668249
 21
-99.351578
 31
929.479549
1001
ACAD
1000
R13OBJECT
1002
{
1005
341
1002
}
  0
LINE
  5
AE5
  8
TEAM-NET
 10
5.668249
 20
-99.351578
 30
929.479549
 11
5.668249
 21
-106.175263
 31
937.926857
1001
ACAD
1000
R13OBJECT
1002
{
1005
341
1002
}
  0
LINE
  5
AE6
  8
TEAM-NET
 10
5.668249
 20
-106.175263
 30
937.926857
 11
-5.677788
 21
-106.175263
 31
937.926857
1001
ACAD
1000
R13OBJECT
1002
{
1005
341
1002
}
  0
ARC
  5
AE7
  8
TEAM-NET
 10
0.182743
 20
790.798531
 30
506.785167
 40
14.0
210
0.0
220
0.777902
230
0.628385
 50
360.0
 51
180.0
1001
ACAD
1000
R13OBJECT
1002
{
1005
341
1002
}
  0
ARC
  5
AE8
  8
TEAM-NET
 10
0.182743
 20
790.798531
 30
506.785167
 40
14.0
210
0.0
220
0.777902
230
0.628385
 50
180.0
 51
360.0
1001
ACAD
1000
R13OBJECT
1002
{
1005
341
1002
}
  0
ARC
  5
342
  8
TEAM-NET
 10
0.182743
 20
790.798531
 30
504.785167
 40
4.68381
210
0.0
220
0.777902
230
0.628385
 50
180.0
 51
360.0
  0
ARC
  5
AE9
  8
TEAM-NET
 10
0.182743
 20
790.798531
 30
504.785167
 40
4.68381
210
0.0
220
0.777902
230
0.628385
 50
0.0
 51
180.0
1001
ACAD
1000
R13OBJECT
1002
{
1005
342
1002
}
  0
LINE
  5
AEA
  8
TEAM-NET
 10
-5.677788
 20
-100.907383
 30
928.222779
 11
-5.677788
 21
-107.731068
 31
936.670087
1001
ACAD
1000
R13OBJECT
1002
{
1005
342
1002
}
  0
LINE
  5
AEB
  8
TEAM-NET
 10
-5.677788
 20
-107.731068
 30
936.670087
 11
5.668249
 21
-107.731068
 31
936.670087
1001
ACAD
1000
R13OBJECT
1002
{
1005
342
1002
}
  0
LINE
  5
AEC
  8
TEAM-NET
 10
5.668249
 20
-107.731068
 30
936.670087
 11
5.668249
 21
-100.907383
 31
928.222779
1001
ACAD
1000
R13OBJECT
1002
{
1005
342
1002
}
  0
LINE
  5
AED
  8
TEAM-NET
 10
5.668249
 20
-100.907383
 30
928.222779
 11
-5.677788
 21
-100.907383
 31
928.222779
1001
ACAD
1000
R13OBJECT
1002
{
1005
342
1002
}
  0
LINE
  5
343
  8
TEAM-NET
 10
5.668249
 20
-100.907383
 30
928.222779
 11
-5.677788
 21
-100.907383
 31
928.222779
  0
LINE
  5
AEE
  8
TEAM-NET
 10
5.668249
 20
-99.351578
 30
929.479549
 11
5.668249
 21
-100.907383
 31
928.222779
1001
ACAD
1000
R13OBJECT
1002
{
1005
343
1002
}
  0
LINE
  5
AEF
  8
TEAM-NET
 10
-5.677788
 20
-99.351578
 30
929.479549
 11
5.668249
 21
-99.351578
 31
929.479549
1001
ACAD
1000
R13OBJECT
1002
{
1005
343
1002
}
  0
LINE
  5
AF0
  8
TEAM-NET
 10
-5.677788
 20
-99.351578
 30
929.479549
 11
-5.677788
 21
-100.907383
 31
928.222779
1001
ACAD
1000
R13OBJECT
1002
{
1005
343
1002
}
  0
LINE
  5
344
  8
TEAM-NET
 10
5.668249
 20
-107.731068
 30
936.670087
 11
5.668249
 21
-100.907383
 31
928.222779
  0
LINE
  5
AF1
  8
TEAM-NET
 10
5.668249
 20
-106.175263
 30
937.926857
 11
5.668249
 21
-107.731068
 31
936.670087
1001
ACAD
1000
R13OBJECT
1002
{
1005
344
1002
}
  0
LINE
  5
AF2
  8
TEAM-NET
 10
5.668249
 20
-99.351578
 30
929.479549
 11
5.668249
 21
-106.175263
 31
937.926857
1001
ACAD
1000
R13OBJECT
1002
{
1005
344
1002
}
  0
LINE
  5
AF3
  8
TEAM-NET
 10
5.668249
 20
-99.351578
 30
929.479549
 11
5.668249
 21
-100.907383
 31
928.222779
1001
ACAD
1000
R13OBJECT
1002
{
1005
344
1002
}
  0
LINE
  5
345
  8
TEAM-NET
 10
-5.677788
 20
-107.731068
 30
936.670087
 11
5.668249
 21
-107.731068
 31
936.670087
  0
LINE
  5
AF4
  8
TEAM-NET
 10
-5.677788
 20
-106.175263
 30
937.926857
 11
-5.677788
 21
-107.731068
 31
936.670087
1001
ACAD
1000
R13OBJECT
1002
{
1005
345
1002
}
  0
LINE
  5
AF5
  8
TEAM-NET
 10
5.668249
 20
-106.175263
 30
937.926857
 11
-5.677788
 21
-106.175263
 31
937.926857
1001
ACAD
1000
R13OBJECT
1002
{
1005
345
1002
}
  0
LINE
  5
AF6
  8
TEAM-NET
 10
5.668249
 20
-106.175263
 30
937.926857
 11
5.668249
 21
-107.731068
 31
936.670087
1001
ACAD
1000
R13OBJECT
1002
{
1005
345
1002
}
  0
LINE
  5
346
  8
TEAM-NET
 10
-5.677788
 20
-100.907383
 30
928.222779
 11
-5.677788
 21
-107.731068
 31
936.670087
  0
LINE
  5
AF7
  8
TEAM-NET
 10
-5.677788
 20
-99.351578
 30
929.479549
 11
-5.677788
 21
-100.907383
 31
928.222779
1001
ACAD
1000
R13OBJECT
1002
{
1005
346
1002
}
  0
LINE
  5
AF8
  8
TEAM-NET
 10
-5.677788
 20
-106.175263
 30
937.926857
 11
-5.677788
 21
-99.351578
 31
929.479549
1001
ACAD
1000
R13OBJECT
1002
{
1005
346
1002
}
  0
LINE
  5
AF9
  8
TEAM-NET
 10
-5.677788
 20
-106.175263
 30
937.926857
 11
-5.677788
 21
-107.731068
 31
936.670087
1001
ACAD
1000
R13OBJECT
1002
{
1005
346
1002
}
  0
ARC
  5
347
  8
TEAM-NET
 10
-0.182743
 20
65.310024
 30
949.212533
 40
22.0
210
-0.0
220
-0.173648
230
0.984808
 50
90.0
 51
270.0
  0
ARC
  5
AFA
  8
TEAM-NET
 10
-0.182743
 20
65.310024
 30
949.212533
 40
22.0
210
0.0
220
-0.173648
230
0.984808
 50
270.0
 51
90.0
1001
ACAD
1000
R13OBJECT
1002
{
1005
347
1002
}
  0
ARC
  5
AFB
  8
TEAM-NET
 10
0.182743
 20
65.310024
 30
-949.212533
 40
22.5
210
0.0
220
0.173648
230
-0.984808
 50
90.0
 51
270.0
1001
ACAD
1000
R13OBJECT
1002
{
1005
347
1002
}
  0
ARC
  5
AFC
  8
TEAM-NET
 10
0.182743
 20
65.310024
 30
-949.212533
 40
22.5
210
-0.0
220
0.173648
230
-0.984808
 50
270.0
 51
90.0
1001
ACAD
1000
R13OBJECT
1002
{
1005
347
1002
}
  0
ARC
  5
348
  8
TEAM-NET
 10
0.182743
 20
973.8111
 30
-134.285406
 40
4.0
210
-0.0
220
0.99952
230
-0.030984
 50
208.695233
 51
28.695233
  0
ARC
  5
AFD
  8
TEAM-NET
 10
0.182743
 20
973.8111
 30
-134.285406
 40
4.0
210
-0.0
220
0.99952
230
-0.030984
 50
28.695233
 51
208.695233
1001
ACAD
1000
R13OBJECT
1002
{
1005
348
1002
}
  0
ARC
  5
349
  8
TEAM-NET
 10
0.182743
 20
973.8111
 30
-209.285406
 40
2.0
210
0.0
220
0.99952
230
-0.030984
 50
208.695233
 51
28.695233
  0
ARC
  5
AFE
  8
TEAM-NET
 10
0.182743
 20
973.8111
 30
-209.285406
 40
2.0
210
0.0
220
0.99952
230
-0.030984
 50
28.695233
 51
208.695233
1001
ACAD
1000
R13OBJECT
1002
{
1005
349
1002
}
  0
LINE
  5
34A
  8
TEAM-NET
 10
-3.691488
 20
-176.953603
 30
981.685803
 11
-3.691488
 21
-103.988652
 31
979.423955
  0
ARC
  5
AFF
  8
TEAM-NET
 10
0.182743
 20
973.8111
 30
-134.285406
 40
4.0
210
-0.0
220
0.99952
230
-0.030984
 50
208.695233
 51
28.695233
1001
ACAD
1000
R13OBJECT
1002
{
1005
34A
1002
}
  0
LINE
  5
B00
  8
TEAM-NET
 10
3.326001
 20
-177.07262
 30
977.846443
 11
3.326001
 21
-104.107669
 31
975.584595
1001
ACAD
1000
R13OBJECT
1002
{
1005
34A
1002
}
  0
ARC
  5
B01
  8
TEAM-NET
 10
-0.182743
 20
973.8111
 30
207.285406
 40
4.0
210
0.0
220
-0.99952
230
0.030984
 50
151.304767
 51
331.304767
1001
ACAD
1000
R13OBJECT
1002
{
1005
34A
1002
}
  0
LINE
  5
B02
  8
TEAM-NET
 10
-2.103345
 20
-104.156876
 30
973.997215
 11
-2.103345
 21
-177.121827
 31
976.259063
1001
ACAD
1000
R13OBJECT
1002
{
1005
34A
1002
}
  0
ARC
  5
34B
  8
TEAM-NET
 10
-176.591023
 20
482.115074
 30
854.125834
 40
2.0
210
0.480151
220
0.027179
230
0.876765
 50
86.306042
 51
176.306042
  0
ARC
  5
B03
  8
TEAM-NET
 10
0.182743
 20
973.8111
 30
-209.285406
 40
2.0
210
0.0
220
0.99952
230
-0.030984
 50
28.695233
 51
208.695233
1001
ACAD
1000
R13OBJECT
1002
{
1005
34B
1002
}
  0
ARC
  5
B04
  8
TEAM-NET
 10
176.848731
 20
478.123385
 30
-854.125834
 40
2.0
210
-0.480151
220
-0.027179
230
-0.876765
 50
273.693958
 51
3.693958
1001
ACAD
1000
R13OBJECT
1002
{
1005
34B
1002
}
  0
ARC
  5
B05
  8
TEAM-NET
 10
-0.182743
 20
973.8111
 30
207.285406
 40
4.0
210
0.0
220
-0.99952
230
0.030984
 50
331.304767
 51
151.304767
1001
ACAD
1000
R13OBJECT
1002
{
1005
34B
1002
}
  0
ARC
  5
34C
  8
TEAM-NET
 10
-176.591023
 20
482.115074
 30
854.125834
 40
2.0
210
0.480151
220
0.027179
230
0.876765
 50
86.306042
 51
176.306042
  0
ARC
  5
B06
  8
TEAM-NET
 10
-0.182743
 20
973.8111
 30
207.285406
 40
4.0
210
0.0
220
-0.99952
230
0.030984
 50
151.304767
 51
331.304767
1001
ACAD
1000
R13OBJECT
1002
{
1005
34C
1002
}
  0
ARC
  5
B07
  8
TEAM-NET
 10
176.848731
 20
478.123385
 30
-854.125834
 40
2.0
210
-0.480151
220
-0.027179
230
-0.876765
 50
273.693958
 51
3.693958
1001
ACAD
1000
R13OBJECT
1002
{
1005
34C
1002
}
  0
ARC
  5
B08
  8
TEAM-NET
 10
0.182743
 20
973.8111
 30
-209.285406
 40
2.0
210
0.0
220
0.99952
230
-0.030984
 50
208.695233
 51
28.695233
1001
ACAD
1000
R13OBJECT
1002
{
1005
34C
1002
}
  0
LINE
  5
34D
  8
TEAM-NET
 10
-3.691488
 20
-176.953603
 30
981.685803
 11
-3.691488
 21
-103.988652
 31
979.423955
  0
ARC
  5
B09
  8
TEAM-NET
 10
-0.182743
 20
973.8111
 30
207.285406
 40
4.0
210
0.0
220
-0.99952
230
0.030984
 50
331.304767
 51
151.304767
1001
ACAD
1000
R13OBJECT
1002
{
1005
34D
1002
}
  0
LINE
  5
B0A
  8
TEAM-NET
 10
3.326001
 20
-177.07262
 30
977.846443
 11
3.326001
 21
-104.107669
 31
975.584595
1001
ACAD
1000
R13OBJECT
1002
{
1005
34D
1002
}
  0
ARC
  5
B0B
  8
TEAM-NET
 10
0.182743
 20
973.8111
 30
-134.285406
 40
4.0
210
-0.0
220
0.99952
230
-0.030984
 50
28.695233
 51
208.695233
1001
ACAD
1000
R13OBJECT
1002
{
1005
34D
1002
}
  0
LINE
  5
B0C
  8
TEAM-NET
 10
1.737859
 20
-103.939445
 30
981.011335
 11
1.737859
 21
-176.904396
 31
983.273183
1001
ACAD
1000
R13OBJECT
1002
{
1005
34D
1002
}
  0
ARC
  5
34E
  8
TEAM-NET
 10
0.182743
 20
65.310024
 30
-989.212533
 40
20.5
210
0.0
220
0.173648
230
-0.984808
 50
90.0
 51
270.0
  0
ARC
  5
B0D
  8
TEAM-NET
 10
0.182743
 20
65.310024
 30
-989.212533
 40
20.5
210
-0.0
220
0.173648
230
-0.984808
 50
270.0
 51
90.0
1001
ACAD
1000
R13OBJECT
1002
{
1005
34E
1002
}
  0
ARC
  5
34F
  8
TEAM-NET
 10
127.298399
 20
979.995735
 30
0.182743
 40
2.0
210
-1.0
220
0.0
230
0.0
 50
31.409622
 51
80.0
  0
ARC
  5
B0E
  8
TEAM-NET
 10
0.182743
 20
65.310024
 30
-989.212533
 40
20.5
210
-0.0
220
0.173648
230
-0.984808
 50
270.0
 51
90.0
1001
ACAD
1000
R13OBJECT
1002
{
1005
34F
1002
}
  0
ARC
  5
B0F
  8
TEAM-NET
 10
-86.921281
 20
987.11531
 30
-0.182743
 40
2.0
210
1.0
220
-0.0
230
-0.0
 50
51.409622
 51
100.0
1001
ACAD
1000
R13OBJECT
1002
{
1005
34F
1002
}
  0
ARC
  5
B10
  8
TEAM-NET
 10
-0.182743
 20
65.310024
 30
988.535408
 40
22.0
210
0.0
220
-0.173648
230
0.984808
 50
90.0
 51
270.0
1001
ACAD
1000
R13OBJECT
1002
{
1005
34F
1002
}
  0
ARC
  5
B11
  8
TEAM-NET
 10
-20.682743
 20
987.212533
 30
-65.310024
 40
2.0
210
-0.0
220
-0.984808
230
-0.173648
 50
90.0
 51
138.590378
1001
ACAD
1000
R13OBJECT
1002
{
1005
34F
1002
}
  0
ARC
  5
350
  8
TEAM-NET
 10
127.298399
 20
979.995735
 30
0.182743
 40
2.0
210
-1.0
220
0.0
230
0.0
 50
31.409622
 51
80.0
  0
ARC
  5
B12
  8
TEAM-NET
 10
-0.182743
 20
65.310024
 30
988.535408
 40
22.0
210
-0.0
220
-0.173648
230
0.984808
 50
270.0
 51
90.0
1001
ACAD
1000
R13OBJECT
1002
{
1005
350
1002
}
  0
ARC
  5
B13
  8
TEAM-NET
 10
-86.921281
 20
987.11531
 30
-0.182743
 40
2.0
210
1.0
220
-0.0
230
-0.0
 50
51.409622
 51
100.0
1001
ACAD
1000
R13OBJECT
1002
{
1005
350
1002
}
  0
ARC
  5
B14
  8
TEAM-NET
 10
0.182743
 20
65.310024
 30
-989.212533
 40
20.5
210
0.0
220
0.173648
230
-0.984808
 50
90.0
 51
270.0
1001
ACAD
1000
R13OBJECT
1002
{
1005
350
1002
}
  0
ARC
  5
B15
  8
TEAM-NET
 10
-20.317257
 20
987.212533
 30
65.310024
 40
2.0
210
-0.0
220
0.984808
230
0.173648
 50
90.0
 51
138.590378
1001
ACAD
1000
R13OBJECT
1002
{
1005
350
1002
}
  0
ENDSEC
  0
EOF
