  0
SECTION
  2
HEADER
  9
$ACADVER
  1
AC1009
  9
$INSBASE
 10
0.0
 20
0.0
 30
0.0
  9
$EXTMIN
 10
-10.029789
 20
-494.756949
 30
-0.051878
  9
$EXTMAX
 10
529.870402
 20
10.02757
 30
850.051885
  9
$LIMMIN
 10
-10.029789
 20
-494.756949
  9
$LIMMAX
 10
529.870402
 20
10.02757
  9
$ORTHOMODE
 70
     1
  9
$REGENMODE
 70
     1
  9
$FILLMODE
 70
     1
  9
$QTEXTMODE
 70
     0
  9
$MIRRTEXT
 70
     0
  9
$DRAGMODE
 70
     2
  9
$LTSCALE
 40
25.0
  9
$OSMODE
 70
     0
  9
$ATTMODE
 70
     1
  9
$TEXTSIZE
 40
200.0
  9
$TRACEWID
 40
1.0
  9
$TEXTSTYLE
  7
STANDARD
  9
$CLAYER
  8
TEAM-MAS
  9
$CELTYPE
  6
BYLAYER
  9
$CECOLOR
 62
   256
  9
$DIMSCALE
 40
0.0
  9
$DIMASZ
 40
20.0
  9
$DIMEXO
 40
10.0
  9
$DIMDLI
 40
1.0
  9
$DIMRND
 40
0.0
  9
$DIMDLE
 40
0.0
  9
$DIMEXE
 40
1.0
  9
$DIMTP
 40
0.0
  9
$DIMTM
 40
0.0
  9
$DIMTXT
 40
35.0
  9
$DIMCEN
 40
1.0
  9
$DIMTSZ
 40
0.0
  9
$DIMTOL
 70
     0
  9
$DIMLIM
 70
     0
  9
$DIMTIH
 70
     0
  9
$DIMTOH
 70
     0
  9
$DIMSE1
 70
     0
  9
$DIMSE2
 70
     0
  9
$DIMTAD
 70
     0
  9
$DIMZIN
 70
     0
  9
$DIMBLK
  1

  9
$DIMASO
 70
     1
  9
$DIMSHO
 70
     0
  9
$DIMPOST
  1

  9
$DIMAPOST
  1

  9
$DIMALT
 70
     0
  9
$DIMALTD
 70
     2
  9
$DIMALTF
 40
25.4
  9
$DIMLFAC
 40
1.0
  9
$DIMTOFL
 70
     0
  9
$DIMTVP
 40
0.0
  9
$DIMTIX
 70
     0
  9
$DIMSOXD
 70
     0
  9
$DIMSAH
 70
     0
  9
$DIMBLK1
  1

  9
$DIMBLK2
  1

  9
$DIMSTYLE
  2
TEAM
  9
$DIMCLRD
 70
     9
  9
$DIMCLRE
 70
     9
  9
$DIMCLRT
 70
    11
  9
$DIMTFAC
 40
1.0
  9
$DIMGAP
 40
15.0
  9
$LUNITS
 70
     2
  9
$LUPREC
 70
     1
  9
$SKETCHINC
 40
1.0
  9
$FILLETRAD
 40
50.0
  9
$AUNITS
 70
     0
  9
$AUPREC
 70
     0
  9
$MENU
  1
ROPLANS
  9
$ELEVATION
 40
0.0
  9
$PELEVATION
 40
0.0
  9
$THICKNESS
 40
0.0
  9
$LIMCHECK
 70
     0
  9
$BLIPMODE
 70
     1
  9
$CHAMFERA
 40
0.0
  9
$CHAMFERB
 40
0.0
  9
$SKPOLY
 70
     0
  9
$TDCREATE
 40
2450392.957851
  9
$TDUPDATE
 40
2455505.390806
  9
$TDINDWG
 40
2.108696
  9
$TDUSRTIMER
 40
2.108696
  9
$USRTIMER
 70
     1
  9
$ANGBASE
 50
0.0
  9
$ANGDIR
 70
     0
  9
$PDMODE
 70
     0
  9
$PDSIZE
 40
0.0
  9
$PLINEWID
 40
0.0
  9
$COORDS
 70
     2
  9
$SPLFRAME
 70
     0
  9
$SPLINETYPE
 70
     6
  9
$SPLINESEGS
 70
     8
  9
$ATTDIA
 70
     0
  9
$ATTREQ
 70
     0
  9
$HANDLING
 70
     1
  9
$HANDSEED
  5
1F1
  9
$SURFTAB1
 70
    24
  9
$SURFTAB2
 70
    24
  9
$SURFTYPE
 70
     6
  9
$SURFU
 70
     6
  9
$SURFV
 70
     6
  9
$UCSNAME
  2

  9
$UCSORG
 10
0.0
 20
0.0
 30
0.0
  9
$UCSXDIR
 10
1.0
 20
0.0
 30
0.0
  9
$UCSYDIR
 10
0.0
 20
1.0
 30
0.0
  9
$PUCSNAME
  2

  9
$PUCSORG
 10
0.0
 20
0.0
 30
0.0
  9
$PUCSXDIR
 10
1.0
 20
0.0
 30
0.0
  9
$PUCSYDIR
 10
0.0
 20
1.0
 30
0.0
  9
$USERI1
 70
     0
  9
$USERI2
 70
     0
  9
$USERI3
 70
     0
  9
$USERI4
 70
     0
  9
$USERI5
 70
     0
  9
$USERR1
 40
0.0
  9
$USERR2
 40
0.0
  9
$USERR3
 40
0.0
  9
$USERR4
 40
0.0
  9
$USERR5
 40
0.0
  9
$WORLDVIEW
 70
     1
  9
$SHADEDGE
 70
     0
  9
$SHADEDIF
 70
    70
  9
$TILEMODE
 70
     1
  9
$MAXACTVP
 70
    16
  9
$PLIMCHECK
 70
     0
  9
$PEXTMIN
 10
-0.805942
 20
0.005011
 30
0.0
  9
$PEXTMAX
 10
20.250094
 20
11.356329
 30
0.0
  9
$PLIMMIN
 10
0.0
 20
0.0
  9
$PLIMMAX
 10
12.0
 20
9.0
  9
$UNITMODE
 70
     0
  9
$VISRETAIN
 70
     0
  9
$PLINEGEN
 70
     0
  9
$PSLTSCALE
 70
     0
  0
ENDSEC
  0
SECTION
  2
TABLES
  0
TABLE
  2
VPORT
 70
     2
  0
VPORT
  2
*ACTIVE
 70
     0
 10
0.0
 20
0.0
 11
1.0
 21
1.0
 12
259.920306
 22
-242.36469
 13
0.0
 23
0.0
 14
1.0
 24
1.0
 15
50.0
 25
50.0
 16
0.0
 26
0.0
 36
1.0
 17
0.0
 27
0.0
 37
0.0
 40
507.884527
 41
1.865779
 42
50.0
 43
0.0
 44
0.0
 50
0.0
 51
0.0
 71
     0
 72
   100
 73
     1
 74
     1
 75
     0
 76
     0
 77
     0
 78
     0
  0
ENDTAB
  0
TABLE
  2
LTYPE
 70
     1
  0
LTYPE
  2
CONTINUOUS
 70
     0
  3
Solid Line
 72
    65
 73
     0
 40
0.0
  0
ENDTAB
  0
TABLE
  2
LAYER
 70
     7
  0
LAYER
  2
0
 70
     0
 62
     7
  6
CONTINUOUS
  0
LAYER
  2
TEAM-NET1
 70
     0
 62
    12
  6
CONTINUOUS
  0
LAYER
  2
TEAM-BODY
 70
     0
 62
     2
  6
CONTINUOUS
  0
LAYER
  2
TEAM-MAS
 70
     0
 62
     9
  6
CONTINUOUS
  0
LAYER
  2
TEAM-TXT
 70
     0
 62
    11
  6
CONTINUOUS
  0
LAYER
  2
TEAM-DET1
 70
     0
 62
     4
  6
CONTINUOUS
  0
LAYER
  2
TEAM-INSP
 70
     0
 62
     5
  6
CONTINUOUS
  0
ENDTAB
  0
TABLE
  2
STYLE
 70
     2
  0
STYLE
  2
STANDARD
 70
     0
 40
0.0
 41
1.0
 50
0.0
 71
     0
 42
200.0
  3
txt
  4

  0
STYLE
  2
TEAM
 70
     0
 40
0.0
 41
0.8
 50
15.0
 71
     0
 42
7.0
  3
ROMANS.shx
  4

  0
ENDTAB
  0
TABLE
  2
VIEW
 70
     0
  0
ENDTAB
  0
TABLE
  2
UCS
 70
     0
  0
ENDTAB
  0
TABLE
  2
APPID
 70
     1
  0
APPID
  2
ACAD
 70
     0
  0
ENDTAB
  0
TABLE
  2
DIMSTYLE
 70
     1
  0
DIMSTYLE
  2
TEAM
 70
     0
  3

  4

  5

  6

  7

 40
0.0
 41
20.0
 42
10.0
 43
1.0
 44
1.0
 45
0.0
 46
0.0
 47
0.0
 48
0.0
140
35.0
141
1.0
142
0.0
143
25.4
144
1.0
145
0.0
146
1.0
147
15.0
 71
     0
 72
     0
 73
     0
 74
     0
 75
     0
 76
     0
 77
     0
 78
     0
170
     0
171
     2
172
     0
173
     0
174
     0
175
     0
176
     9
177
     9
178
    11
  0
ENDTAB
  0
ENDSEC
  0
SECTION
  2
BLOCKS
  0
BLOCK
  8
0
  2
$MODEL_SPACE
 70
     0
 10
0.0
 20
0.0
 30
0.0
  3
$MODEL_SPACE
  1

  0
ENDBLK
  5
1D7
  8
0
  0
BLOCK
 67
     1
  8
0
  2
$PAPER_SPACE
 70
     0
 10
0.0
 20
0.0
 30
0.0
  3
$PAPER_SPACE
  1

  0
ENDBLK
  5
1D5
 67
     1
  8
0
  0
ENDSEC
  0
SECTION
  2
ENTITIES
  0
CIRCLE
  5
20
  8
TEAM-INSP
 10
0.0
 20
0.0
 30
0.0
 40
10.0
  0
CIRCLE
  5
22
  8
TEAM-DET1
 39
-10.0
 10
155.0
 20
-155.0
 30
660.0
 40
30.0
  0
CIRCLE
  5
24
  8
TEAM-BODY
 39
-10.0
 10
155.0
 20
-155.0
 30
660.0
 40
20.0
  0
POLYLINE
  5
26
  8
TEAM-NET1
 66
     1
 10
0.0
 20
0.0
 30
0.0
 70
    16
 71
     2
 72
    25
  0
VERTEX
  5
27
  8
TEAM-NET1
 10
235.517838
 20
-19.766843
 30
740.0
 70
    64
  0
VERTEX
  5
28
  8
TEAM-NET1
 10
221.554198
 20
-21.373502
 30
740.0
 70
    64
  0
VERTEX
  5
29
  8
TEAM-NET1
 10
207.590558
 20
-22.98016
 30
740.0
 70
    64
  0
VERTEX
  5
2A
  8
TEAM-NET1
 10
193.626919
 20
-24.586819
 30
740.0
 70
    64
  0
VERTEX
  5
2B
  8
TEAM-NET1
 10
179.663279
 20
-26.193477
 30
740.0
 70
    64
  0
VERTEX
  5
2C
  8
TEAM-NET1
 10
165.69964
 20
-27.800136
 30
740.0
 70
    64
  0
VERTEX
  5
2D
  8
TEAM-NET1
 10
151.736
 20
-29.406794
 30
740.0
 70
    64
  0
VERTEX
  5
2E
  8
TEAM-NET1
 10
137.761898
 20
-30.890376
 30
740.0
 70
    64
  0
VERTEX
  5
2F
  8
TEAM-NET1
 10
124.019382
 20
-33.795062
 30
740.0
 70
    64
  0
VERTEX
  5
30
  8
TEAM-NET1
 10
110.761208
 20
-38.433466
 30
740.0
 70
    64
  0
VERTEX
  5
31
  8
TEAM-NET1
 10
98.205131
 20
-44.729407
 30
740.0
 70
    64
  0
VERTEX
  5
32
  8
TEAM-NET1
 10
86.557371
 20
-52.57948
 30
740.0
 70
    64
  0
VERTEX
  5
33
  8
TEAM-NET1
 10
76.009232
 20
-61.854755
 30
740.0
 70
    64
  0
VERTEX
  5
34
  8
TEAM-NET1
 10
66.733957
 20
-72.402894
 30
740.0
 70
    64
  0
VERTEX
  5
35
  8
TEAM-NET1
 10
58.883884
 20
-84.050654
 30
740.0
 70
    64
  0
VERTEX
  5
36
  8
TEAM-NET1
 10
52.587943
 20
-96.606731
 30
740.0
 70
    64
  0
VERTEX
  5
37
  8
TEAM-NET1
 10
47.949539
 20
-109.864905
 30
740.0
 70
    64
  0
VERTEX
  5
38
  8
TEAM-NET1
 10
45.044853
 20
-123.607421
 30
740.0
 70
    64
  0
VERTEX
  5
39
  8
TEAM-NET1
 10
43.561271
 20
-137.581523
 30
740.0
 70
    64
  0
VERTEX
  5
3A
  8
TEAM-NET1
 10
41.954612
 20
-151.545163
 30
740.0
 70
    64
  0
VERTEX
  5
3B
  8
TEAM-NET1
 10
40.347954
 20
-165.508802
 30
740.0
 70
    64
  0
VERTEX
  5
3C
  8
TEAM-NET1
 10
38.741295
 20
-179.472442
 30
740.0
 70
    64
  0
VERTEX
  5
3D
  8
TEAM-NET1
 10
37.134637
 20
-193.436082
 30
740.0
 70
    64
  0
VERTEX
  5
3E
  8
TEAM-NET1
 10
35.527979
 20
-207.399721
 30
740.0
 70
    64
  0
VERTEX
  5
3F
  8
TEAM-NET1
 10
33.92132
 20
-221.363361
 30
740.0
 70
    64
  0
VERTEX
  5
40
  8
TEAM-NET1
 10
335.517838
 20
-19.766843
 30
850.0
 70
    64
  0
VERTEX
  5
41
  8
TEAM-NET1
 10
360.880015
 20
-26.985546
 30
850.0
 70
    64
  0
VERTEX
  5
42
  8
TEAM-NET1
 10
376.223306
 20
-48.425106
 30
850.0
 70
    64
  0
VERTEX
  5
43
  8
TEAM-NET1
 10
381.941099
 20
-74.668992
 30
850.0
 70
    64
  0
VERTEX
  5
44
  8
TEAM-NET1
 10
384.87006
 20
-101.368352
 30
850.0
 70
    64
  0
VERTEX
  5
45
  8
TEAM-NET1
 10
384.977772
 20
-128.227673
 30
850.0
 70
    64
  0
VERTEX
  5
46
  8
TEAM-NET1
 10
382.263042
 20
-154.949666
 30
850.0
 70
    64
  0
VERTEX
  5
47
  8
TEAM-NET1
 10
376.755917
 20
-181.238566
 30
850.0
 70
    64
  0
VERTEX
  5
48
  8
TEAM-NET1
 10
368.517352
 20
-206.8034
 30
850.0
 70
    64
  0
VERTEX
  5
49
  8
TEAM-NET1
 10
357.638533
 20
-231.361209
 30
850.0
 70
    64
  0
VERTEX
  5
4A
  8
TEAM-NET1
 10
344.239871
 20
-254.640181
 30
850.0
 70
    64
  0
VERTEX
  5
4B
  8
TEAM-NET1
 10
328.469665
 20
-276.382658
 30
850.0
 70
    64
  0
VERTEX
  5
4C
  8
TEAM-NET1
 10
310.502464
 20
-296.347987
 30
850.0
 70
    64
  0
VERTEX
  5
4D
  8
TEAM-NET1
 10
290.537135
 20
-314.315188
 30
850.0
 70
    64
  0
VERTEX
  5
4E
  8
TEAM-NET1
 10
268.794658
 20
-330.085394
 30
850.0
 70
    64
  0
VERTEX
  5
4F
  8
TEAM-NET1
 10
245.515686
 20
-343.484057
 30
850.0
 70
    64
  0
VERTEX
  5
50
  8
TEAM-NET1
 10
220.957877
 20
-354.362875
 30
850.0
 70
    64
  0
VERTEX
  5
51
  8
TEAM-NET1
 10
195.393043
 20
-362.60144
 30
850.0
 70
    64
  0
VERTEX
  5
52
  8
TEAM-NET1
 10
169.104143
 20
-368.108565
 30
850.0
 70
    64
  0
VERTEX
  5
53
  8
TEAM-NET1
 10
142.38215
 20
-370.823295
 30
850.0
 70
    64
  0
VERTEX
  5
54
  8
TEAM-NET1
 10
115.522829
 20
-370.715584
 30
850.0
 70
    64
  0
VERTEX
  5
55
  8
TEAM-NET1
 10
88.823468
 20
-367.786622
 30
850.0
 70
    64
  0
VERTEX
  5
56
  8
TEAM-NET1
 10
62.579583
 20
-362.068829
 30
850.0
 70
    64
  0
VERTEX
  5
57
  8
TEAM-NET1
 10
41.140023
 20
-346.725538
 30
850.0
 70
    64
  0
VERTEX
  5
58
  8
TEAM-NET1
 10
33.92132
 20
-321.363361
 30
850.0
 70
    64
  0
SEQEND
  5
5A
  8
TEAM-NET1
  0
POLYLINE
  5
5B
  8
TEAM-NET1
 66
     1
 10
0.0
 20
0.0
 30
0.0
 70
    16
 71
     2
 72
    25
  0
VERTEX
  5
5C
  8
TEAM-NET1
 10
235.517838
 20
-19.766843
 30
740.0
 70
    64
  0
VERTEX
  5
5D
  8
TEAM-NET1
 10
221.554198
 20
-21.373502
 30
740.0
 70
    64
  0
VERTEX
  5
5E
  8
TEAM-NET1
 10
207.590558
 20
-22.98016
 30
740.0
 70
    64
  0
VERTEX
  5
5F
  8
TEAM-NET1
 10
193.626919
 20
-24.586819
 30
740.0
 70
    64
  0
VERTEX
  5
60
  8
TEAM-NET1
 10
179.663279
 20
-26.193477
 30
740.0
 70
    64
  0
VERTEX
  5
61
  8
TEAM-NET1
 10
165.69964
 20
-27.800136
 30
740.0
 70
    64
  0
VERTEX
  5
62
  8
TEAM-NET1
 10
151.736
 20
-29.406794
 30
740.0
 70
    64
  0
VERTEX
  5
63
  8
TEAM-NET1
 10
137.761898
 20
-30.890376
 30
740.0
 70
    64
  0
VERTEX
  5
64
  8
TEAM-NET1
 10
124.019382
 20
-33.795062
 30
740.0
 70
    64
  0
VERTEX
  5
65
  8
TEAM-NET1
 10
110.761208
 20
-38.433466
 30
740.0
 70
    64
  0
VERTEX
  5
66
  8
TEAM-NET1
 10
98.205131
 20
-44.729407
 30
740.0
 70
    64
  0
VERTEX
  5
67
  8
TEAM-NET1
 10
86.557371
 20
-52.57948
 30
740.0
 70
    64
  0
VERTEX
  5
68
  8
TEAM-NET1
 10
76.009232
 20
-61.854755
 30
740.0
 70
    64
  0
VERTEX
  5
69
  8
TEAM-NET1
 10
66.733957
 20
-72.402894
 30
740.0
 70
    64
  0
VERTEX
  5
6A
  8
TEAM-NET1
 10
58.883884
 20
-84.050654
 30
740.0
 70
    64
  0
VERTEX
  5
6B
  8
TEAM-NET1
 10
52.587943
 20
-96.606731
 30
740.0
 70
    64
  0
VERTEX
  5
6C
  8
TEAM-NET1
 10
47.949539
 20
-109.864905
 30
740.0
 70
    64
  0
VERTEX
  5
6D
  8
TEAM-NET1
 10
45.044853
 20
-123.607421
 30
740.0
 70
    64
  0
VERTEX
  5
6E
  8
TEAM-NET1
 10
43.561271
 20
-137.581523
 30
740.0
 70
    64
  0
VERTEX
  5
6F
  8
TEAM-NET1
 10
41.954612
 20
-151.545163
 30
740.0
 70
    64
  0
VERTEX
  5
70
  8
TEAM-NET1
 10
40.347954
 20
-165.508802
 30
740.0
 70
    64
  0
VERTEX
  5
71
  8
TEAM-NET1
 10
38.741295
 20
-179.472442
 30
740.0
 70
    64
  0
VERTEX
  5
72
  8
TEAM-NET1
 10
37.134637
 20
-193.436082
 30
740.0
 70
    64
  0
VERTEX
  5
73
  8
TEAM-NET1
 10
35.527979
 20
-207.399721
 30
740.0
 70
    64
  0
VERTEX
  5
74
  8
TEAM-NET1
 10
33.92132
 20
-221.363361
 30
740.0
 70
    64
  0
VERTEX
  5
75
  8
TEAM-NET1
 10
335.517838
 20
-19.766843
 30
850.0
 70
    64
  0
VERTEX
  5
76
  8
TEAM-NET1
 10
313.187012
 20
-20.972637
 30
850.0
 70
    64
  0
VERTEX
  5
77
  8
TEAM-NET1
 10
290.856185
 20
-22.17843
 30
850.0
 70
    64
  0
VERTEX
  5
78
  8
TEAM-NET1
 10
268.525359
 20
-23.384224
 30
850.0
 70
    64
  0
VERTEX
  5
79
  8
TEAM-NET1
 10
246.194533
 20
-24.590018
 30
850.0
 70
    64
  0
VERTEX
  5
7A
  8
TEAM-NET1
 10
223.863707
 20
-25.795811
 30
850.0
 70
    64
  0
VERTEX
  5
7B
  8
TEAM-NET1
 10
201.532881
 20
-27.001605
 30
850.0
 70
    64
  0
VERTEX
  5
7C
  8
TEAM-NET1
 10
179.202055
 20
-28.207398
 30
850.0
 70
    64
  0
VERTEX
  5
7D
  8
TEAM-NET1
 10
156.871229
 20
-29.413192
 30
850.0
 70
    64
  0
VERTEX
  5
7E
  8
TEAM-NET1
 10
134.613329
 20
-31.394369
 30
850.0
 70
    64
  0
VERTEX
  5
7F
  8
TEAM-NET1
 10
113.129361
 20
-37.462821
 30
850.0
 70
    64
  0
VERTEX
  5
80
  8
TEAM-NET1
 10
93.320715
 20
-47.758672
 30
850.0
 70
    64
  0
VERTEX
  5
81
  8
TEAM-NET1
 10
76.009232
 20
-61.854755
 30
850.0
 70
    64
  0
VERTEX
  5
82
  8
TEAM-NET1
 10
61.913149
 20
-79.166238
 30
850.0
 70
    64
  0
VERTEX
  5
83
  8
TEAM-NET1
 10
51.617298
 20
-98.974884
 30
850.0
 70
    64
  0
VERTEX
  5
84
  8
TEAM-NET1
 10
45.548846
 20
-120.458852
 30
850.0
 70
    64
  0
VERTEX
  5
85
  8
TEAM-NET1
 10
43.567669
 20
-142.716752
 30
850.0
 70
    64
  0
VERTEX
  5
86
  8
TEAM-NET1
 10
42.361875
 20
-165.047578
 30
850.0
 70
    64
  0
VERTEX
  5
87
  8
TEAM-NET1
 10
41.156082
 20
-187.378404
 30
850.0
 70
    64
  0
VERTEX
  5
88
  8
TEAM-NET1
 10
39.950288
 20
-209.70923
 30
850.0
 70
    64
  0
VERTEX
  5
89
  8
TEAM-NET1
 10
38.744494
 20
-232.040056
 30
850.0
 70
    64
  0
VERTEX
  5
8A
  8
TEAM-NET1
 10
37.538701
 20
-254.370882
 30
850.0
 70
    64
  0
VERTEX
  5
8B
  8
TEAM-NET1
 10
36.332907
 20
-276.701709
 30
850.0
 70
    64
  0
VERTEX
  5
8C
  8
TEAM-NET1
 10
35.127114
 20
-299.032535
 30
850.0
 70
    64
  0
VERTEX
  5
8D
  8
TEAM-NET1
 10
33.92132
 20
-321.363361
 30
850.0
 70
    64
  0
SEQEND
  5
8E
  8
TEAM-NET1
  0
POLYLINE
  5
8F
  8
TEAM-DET1
 66
     1
 10
0.0
 20
0.0
 30
740.0
  0
VERTEX
  5
1DD
  8
TEAM-DET1
 10
237.008606
 20
-35.412089
 30
740.0
  0
VERTEX
  5
1DE
  8
TEAM-DET1
 10
148.581034
 20
-45.586578
 30
740.0
 42
0.380289
  0
VERTEX
  5
1DF
  8
TEAM-DET1
 10
45.586578
 20
-148.581034
 30
740.0
  0
VERTEX
  5
1E0
  8
TEAM-DET1
 10
35.412089
 20
-237.008606
 30
740.0
  0
SEQEND
  5
1E1
  8
TEAM-DET1
  0
POLYLINE
  5
90
  8
TEAM-DET1
 66
     1
 10
0.0
 20
0.0
 30
850.0
  0
VERTEX
  5
1E2
  8
TEAM-DET1
 10
33.92132
 20
-321.363361
 30
850.0
 42
0.344737
  0
VERTEX
  5
1E3
  8
TEAM-DET1
 10
61.975896
 20
-361.902811
 30
850.0
 42
0.582562
  0
VERTEX
  5
1E4
  8
TEAM-DET1
 10
376.057288
 20
-47.821419
 30
850.0
 42
0.344737
  0
VERTEX
  5
1E5
  8
TEAM-DET1
 10
335.517838
 20
-19.766843
 30
850.0
  0
SEQEND
  5
1E6
  8
TEAM-DET1
  0
ARC
  5
91
  8
TEAM-BODY
 10
122.164581
 20
-84.343234
 30
850.0
 40
304.259393
 50
246.327104
 51
16.093659
  0
CIRCLE
  5
92
  8
TEAM-DET1
 10
47.487528
 20
-47.487528
 30
850.0
 40
15.0
  0
LINE
  5
93
  8
TEAM-DET1
 10
148.581034
 20
-45.586578
 30
850.0
 11
45.586578
 21
-148.581034
 31
850.0
  0
POLYLINE
  5
94
  8
TEAM-BODY
 66
     1
 10
0.0
 20
0.0
 30
850.0
  0
VERTEX
  5
1E7
  8
TEAM-BODY
 10
414.5
 20
0.0
 30
850.0
  0
VERTEX
  5
1E8
  8
TEAM-BODY
 10
0.0
 20
0.0
 30
850.0
  0
VERTEX
  5
1E9
  8
TEAM-BODY
 10
0.0
 20
-363.0
 30
850.0
  0
SEQEND
  5
1EA
  8
TEAM-BODY
  0
POLYLINE
  5
95
  8
TEAM-DET1
 66
     1
 10
0.0
 20
0.0
 30
850.0
  0
VERTEX
  5
1EB
  8
TEAM-DET1
 10
335.517838
 20
-19.766843
 30
850.0
  0
VERTEX
  5
1EC
  8
TEAM-DET1
 10
147.090265
 20
-29.941333
 30
850.0
 42
0.380289
  0
VERTEX
  5
1ED
  8
TEAM-DET1
 10
44.09581
 20
-132.935788
 30
850.0
  0
VERTEX
  5
1EE
  8
TEAM-DET1
 10
33.92132
 20
-321.363361
 30
850.0
  0
SEQEND
  5
1EF
  8
TEAM-DET1
  0
TEXT
  5
96
  8
TEAM-TXT
 10
47.679789
 20
-300.362655
 30
850.0
 40
30.0
  1
team 221313
 41
0.8
 51
15.0
  7
TEAM
  0
POLYLINE
  5
99
  8
TEAM-NET1
 66
     1
 10
0.0
 20
0.0
 30
0.0
 70
    16
 71
     2
 72
    37
  0
VERTEX
  5
9A
  8
TEAM-NET1
 10
335.517838
 20
-19.766843
 30
850.0
 70
    64
  0
VERTEX
  5
9B
  8
TEAM-NET1
 10
320.63062
 20
-20.570706
 30
850.0
 70
    64
  0
VERTEX
  5
9C
  8
TEAM-NET1
 10
305.743403
 20
-21.374568
 30
850.0
 70
    64
  0
VERTEX
  5
9D
  8
TEAM-NET1
 10
290.856185
 20
-22.17843
 30
850.0
 70
    64
  0
VERTEX
  5
9E
  8
TEAM-NET1
 10
275.968968
 20
-22.982293
 30
850.0
 70
    64
  0
VERTEX
  5
9F
  8
TEAM-NET1
 10
261.081751
 20
-23.786155
 30
850.0
 70
    64
  0
VERTEX
  5
A0
  8
TEAM-NET1
 10
246.194533
 20
-24.590018
 30
850.0
 70
    64
  0
VERTEX
  5
A1
  8
TEAM-NET1
 10
231.307316
 20
-25.39388
 30
850.0
 70
    64
  0
VERTEX
  5
A2
  8
TEAM-NET1
 10
216.420098
 20
-26.197742
 30
850.0
 70
    64
  0
VERTEX
  5
A3
  8
TEAM-NET1
 10
201.532881
 20
-27.001605
 30
850.0
 70
    64
  0
VERTEX
  5
A4
  8
TEAM-NET1
 10
186.645664
 20
-27.805467
 30
850.0
 70
    64
  0
VERTEX
  5
A5
  8
TEAM-NET1
 10
171.758446
 20
-28.60933
 30
850.0
 70
    64
  0
VERTEX
  5
A6
  8
TEAM-NET1
 10
156.871229
 20
-29.413192
 30
850.0
 70
    64
  0
VERTEX
  5
A7
  8
TEAM-NET1
 10
141.994188
 20
-30.359783
 30
850.0
 70
    64
  0
VERTEX
  5
A8
  8
TEAM-NET1
 10
127.319848
 20
-32.928178
 30
850.0
 70
    64
  0
VERTEX
  5
A9
  8
TEAM-NET1
 10
113.129361
 20
-37.462821
 30
850.0
 70
    64
  0
VERTEX
  5
AA
  8
TEAM-NET1
 10
99.684899
 20
-43.879935
 30
850.0
 70
    64
  0
VERTEX
  5
AB
  8
TEAM-NET1
 10
87.23485
 20
-52.060961
 30
850.0
 70
    64
  0
VERTEX
  5
AC
  8
TEAM-NET1
 10
76.009232
 20
-61.854755
 30
850.0
 70
    64
  0
VERTEX
  5
AD
  8
TEAM-NET1
 10
66.215438
 20
-73.080373
 30
850.0
 70
    64
  0
VERTEX
  5
AE
  8
TEAM-NET1
 10
58.034412
 20
-85.530422
 30
850.0
 70
    64
  0
VERTEX
  5
AF
  8
TEAM-NET1
 10
51.617298
 20
-98.974884
 30
850.0
 70
    64
  0
VERTEX
  5
B0
  8
TEAM-NET1
 10
47.082655
 20
-113.165371
 30
850.0
 70
    64
  0
VERTEX
  5
B1
  8
TEAM-NET1
 10
44.51426
 20
-127.839711
 30
850.0
 70
    64
  0
VERTEX
  5
B2
  8
TEAM-NET1
 10
43.567669
 20
-142.716752
 30
850.0
 70
    64
  0
VERTEX
  5
B3
  8
TEAM-NET1
 10
42.763806
 20
-157.603969
 30
850.0
 70
    64
  0
VERTEX
  5
B4
  8
TEAM-NET1
 10
41.959944
 20
-172.491187
 30
850.0
 70
    64
  0
VERTEX
  5
B5
  8
TEAM-NET1
 10
41.156082
 20
-187.378404
 30
850.0
 70
    64
  0
VERTEX
  5
B6
  8
TEAM-NET1
 10
40.352219
 20
-202.265622
 30
850.0
 70
    64
  0
VERTEX
  5
B7
  8
TEAM-NET1
 10
39.548357
 20
-217.152839
 30
850.0
 70
    64
  0
VERTEX
  5
B8
  8
TEAM-NET1
 10
38.744494
 20
-232.040056
 30
850.0
 70
    64
  0
VERTEX
  5
B9
  8
TEAM-NET1
 10
37.940632
 20
-246.927274
 30
850.0
 70
    64
  0
VERTEX
  5
BA
  8
TEAM-NET1
 10
37.13677
 20
-261.814491
 30
850.0
 70
    64
  0
VERTEX
  5
BB
  8
TEAM-NET1
 10
36.332907
 20
-276.701709
 30
850.0
 70
    64
  0
VERTEX
  5
BC
  8
TEAM-NET1
 10
35.529045
 20
-291.588926
 30
850.0
 70
    64
  0
VERTEX
  5
BD
  8
TEAM-NET1
 10
34.725183
 20
-306.476143
 30
850.0
 70
    64
  0
VERTEX
  5
BE
  8
TEAM-NET1
 10
33.92132
 20
-321.363361
 30
850.0
 70
    64
  0
VERTEX
  5
BF
  8
TEAM-NET1
 10
414.5
 20
0.0
 30
850.0
 70
    64
  0
VERTEX
  5
C0
  8
TEAM-NET1
 10
392.902778
 20
0.0
 30
850.0
 70
    64
  0
VERTEX
  5
C1
  8
TEAM-NET1
 10
371.305556
 20
0.0
 30
850.0
 70
    64
  0
VERTEX
  5
C2
  8
TEAM-NET1
 10
349.708333
 20
0.0
 30
850.0
 70
    64
  0
VERTEX
  5
C3
  8
TEAM-NET1
 10
328.111111
 20
0.0
 30
850.0
 70
    64
  0
VERTEX
  5
C4
  8
TEAM-NET1
 10
306.513889
 20
0.0
 30
850.0
 70
    64
  0
VERTEX
  5
C5
  8
TEAM-NET1
 10
284.916667
 20
0.0
 30
850.0
 70
    64
  0
VERTEX
  5
C6
  8
TEAM-NET1
 10
263.319444
 20
0.0
 30
850.0
 70
    64
  0
VERTEX
  5
C7
  8
TEAM-NET1
 10
241.722222
 20
0.0
 30
850.0
 70
    64
  0
VERTEX
  5
C8
  8
TEAM-NET1
 10
220.125
 20
0.0
 30
850.0
 70
    64
  0
VERTEX
  5
C9
  8
TEAM-NET1
 10
198.527778
 20
0.0
 30
850.0
 70
    64
  0
VERTEX
  5
CA
  8
TEAM-NET1
 10
176.930556
 20
0.0
 30
850.0
 70
    64
  0
VERTEX
  5
CB
  8
TEAM-NET1
 10
155.333333
 20
0.0
 30
850.0
 70
    64
  0
VERTEX
  5
CC
  8
TEAM-NET1
 10
133.736111
 20
0.0
 30
850.0
 70
    64
  0
VERTEX
  5
CD
  8
TEAM-NET1
 10
112.138889
 20
0.0
 30
850.0
 70
    64
  0
VERTEX
  5
CE
  8
TEAM-NET1
 10
90.541667
 20
0.0
 30
850.0
 70
    64
  0
VERTEX
  5
CF
  8
TEAM-NET1
 10
68.944444
 20
0.0
 30
850.0
 70
    64
  0
VERTEX
  5
D0
  8
TEAM-NET1
 10
47.347222
 20
0.0
 30
850.0
 70
    64
  0
VERTEX
  5
D1
  8
TEAM-NET1
 10
25.75
 20
0.0
 30
850.0
 70
    64
  0
VERTEX
  5
D2
  8
TEAM-NET1
 10
4.152778
 20
0.0
 30
850.0
 70
    64
  0
VERTEX
  5
D3
  8
TEAM-NET1
 10
0.0
 20
-17.444444
 30
850.0
 70
    64
  0
VERTEX
  5
D4
  8
TEAM-NET1
 10
0.0
 20
-39.041667
 30
850.0
 70
    64
  0
VERTEX
  5
D5
  8
TEAM-NET1
 10
0.0
 20
-60.638889
 30
850.0
 70
    64
  0
VERTEX
  5
D6
  8
TEAM-NET1
 10
0.0
 20
-82.236111
 30
850.0
 70
    64
  0
VERTEX
  5
D7
  8
TEAM-NET1
 10
0.0
 20
-103.833333
 30
850.0
 70
    64
  0
VERTEX
  5
D8
  8
TEAM-NET1
 10
0.0
 20
-125.430556
 30
850.0
 70
    64
  0
VERTEX
  5
D9
  8
TEAM-NET1
 10
0.0
 20
-147.027778
 30
850.0
 70
    64
  0
VERTEX
  5
DA
  8
TEAM-NET1
 10
0.0
 20
-168.625
 30
850.0
 70
    64
  0
VERTEX
  5
DB
  8
TEAM-NET1
 10
0.0
 20
-190.222222
 30
850.0
 70
    64
  0
VERTEX
  5
DC
  8
TEAM-NET1
 10
0.0
 20
-211.819444
 30
850.0
 70
    64
  0
VERTEX
  5
DD
  8
TEAM-NET1
 10
0.0
 20
-233.416667
 30
850.0
 70
    64
  0
VERTEX
  5
DE
  8
TEAM-NET1
 10
0.0
 20
-255.013889
 30
850.0
 70
    64
  0
VERTEX
  5
DF
  8
TEAM-NET1
 10
0.0
 20
-276.611111
 30
850.0
 70
    64
  0
VERTEX
  5
E0
  8
TEAM-NET1
 10
0.0
 20
-298.208333
 30
850.0
 70
    64
  0
VERTEX
  5
E1
  8
TEAM-NET1
 10
0.0
 20
-319.805556
 30
850.0
 70
    64
  0
VERTEX
  5
E2
  8
TEAM-NET1
 10
0.0
 20
-341.402778
 30
850.0
 70
    64
  0
VERTEX
  5
E3
  8
TEAM-NET1
 10
0.0
 20
-363.0
 30
850.0
 70
    64
  0
SEQEND
  5
E4
  8
TEAM-NET1
  0
POLYLINE
  5
E5
  8
TEAM-NET1
 66
     1
 10
0.0
 20
0.0
 30
0.0
 70
    16
 71
     2
 72
    37
  0
VERTEX
  5
E6
  8
TEAM-NET1
 10
335.517838
 20
-19.766843
 30
850.0
 70
    64
  0
VERTEX
  5
E7
  8
TEAM-NET1
 10
353.040881
 20
-22.690581
 30
850.0
 70
    64
  0
VERTEX
  5
E8
  8
TEAM-NET1
 10
367.569682
 20
-32.914045
 30
850.0
 70
    64
  0
VERTEX
  5
E9
  8
TEAM-NET1
 10
376.223306
 20
-48.425106
 30
850.0
 70
    64
  0
VERTEX
  5
EA
  8
TEAM-NET1
 10
380.342543
 20
-65.855942
 30
850.0
 70
    64
  0
VERTEX
  5
EB
  8
TEAM-NET1
 10
383.229531
 20
-83.532691
 30
850.0
 70
    64
  0
VERTEX
  5
EC
  8
TEAM-NET1
 10
384.87006
 20
-101.368352
 30
850.0
 70
    64
  0
VERTEX
  5
ED
  8
TEAM-NET1
 10
385.256058
 20
-119.275143
 30
850.0
 70
    64
  0
VERTEX
  5
EE
  8
TEAM-NET1
 10
384.385624
 20
-137.164931
 30
850.0
 70
    64
  0
VERTEX
  5
EF
  8
TEAM-NET1
 10
382.263042
 20
-154.949666
 30
850.0
 70
    64
  0
VERTEX
  5
F0
  8
TEAM-NET1
 10
378.898759
 20
-172.541816
 30
850.0
 70
    64
  0
VERTEX
  5
F1
  8
TEAM-NET1
 10
374.309333
 20
-189.854798
 30
850.0
 70
    64
  0
VERTEX
  5
F2
  8
TEAM-NET1
 10
368.517352
 20
-206.8034
 30
850.0
 70
    64
  0
VERTEX
  5
F3
  8
TEAM-NET1
 10
361.551323
 20
-223.304206
 30
850.0
 70
    64
  0
VERTEX
  5
F4
  8
TEAM-NET1
 10
353.445531
 20
-239.276003
 30
850.0
 70
    64
  0
VERTEX
  5
F5
  8
TEAM-NET1
 10
344.239871
 20
-254.640181
 30
850.0
 70
    64
  0
VERTEX
  5
F6
  8
TEAM-NET1
 10
333.979651
 20
-269.321122
 30
850.0
 70
    64
  0
VERTEX
  5
F7
  8
TEAM-NET1
 10
322.715368
 20
-283.24657
 30
850.0
 70
    64
  0
VERTEX
  5
F8
  8
TEAM-NET1
 10
310.502464
 20
-296.347987
 30
850.0
 70
    64
  0
VERTEX
  5
F9
  8
TEAM-NET1
 10
297.401047
 20
-308.560892
 30
850.0
 70
    64
  0
VERTEX
  5
FA
  8
TEAM-NET1
 10
283.475599
 20
-319.825174
 30
850.0
 70
    64
  0
VERTEX
  5
FB
  8
TEAM-NET1
 10
268.794658
 20
-330.085394
 30
850.0
 70
    64
  0
VERTEX
  5
FC
  8
TEAM-NET1
 10
253.43048
 20
-339.291054
 30
850.0
 70
    64
  0
VERTEX
  5
FD
  8
TEAM-NET1
 10
237.458683
 20
-347.396846
 30
850.0
 70
    64
  0
VERTEX
  5
FE
  8
TEAM-NET1
 10
220.957877
 20
-354.362875
 30
850.0
 70
    64
  0
VERTEX
  5
FF
  8
TEAM-NET1
 10
204.009275
 20
-360.154856
 30
850.0
 70
    64
  0
VERTEX
  5
100
  8
TEAM-NET1
 10
186.696293
 20
-364.744282
 30
850.0
 70
    64
  0
VERTEX
  5
101
  8
TEAM-NET1
 10
169.104143
 20
-368.108565
 30
850.0
 70
    64
  0
VERTEX
  5
102
  8
TEAM-NET1
 10
151.319408
 20
-370.231147
 30
850.0
 70
    64
  0
VERTEX
  5
103
  8
TEAM-NET1
 10
133.42962
 20
-371.101581
 30
850.0
 70
    64
  0
VERTEX
  5
104
  8
TEAM-NET1
 10
115.522829
 20
-370.715584
 30
850.0
 70
    64
  0
VERTEX
  5
105
  8
TEAM-NET1
 10
97.687168
 20
-369.075054
 30
850.0
 70
    64
  0
VERTEX
  5
106
  8
TEAM-NET1
 10
80.010419
 20
-366.188066
 30
850.0
 70
    64
  0
VERTEX
  5
107
  8
TEAM-NET1
 10
62.579583
 20
-362.068829
 30
850.0
 70
    64
  0
VERTEX
  5
108
  8
TEAM-NET1
 10
47.068522
 20
-353.415205
 30
850.0
 70
    64
  0
VERTEX
  5
109
  8
TEAM-NET1
 10
36.845058
 20
-338.886404
 30
850.0
 70
    64
  0
VERTEX
  5
10A
  8
TEAM-NET1
 10
33.92132
 20
-321.363361
 30
850.0
 70
    64
  0
VERTEX
  5
10B
  8
TEAM-NET1
 10
414.5
 20
0.0
 30
850.0
 70
    64
  0
VERTEX
  5
10C
  8
TEAM-NET1
 10
419.224412
 20
-18.546312
 30
850.0
 70
    64
  0
VERTEX
  5
10D
  8
TEAM-NET1
 10
422.773451
 20
-37.352961
 30
850.0
 70
    64
  0
VERTEX
  5
10E
  8
TEAM-NET1
 10
425.133073
 20
-56.345537
 30
850.0
 70
    64
  0
VERTEX
  5
10F
  8
TEAM-NET1
 10
426.293943
 20
-75.448891
 30
850.0
 70
    64
  0
VERTEX
  5
110
  8
TEAM-NET1
 10
426.251468
 20
-94.587437
 30
850.0
 70
    64
  0
VERTEX
  5
111
  8
TEAM-NET1
 10
425.005814
 20
-113.68545
 30
850.0
 70
    64
  0
VERTEX
  5
112
  8
TEAM-NET1
 10
422.561912
 20
-132.667365
 30
850.0
 70
    64
  0
VERTEX
  5
113
  8
TEAM-NET1
 10
418.929431
 20
-151.458076
 30
850.0
 70
    64
  0
VERTEX
  5
114
  8
TEAM-NET1
 10
414.122743
 20
-169.983235
 30
850.0
 70
    64
  0
VERTEX
  5
115
  8
TEAM-NET1
 10
408.160868
 20
-188.169543
 30
850.0
 70
    64
  0
VERTEX
  5
116
  8
TEAM-NET1
 10
401.067393
 20
-205.945042
 30
850.0
 70
    64
  0
VERTEX
  5
117
  8
TEAM-NET1
 10
392.870387
 20
-223.2394
 30
850.0
 70
    64
  0
VERTEX
  5
118
  8
TEAM-NET1
 10
383.602282
 20
-239.98419
 30
850.0
 70
    64
  0
VERTEX
  5
119
  8
TEAM-NET1
 10
373.299748
 20
-256.113156
 30
850.0
 70
    64
  0
VERTEX
  5
11A
  8
TEAM-NET1
 10
362.003551
 20
-271.562482
 30
850.0
 70
    64
  0
VERTEX
  5
11B
  8
TEAM-NET1
 10
349.758385
 20
-286.27104
 30
850.0
 70
    64
  0
VERTEX
  5
11C
  8
TEAM-NET1
 10
336.612701
 20
-300.180631
 30
850.0
 70
    64
  0
VERTEX
  5
11D
  8
TEAM-NET1
 10
322.618512
 20
-313.236221
 30
850.0
 70
    64
  0
VERTEX
  5
11E
  8
TEAM-NET1
 10
307.83119
 20
-325.386153
 30
850.0
 70
    64
  0
VERTEX
  5
11F
  8
TEAM-NET1
 10
292.309242
 20
-336.582352
 30
850.0
 70
    64
  0
VERTEX
  5
120
  8
TEAM-NET1
 10
276.114084
 20
-346.78052
 30
850.0
 70
    64
  0
VERTEX
  5
121
  8
TEAM-NET1
 10
259.309796
 20
-355.940304
 30
850.0
 70
    64
  0
VERTEX
  5
122
  8
TEAM-NET1
 10
241.962866
 20
-364.025463
 30
850.0
 70
    64
  0
VERTEX
  5
123
  8
TEAM-NET1
 10
224.141932
 20
-371.004006
 30
850.0
 70
    64
  0
VERTEX
  5
124
  8
TEAM-NET1
 10
205.917506
 20
-376.848321
 30
850.0
 70
    64
  0
VERTEX
  5
125
  8
TEAM-NET1
 10
187.361695
 20
-381.535284
 30
850.0
 70
    64
  0
VERTEX
  5
126
  8
TEAM-NET1
 10
168.547919
 20
-385.04635
 30
850.0
 70
    64
  0
VERTEX
  5
127
  8
TEAM-NET1
 10
149.550618
 20
-387.367628
 30
850.0
 70
    64
  0
VERTEX
  5
128
  8
TEAM-NET1
 10
130.44496
 20
-388.489931
 30
850.0
 70
    64
  0
VERTEX
  5
129
  8
TEAM-NET1
 10
111.306539
 20
-388.408821
 30
850.0
 70
    64
  0
VERTEX
  5
12A
  8
TEAM-NET1
 10
92.211079
 20
-387.124617
 30
850.0
 70
    64
  0
VERTEX
  5
12B
  8
TEAM-NET1
 10
73.234136
 20
-384.642401
 30
850.0
 70
    64
  0
VERTEX
  5
12C
  8
TEAM-NET1
 10
54.450796
 20
-380.971994
 30
850.0
 70
    64
  0
VERTEX
  5
12D
  8
TEAM-NET1
 10
35.935379
 20
-376.12792
 30
850.0
 70
    64
  0
VERTEX
  5
12E
  8
TEAM-NET1
 10
17.761143
 20
-370.129343
 30
850.0
 70
    64
  0
VERTEX
  5
12F
  8
TEAM-NET1
 10
0.0
 20
-363.0
 30
850.0
 70
    64
  0
SEQEND
  5
130
  8
TEAM-NET1
  0
ENDSEC
  0
EOF
