  0
SECTION
  2
HEADER
  9
$ACADVER
  1
AC1009
  9
$INSBASE
 10
0.0
 20
0.0
 30
0.0
  9
$EXTMIN
 10
-180.470497
 20
-570.033278
 30
-0.024718
  9
$EXTMAX
 10
180.470501
 20
10.035404
 30
405.024722
  9
$LIMMIN
 10
-180.470497
 20
-570.033278
  9
$LIMMAX
 10
180.470501
 20
10.035404
  9
$ORTHOMODE
 70
     1
  9
$REGENMODE
 70
     1
  9
$FILLMODE
 70
     1
  9
$QTEXTMODE
 70
     0
  9
$MIRRTEXT
 70
     0
  9
$DRAGMODE
 70
     2
  9
$LTSCALE
 40
25.0
  9
$OSMODE
 70
     0
  9
$ATTMODE
 70
     1
  9
$TEXTSIZE
 40
200.0
  9
$TRACEWID
 40
1.0
  9
$TEXTSTYLE
  7
STANDARD
  9
$CLAYER
  8
TEAM-MAS
  9
$CELTYPE
  6
BYLAYER
  9
$CECOLOR
 62
   256
  9
$DIMSCALE
 40
0.0
  9
$DIMASZ
 40
20.0
  9
$DIMEXO
 40
10.0
  9
$DIMDLI
 40
1.0
  9
$DIMRND
 40
0.0
  9
$DIMDLE
 40
0.0
  9
$DIMEXE
 40
1.0
  9
$DIMTP
 40
0.0
  9
$DIMTM
 40
0.0
  9
$DIMTXT
 40
35.0
  9
$DIMCEN
 40
1.0
  9
$DIMTSZ
 40
0.0
  9
$DIMTOL
 70
     0
  9
$DIMLIM
 70
     0
  9
$DIMTIH
 70
     0
  9
$DIMTOH
 70
     0
  9
$DIMSE1
 70
     0
  9
$DIMSE2
 70
     0
  9
$DIMTAD
 70
     0
  9
$DIMZIN
 70
     0
  9
$DIMBLK
  1

  9
$DIMASO
 70
     1
  9
$DIMSHO
 70
     0
  9
$DIMPOST
  1

  9
$DIMAPOST
  1

  9
$DIMALT
 70
     0
  9
$DIMALTD
 70
     2
  9
$DIMALTF
 40
25.4
  9
$DIMLFAC
 40
1.0
  9
$DIMTOFL
 70
     0
  9
$DIMTVP
 40
0.0
  9
$DIMTIX
 70
     0
  9
$DIMSOXD
 70
     0
  9
$DIMSAH
 70
     0
  9
$DIMBLK1
  1

  9
$DIMBLK2
  1

  9
$DIMSTYLE
  2
TEAM
  9
$DIMCLRD
 70
     9
  9
$DIMCLRE
 70
     9
  9
$DIMCLRT
 70
    11
  9
$DIMTFAC
 40
1.0
  9
$DIMGAP
 40
15.0
  9
$LUNITS
 70
     2
  9
$LUPREC
 70
     1
  9
$SKETCHINC
 40
1.0
  9
$FILLETRAD
 40
50.0
  9
$AUNITS
 70
     0
  9
$AUPREC
 70
     0
  9
$MENU
  1
ROPLANS
  9
$ELEVATION
 40
0.0
  9
$PELEVATION
 40
0.0
  9
$THICKNESS
 40
0.0
  9
$LIMCHECK
 70
     0
  9
$BLIPMODE
 70
     1
  9
$CHAMFERA
 40
0.0
  9
$CHAMFERB
 40
0.0
  9
$SKPOLY
 70
     0
  9
$TDCREATE
 40
2450392.957851
  9
$TDUPDATE
 40
2455505.390806
  9
$TDINDWG
 40
2.108696
  9
$TDUSRTIMER
 40
2.108696
  9
$USRTIMER
 70
     1
  9
$ANGBASE
 50
0.0
  9
$ANGDIR
 70
     0
  9
$PDMODE
 70
     0
  9
$PDSIZE
 40
0.0
  9
$PLINEWID
 40
0.0
  9
$COORDS
 70
     2
  9
$SPLFRAME
 70
     0
  9
$SPLINETYPE
 70
     6
  9
$SPLINESEGS
 70
     8
  9
$ATTDIA
 70
     0
  9
$ATTREQ
 70
     0
  9
$HANDLING
 70
     1
  9
$HANDSEED
  5
75F
  9
$SURFTAB1
 70
    24
  9
$SURFTAB2
 70
    24
  9
$SURFTYPE
 70
     6
  9
$SURFU
 70
     6
  9
$SURFV
 70
     6
  9
$UCSNAME
  2

  9
$UCSORG
 10
0.0
 20
0.0
 30
0.0
  9
$UCSXDIR
 10
1.0
 20
0.0
 30
0.0
  9
$UCSYDIR
 10
0.0
 20
1.0
 30
0.0
  9
$PUCSNAME
  2

  9
$PUCSORG
 10
0.0
 20
0.0
 30
0.0
  9
$PUCSXDIR
 10
1.0
 20
0.0
 30
0.0
  9
$PUCSYDIR
 10
0.0
 20
1.0
 30
0.0
  9
$USERI1
 70
     0
  9
$USERI2
 70
     0
  9
$USERI3
 70
     0
  9
$USERI4
 70
     0
  9
$USERI5
 70
     0
  9
$USERR1
 40
0.0
  9
$USERR2
 40
0.0
  9
$USERR3
 40
0.0
  9
$USERR4
 40
0.0
  9
$USERR5
 40
0.0
  9
$WORLDVIEW
 70
     1
  9
$SHADEDGE
 70
     0
  9
$SHADEDIF
 70
    70
  9
$TILEMODE
 70
     1
  9
$MAXACTVP
 70
    16
  9
$PLIMCHECK
 70
     0
  9
$PEXTMIN
 10
-0.805942
 20
0.005011
 30
0.0
  9
$PEXTMAX
 10
20.250094
 20
11.356329
 30
0.0
  9
$PLIMMIN
 10
0.0
 20
0.0
  9
$PLIMMAX
 10
12.0
 20
9.0
  9
$UNITMODE
 70
     0
  9
$VISRETAIN
 70
     0
  9
$PLINEGEN
 70
     0
  9
$PSLTSCALE
 70
     0
  0
ENDSEC
  0
SECTION
  2
TABLES
  0
TABLE
  2
VPORT
 70
     2
  0
VPORT
  2
*ACTIVE
 70
     0
 10
0.0
 20
0.0
 11
1.0
 21
1.0
 12
0.000002
 22
-279.998937
 13
0.0
 23
0.0
 14
1.0
 24
1.0
 15
50.0
 25
50.0
 16
0.0
 26
0.0
 36
1.0
 17
0.0
 27
0.0
 37
0.0
 40
583.631028
 41
1.865779
 42
50.0
 43
0.0
 44
0.0
 50
0.0
 51
0.0
 71
     0
 72
   100
 73
     1
 74
     1
 75
     0
 76
     0
 77
     0
 78
     0
  0
ENDTAB
  0
TABLE
  2
LTYPE
 70
     1
  0
LTYPE
  2
CONTINUOUS
 70
     0
  3
Solid Line
 72
    65
 73
     0
 40
0.0
  0
ENDTAB
  0
TABLE
  2
LAYER
 70
     7
  0
LAYER
  2
0
 70
     0
 62
     7
  6
CONTINUOUS
  0
LAYER
  2
TEAM-BODY
 70
     0
 62
     2
  6
CONTINUOUS
  0
LAYER
  2
TEAM-MAS
 70
     0
 62
     9
  6
CONTINUOUS
  0
LAYER
  2
TEAM-TXT
 70
     0
 62
    11
  6
CONTINUOUS
  0
LAYER
  2
TEAM-DET1
 70
     0
 62
     4
  6
CONTINUOUS
  0
LAYER
  2
TEAM-NET
 70
     0
 62
    15
  6
CONTINUOUS
  0
LAYER
  2
TEAM-INSP
 70
     0
 62
     5
  6
CONTINUOUS
  0
ENDTAB
  0
TABLE
  2
STYLE
 70
     2
  0
STYLE
  2
STANDARD
 70
     0
 40
0.0
 41
1.0
 50
0.0
 71
     0
 42
200.0
  3
txt
  4

  0
STYLE
  2
TEAM
 70
     0
 40
0.0
 41
0.8
 50
15.0
 71
     0
 42
7.0
  3
ROMANS.shx
  4

  0
ENDTAB
  0
TABLE
  2
VIEW
 70
     0
  0
ENDTAB
  0
TABLE
  2
UCS
 70
     0
  0
ENDTAB
  0
TABLE
  2
APPID
 70
     1
  0
APPID
  2
ACAD
 70
     0
  0
ENDTAB
  0
TABLE
  2
DIMSTYLE
 70
     1
  0
DIMSTYLE
  2
TEAM
 70
     0
  3

  4

  5

  6

  7

 40
0.0
 41
20.0
 42
10.0
 43
1.0
 44
1.0
 45
0.0
 46
0.0
 47
0.0
 48
0.0
140
35.0
141
1.0
142
0.0
143
25.4
144
1.0
145
0.0
146
1.0
147
15.0
 71
     0
 72
     0
 73
     0
 74
     0
 75
     0
 76
     0
 77
     0
 78
     0
170
     0
171
     2
172
     0
173
     0
174
     0
175
     0
176
     9
177
     9
178
    11
  0
ENDTAB
  0
ENDSEC
  0
SECTION
  2
BLOCKS
  0
BLOCK
  8
0
  2
$MODEL_SPACE
 70
     0
 10
0.0
 20
0.0
 30
0.0
  3
$MODEL_SPACE
  1

  0
ENDBLK
  5
6F4
  8
0
  0
BLOCK
 67
     1
  8
0
  2
$PAPER_SPACE
 70
     0
 10
0.0
 20
0.0
 30
0.0
  3
$PAPER_SPACE
  1

  0
ENDBLK
  5
6F2
 67
     1
  8
0
  0
ENDSEC
  0
SECTION
  2
ENTITIES
  0
POLYLINE
  5
20
  8
TEAM-NET
 66
     1
 10
0.0
 20
0.0
 30
0.0
 70
    16
 71
     2
 72
    25
  0
VERTEX
  5
21
  8
TEAM-NET
 10
0.0
 20
0.0
 30
400.0
 70
    64
  0
VERTEX
  5
22
  8
TEAM-NET
 10
35.165494
 20
0.0
 30
400.0
 70
    64
  0
VERTEX
  5
23
  8
TEAM-NET
 10
70.330987
 20
0.0
 30
400.0
 70
    64
  0
VERTEX
  5
24
  8
TEAM-NET
 10
105.496481
 20
0.0
 30
400.0
 70
    64
  0
VERTEX
  5
25
  8
TEAM-NET
 10
140.661975
 20
0.0
 30
400.0
 70
    64
  0
VERTEX
  5
26
  8
TEAM-NET
 10
175.827468
 20
0.0
 30
400.0
 70
    64
  0
VERTEX
  5
27
  8
TEAM-NET
 10
176.410011
 20
-35.033831
 30
400.0
 70
    64
  0
VERTEX
  5
28
  8
TEAM-NET
 10
176.865497
 20
-70.196374
 30
400.0
 70
    64
  0
VERTEX
  5
29
  8
TEAM-NET
 10
177.320983
 20
-105.358918
 30
400.0
 70
    64
  0
VERTEX
  5
2A
  8
TEAM-NET
 10
177.77647
 20
-140.521462
 30
400.0
 70
    64
  0
VERTEX
  5
2B
  8
TEAM-NET
 10
178.231956
 20
-175.684005
 30
400.0
 70
    64
  0
VERTEX
  5
2C
  8
TEAM-NET
 10
178.687442
 20
-210.846549
 30
400.0
 70
    64
  0
VERTEX
  5
2D
  8
TEAM-NET
 10
179.142928
 20
-246.009093
 30
400.0
 70
    64
  0
VERTEX
  5
2E
  8
TEAM-NET
 10
179.598415
 20
-281.171636
 30
400.0
 70
    64
  0
VERTEX
  5
2F
  8
TEAM-NET
 10
180.053901
 20
-316.33418
 30
400.0
 70
    64
  0
VERTEX
  5
30
  8
TEAM-NET
 10
180.308584
 20
-351.495037
 30
400.0
 70
    64
  0
VERTEX
  5
31
  8
TEAM-NET
 10
178.150994
 20
-386.577313
 30
400.0
 70
    64
  0
VERTEX
  5
32
  8
TEAM-NET
 10
172.010426
 20
-421.173134
 30
400.0
 70
    64
  0
VERTEX
  5
33
  8
TEAM-NET
 10
160.950557
 20
-454.45941
 30
400.0
 70
    64
  0
VERTEX
  5
34
  8
TEAM-NET
 10
145.128606
 20
-485.831153
 30
400.0
 70
    64
  0
VERTEX
  5
35
  8
TEAM-NET
 10
124.456099
 20
-514.208583
 30
400.0
 70
    64
  0
VERTEX
  5
36
  8
TEAM-NET
 10
98.501866
 20
-537.83373
 30
400.0
 70
    64
  0
VERTEX
  5
37
  8
TEAM-NET
 10
68.305686
 20
-555.709397
 30
400.0
 70
    64
  0
VERTEX
  5
38
  8
TEAM-NET
 10
34.913272
 20
-566.475719
 30
400.0
 70
    64
  0
VERTEX
  5
39
  8
TEAM-NET
 10
0.0
 20
-569.926953
 30
400.0
 70
    64
  0
VERTEX
  5
3A
  8
TEAM-NET
 10
0.0
 20
0.0
 30
40.0
 70
    64
  0
VERTEX
  5
3B
  8
TEAM-NET
 10
22.492092
 20
0.0
 30
40.0
 70
    64
  0
VERTEX
  5
3C
  8
TEAM-NET
 10
44.984183
 20
0.0
 30
40.0
 70
    64
  0
VERTEX
  5
3D
  8
TEAM-NET
 10
57.584947
 20
-9.975346
 30
40.0
 70
    64
  0
VERTEX
  5
3E
  8
TEAM-NET
 10
57.775186
 20
-32.466633
 30
40.0
 70
    64
  0
VERTEX
  5
3F
  8
TEAM-NET
 10
57.965425
 20
-54.95792
 30
40.0
 70
    64
  0
VERTEX
  5
40
  8
TEAM-NET
 10
58.155664
 20
-77.449207
 30
40.0
 70
    64
  0
VERTEX
  5
41
  8
TEAM-NET
 10
58.345902
 20
-99.940494
 30
40.0
 70
    64
  0
VERTEX
  5
42
  8
TEAM-NET
 10
58.536141
 20
-122.431781
 30
40.0
 70
    64
  0
VERTEX
  5
43
  8
TEAM-NET
 10
58.72638
 20
-144.923068
 30
40.0
 70
    64
  0
VERTEX
  5
44
  8
TEAM-NET
 10
58.916619
 20
-167.414355
 30
40.0
 70
    64
  0
VERTEX
  5
45
  8
TEAM-NET
 10
59.106857
 20
-189.905642
 30
40.0
 70
    64
  0
VERTEX
  5
46
  8
TEAM-NET
 10
59.297096
 20
-212.396929
 30
40.0
 70
    64
  0
VERTEX
  5
47
  8
TEAM-NET
 10
59.487335
 20
-234.888217
 30
40.0
 70
    64
  0
VERTEX
  5
48
  8
TEAM-NET
 10
59.677574
 20
-257.379504
 30
40.0
 70
    64
  0
VERTEX
  5
49
  8
TEAM-NET
 10
59.867812
 20
-279.870791
 30
40.0
 70
    64
  0
VERTEX
  5
4A
  8
TEAM-NET
 10
60.058051
 20
-302.362078
 30
40.0
 70
    64
  0
VERTEX
  5
4B
  8
TEAM-NET
 10
60.24829
 20
-324.853365
 30
40.0
 70
    64
  0
VERTEX
  5
4C
  8
TEAM-NET
 10
60.378989
 20
-347.344018
 30
40.0
 70
    64
  0
VERTEX
  5
4D
  8
TEAM-NET
 10
59.188771
 20
-369.794435
 30
40.0
 70
    64
  0
VERTEX
  5
4E
  8
TEAM-NET
 10
55.591461
 20
-391.973052
 30
40.0
 70
    64
  0
VERTEX
  5
4F
  8
TEAM-NET
 10
47.927957
 20
-413.031953
 30
40.0
 70
    64
  0
VERTEX
  5
50
  8
TEAM-NET
 10
36.461529
 20
-432.296262
 30
40.0
 70
    64
  0
VERTEX
  5
51
  8
TEAM-NET
 10
19.044177
 20
-446.199308
 30
40.0
 70
    64
  0
VERTEX
  5
52
  8
TEAM-NET
 10
-2.914273
 20
-450.099781
 30
40.0
 70
    64
  0
SEQEND
  5
54
  8
TEAM-NET
  0
POLYLINE
  5
55
  8
TEAM-NET
 66
     1
 10
0.0
 20
0.0
 30
0.0
 70
    16
 71
     2
 72
    25
  0
VERTEX
  5
56
  8
TEAM-NET
 10
0.0
 20
0.0
 30
40.0
 70
    64
  0
VERTEX
  5
57
  8
TEAM-NET
 10
-22.492092
 20
0.0
 30
40.0
 70
    64
  0
VERTEX
  5
58
  8
TEAM-NET
 10
-44.984183
 20
0.0
 30
40.0
 70
    64
  0
VERTEX
  5
59
  8
TEAM-NET
 10
-57.584947
 20
-9.975346
 30
40.0
 70
    64
  0
VERTEX
  5
5A
  8
TEAM-NET
 10
-57.775186
 20
-32.466633
 30
40.0
 70
    64
  0
VERTEX
  5
5B
  8
TEAM-NET
 10
-57.965425
 20
-54.95792
 30
40.0
 70
    64
  0
VERTEX
  5
5C
  8
TEAM-NET
 10
-58.155664
 20
-77.449207
 30
40.0
 70
    64
  0
VERTEX
  5
5D
  8
TEAM-NET
 10
-58.345902
 20
-99.940494
 30
40.0
 70
    64
  0
VERTEX
  5
5E
  8
TEAM-NET
 10
-58.536141
 20
-122.431781
 30
40.0
 70
    64
  0
VERTEX
  5
5F
  8
TEAM-NET
 10
-58.72638
 20
-144.923068
 30
40.0
 70
    64
  0
VERTEX
  5
60
  8
TEAM-NET
 10
-58.916619
 20
-167.414355
 30
40.0
 70
    64
  0
VERTEX
  5
61
  8
TEAM-NET
 10
-59.106857
 20
-189.905642
 30
40.0
 70
    64
  0
VERTEX
  5
62
  8
TEAM-NET
 10
-59.297096
 20
-212.396929
 30
40.0
 70
    64
  0
VERTEX
  5
63
  8
TEAM-NET
 10
-59.487335
 20
-234.888217
 30
40.0
 70
    64
  0
VERTEX
  5
64
  8
TEAM-NET
 10
-59.677574
 20
-257.379504
 30
40.0
 70
    64
  0
VERTEX
  5
65
  8
TEAM-NET
 10
-59.867812
 20
-279.870791
 30
40.0
 70
    64
  0
VERTEX
  5
66
  8
TEAM-NET
 10
-60.058051
 20
-302.362078
 30
40.0
 70
    64
  0
VERTEX
  5
67
  8
TEAM-NET
 10
-60.24829
 20
-324.853365
 30
40.0
 70
    64
  0
VERTEX
  5
68
  8
TEAM-NET
 10
-60.378989
 20
-347.344018
 30
40.0
 70
    64
  0
VERTEX
  5
69
  8
TEAM-NET
 10
-59.188771
 20
-369.794435
 30
40.0
 70
    64
  0
VERTEX
  5
6A
  8
TEAM-NET
 10
-55.591461
 20
-391.973052
 30
40.0
 70
    64
  0
VERTEX
  5
6B
  8
TEAM-NET
 10
-47.927957
 20
-413.031953
 30
40.0
 70
    64
  0
VERTEX
  5
6C
  8
TEAM-NET
 10
-36.461529
 20
-432.296262
 30
40.0
 70
    64
  0
VERTEX
  5
6D
  8
TEAM-NET
 10
-19.044177
 20
-446.199308
 30
40.0
 70
    64
  0
VERTEX
  5
6E
  8
TEAM-NET
 10
2.914273
 20
-450.099781
 30
40.0
 70
    64
  0
VERTEX
  5
6F
  8
TEAM-NET
 10
0.0
 20
0.0
 30
400.0
 70
    64
  0
VERTEX
  5
70
  8
TEAM-NET
 10
-35.165494
 20
0.0
 30
400.0
 70
    64
  0
VERTEX
  5
71
  8
TEAM-NET
 10
-70.330987
 20
0.0
 30
400.0
 70
    64
  0
VERTEX
  5
72
  8
TEAM-NET
 10
-105.496481
 20
0.0
 30
400.0
 70
    64
  0
VERTEX
  5
73
  8
TEAM-NET
 10
-140.661975
 20
0.0
 30
400.0
 70
    64
  0
VERTEX
  5
74
  8
TEAM-NET
 10
-175.827468
 20
0.0
 30
400.0
 70
    64
  0
VERTEX
  5
75
  8
TEAM-NET
 10
-176.410011
 20
-35.033831
 30
400.0
 70
    64
  0
VERTEX
  5
76
  8
TEAM-NET
 10
-176.865497
 20
-70.196374
 30
400.0
 70
    64
  0
VERTEX
  5
77
  8
TEAM-NET
 10
-177.320983
 20
-105.358918
 30
400.0
 70
    64
  0
VERTEX
  5
78
  8
TEAM-NET
 10
-177.77647
 20
-140.521462
 30
400.0
 70
    64
  0
VERTEX
  5
79
  8
TEAM-NET
 10
-178.231956
 20
-175.684005
 30
400.0
 70
    64
  0
VERTEX
  5
7A
  8
TEAM-NET
 10
-178.687442
 20
-210.846549
 30
400.0
 70
    64
  0
VERTEX
  5
7B
  8
TEAM-NET
 10
-179.142928
 20
-246.009093
 30
400.0
 70
    64
  0
VERTEX
  5
7C
  8
TEAM-NET
 10
-179.598415
 20
-281.171636
 30
400.0
 70
    64
  0
VERTEX
  5
7D
  8
TEAM-NET
 10
-180.053901
 20
-316.33418
 30
400.0
 70
    64
  0
VERTEX
  5
7E
  8
TEAM-NET
 10
-180.308584
 20
-351.495037
 30
400.0
 70
    64
  0
VERTEX
  5
7F
  8
TEAM-NET
 10
-178.150994
 20
-386.577313
 30
400.0
 70
    64
  0
VERTEX
  5
80
  8
TEAM-NET
 10
-172.010426
 20
-421.173134
 30
400.0
 70
    64
  0
VERTEX
  5
81
  8
TEAM-NET
 10
-160.950557
 20
-454.45941
 30
400.0
 70
    64
  0
VERTEX
  5
82
  8
TEAM-NET
 10
-145.128606
 20
-485.831153
 30
400.0
 70
    64
  0
VERTEX
  5
83
  8
TEAM-NET
 10
-124.456099
 20
-514.208583
 30
400.0
 70
    64
  0
VERTEX
  5
84
  8
TEAM-NET
 10
-98.501866
 20
-537.83373
 30
400.0
 70
    64
  0
VERTEX
  5
85
  8
TEAM-NET
 10
-68.305686
 20
-555.709397
 30
400.0
 70
    64
  0
VERTEX
  5
86
  8
TEAM-NET
 10
-34.913272
 20
-566.475719
 30
400.0
 70
    64
  0
VERTEX
  5
87
  8
TEAM-NET
 10
0.0
 20
-569.926953
 30
400.0
 70
    64
  0
SEQEND
  5
88
  8
TEAM-NET
  0
CIRCLE
  5
89
  8
TEAM-INSP
 10
0.0
 20
0.0
 30
0.0
 40
10.0
  0
CIRCLE
  5
8B
  8
TEAM-INSP
 10
0.0
 20
0.0
 30
0.0
 40
10.0
  0
POLYLINE
  5
8C
  8
TEAM-DET1
 66
     1
 10
0.0
 20
0.0
 30
40.0
  0
VERTEX
  5
6FA
  8
TEAM-DET1
 10
-2.914273
 20
-450.099781
 30
40.0
  0
VERTEX
  5
6FB
  8
TEAM-DET1
 10
5.459905
 20
-449.754451
 30
40.0
  0
VERTEX
  5
6FC
  8
TEAM-DET1
 10
8.842045
 20
-449.333252
 30
40.0
  0
VERTEX
  5
6FD
  8
TEAM-DET1
 10
12.166702
 20
-448.635006
 30
40.0
  0
VERTEX
  5
6FE
  8
TEAM-DET1
 10
15.435895
 20
-447.657288
 30
40.0
  0
VERTEX
  5
6FF
  8
TEAM-DET1
 10
18.658523
 20
-446.389984
 30
40.0
  0
VERTEX
  5
700
  8
TEAM-DET1
 10
21.849906
 20
-444.8121
 30
40.0
  0
VERTEX
  5
701
  8
TEAM-DET1
 10
25.029818
 20
-442.888733
 30
40.0
  0
VERTEX
  5
702
  8
TEAM-DET1
 10
28.219341
 20
-440.568567
 30
40.0
  0
VERTEX
  5
703
  8
TEAM-DET1
 10
31.436631
 20
-437.782494
 30
40.0
  0
VERTEX
  5
704
  8
TEAM-DET1
 10
34.691784
 20
-434.44399
 30
40.0
  0
VERTEX
  5
705
  8
TEAM-DET1
 10
37.981828
 20
-430.451257
 30
40.0
  0
VERTEX
  5
706
  8
TEAM-DET1
 10
41.286543
 20
-425.690958
 30
40.0
  0
VERTEX
  5
707
  8
TEAM-DET1
 10
44.565419
 20
-420.043601
 30
40.0
  0
VERTEX
  5
708
  8
TEAM-DET1
 10
49.119054
 20
-410.54825
 30
40.0
  0
VERTEX
  5
709
  8
TEAM-DET1
 10
52.700283
 20
-402.594104
 30
40.0
  0
VERTEX
  5
70A
  8
TEAM-DET1
 10
54.528543
 20
-396.610631
 30
40.0
  0
VERTEX
  5
70B
  8
TEAM-DET1
 10
56.893727
 20
-386.291182
 30
40.0
  0
VERTEX
  5
70C
  8
TEAM-DET1
 10
58.748095
 20
-374.579693
 30
40.0
  0
VERTEX
  5
70D
  8
TEAM-DET1
 10
59.960192
 20
-361.417645
 30
40.0
  0
VERTEX
  5
70E
  8
TEAM-DET1
 10
60.425347
 20
-345.786179
 30
40.0
  0
VERTEX
  5
70F
  8
TEAM-DET1
 10
57.500573
 20
0.0
 30
40.0
  0
VERTEX
  5
710
  8
TEAM-DET1
 10
0.0
 20
0.0
 30
40.0
  0
SEQEND
  5
711
  8
TEAM-DET1
  0
POLYLINE
  5
8E
  8
TEAM-DET1
 66
     1
 10
0.0
 20
0.0
 30
40.0
  0
VERTEX
  5
712
  8
TEAM-DET1
 10
2.914273
 20
-450.099781
 30
40.0
  0
VERTEX
  5
713
  8
TEAM-DET1
 10
-5.459905
 20
-449.754451
 30
40.0
  0
VERTEX
  5
714
  8
TEAM-DET1
 10
-8.842045
 20
-449.333252
 30
40.0
  0
VERTEX
  5
715
  8
TEAM-DET1
 10
-12.166702
 20
-448.635006
 30
40.0
  0
VERTEX
  5
716
  8
TEAM-DET1
 10
-15.435895
 20
-447.657288
 30
40.0
  0
VERTEX
  5
717
  8
TEAM-DET1
 10
-18.658523
 20
-446.389984
 30
40.0
  0
VERTEX
  5
718
  8
TEAM-DET1
 10
-21.849906
 20
-444.8121
 30
40.0
  0
VERTEX
  5
719
  8
TEAM-DET1
 10
-25.029818
 20
-442.888733
 30
40.0
  0
VERTEX
  5
71A
  8
TEAM-DET1
 10
-28.219341
 20
-440.568567
 30
40.0
  0
VERTEX
  5
71B
  8
TEAM-DET1
 10
-31.436631
 20
-437.782494
 30
40.0
  0
VERTEX
  5
71C
  8
TEAM-DET1
 10
-34.691784
 20
-434.44399
 30
40.0
  0
VERTEX
  5
71D
  8
TEAM-DET1
 10
-37.981828
 20
-430.451257
 30
40.0
  0
VERTEX
  5
71E
  8
TEAM-DET1
 10
-41.286543
 20
-425.690958
 30
40.0
  0
VERTEX
  5
71F
  8
TEAM-DET1
 10
-44.565419
 20
-420.043601
 30
40.0
  0
VERTEX
  5
720
  8
TEAM-DET1
 10
-49.119054
 20
-410.54825
 30
40.0
  0
VERTEX
  5
721
  8
TEAM-DET1
 10
-52.700283
 20
-402.594104
 30
40.0
  0
VERTEX
  5
722
  8
TEAM-DET1
 10
-54.528543
 20
-396.610631
 30
40.0
  0
VERTEX
  5
723
  8
TEAM-DET1
 10
-56.893727
 20
-386.291182
 30
40.0
  0
VERTEX
  5
724
  8
TEAM-DET1
 10
-58.748095
 20
-374.579693
 30
40.0
  0
VERTEX
  5
725
  8
TEAM-DET1
 10
-59.960192
 20
-361.417645
 30
40.0
  0
VERTEX
  5
726
  8
TEAM-DET1
 10
-60.425347
 20
-345.786179
 30
40.0
  0
VERTEX
  5
727
  8
TEAM-DET1
 10
-57.500573
 20
0.0
 30
40.0
  0
VERTEX
  5
728
  8
TEAM-DET1
 10
0.0
 20
0.0
 30
40.0
  0
SEQEND
  5
729
  8
TEAM-DET1
  0
POLYLINE
  5
8F
  8
TEAM-NET
 66
     1
 10
0.0
 20
0.0
 30
0.0
 70
    16
 71
     2
 72
    25
  0
VERTEX
  5
90
  8
TEAM-NET
 10
-2.914273
 20
-450.099781
 30
40.0
 70
    64
  0
VERTEX
  5
91
  8
TEAM-NET
 10
19.044177
 20
-446.199308
 30
40.0
 70
    64
  0
VERTEX
  5
92
  8
TEAM-NET
 10
36.461529
 20
-432.296262
 30
40.0
 70
    64
  0
VERTEX
  5
93
  8
TEAM-NET
 10
47.927957
 20
-413.031953
 30
40.0
 70
    64
  0
VERTEX
  5
94
  8
TEAM-NET
 10
55.591461
 20
-391.973052
 30
40.0
 70
    64
  0
VERTEX
  5
95
  8
TEAM-NET
 10
59.188771
 20
-369.794435
 30
40.0
 70
    64
  0
VERTEX
  5
96
  8
TEAM-NET
 10
60.378989
 20
-347.344018
 30
40.0
 70
    64
  0
VERTEX
  5
97
  8
TEAM-NET
 10
60.24829
 20
-324.853365
 30
40.0
 70
    64
  0
VERTEX
  5
98
  8
TEAM-NET
 10
60.058051
 20
-302.362078
 30
40.0
 70
    64
  0
VERTEX
  5
99
  8
TEAM-NET
 10
59.867812
 20
-279.870791
 30
40.0
 70
    64
  0
VERTEX
  5
9A
  8
TEAM-NET
 10
59.677574
 20
-257.379504
 30
40.0
 70
    64
  0
VERTEX
  5
9B
  8
TEAM-NET
 10
59.487335
 20
-234.888217
 30
40.0
 70
    64
  0
VERTEX
  5
9C
  8
TEAM-NET
 10
59.297096
 20
-212.396929
 30
40.0
 70
    64
  0
VERTEX
  5
9D
  8
TEAM-NET
 10
59.106857
 20
-189.905642
 30
40.0
 70
    64
  0
VERTEX
  5
9E
  8
TEAM-NET
 10
58.916619
 20
-167.414355
 30
40.0
 70
    64
  0
VERTEX
  5
9F
  8
TEAM-NET
 10
58.72638
 20
-144.923068
 30
40.0
 70
    64
  0
VERTEX
  5
A0
  8
TEAM-NET
 10
58.536141
 20
-122.431781
 30
40.0
 70
    64
  0
VERTEX
  5
A1
  8
TEAM-NET
 10
58.345902
 20
-99.940494
 30
40.0
 70
    64
  0
VERTEX
  5
A2
  8
TEAM-NET
 10
58.155664
 20
-77.449207
 30
40.0
 70
    64
  0
VERTEX
  5
A3
  8
TEAM-NET
 10
57.965425
 20
-54.95792
 30
40.0
 70
    64
  0
VERTEX
  5
A4
  8
TEAM-NET
 10
57.775186
 20
-32.466633
 30
40.0
 70
    64
  0
VERTEX
  5
A5
  8
TEAM-NET
 10
57.584947
 20
-9.975346
 30
40.0
 70
    64
  0
VERTEX
  5
A6
  8
TEAM-NET
 10
44.984183
 20
0.0
 30
40.0
 70
    64
  0
VERTEX
  5
A7
  8
TEAM-NET
 10
22.492092
 20
0.0
 30
40.0
 70
    64
  0
VERTEX
  5
A8
  8
TEAM-NET
 10
0.0
 20
0.0
 30
40.0
 70
    64
  0
VERTEX
  5
A9
  8
TEAM-NET
 10
2.914273
 20
-450.099781
 30
40.0
 70
    64
  0
VERTEX
  5
AA
  8
TEAM-NET
 10
-19.044177
 20
-446.199308
 30
40.0
 70
    64
  0
VERTEX
  5
AB
  8
TEAM-NET
 10
-36.461529
 20
-432.296262
 30
40.0
 70
    64
  0
VERTEX
  5
AC
  8
TEAM-NET
 10
-47.927957
 20
-413.031953
 30
40.0
 70
    64
  0
VERTEX
  5
AD
  8
TEAM-NET
 10
-55.591461
 20
-391.973052
 30
40.0
 70
    64
  0
VERTEX
  5
AE
  8
TEAM-NET
 10
-59.188771
 20
-369.794435
 30
40.0
 70
    64
  0
VERTEX
  5
AF
  8
TEAM-NET
 10
-60.378989
 20
-347.344018
 30
40.0
 70
    64
  0
VERTEX
  5
B0
  8
TEAM-NET
 10
-60.24829
 20
-324.853365
 30
40.0
 70
    64
  0
VERTEX
  5
B1
  8
TEAM-NET
 10
-60.058051
 20
-302.362078
 30
40.0
 70
    64
  0
VERTEX
  5
B2
  8
TEAM-NET
 10
-59.867812
 20
-279.870791
 30
40.0
 70
    64
  0
VERTEX
  5
B3
  8
TEAM-NET
 10
-59.677574
 20
-257.379504
 30
40.0
 70
    64
  0
VERTEX
  5
B4
  8
TEAM-NET
 10
-59.487335
 20
-234.888217
 30
40.0
 70
    64
  0
VERTEX
  5
B5
  8
TEAM-NET
 10
-59.297096
 20
-212.396929
 30
40.0
 70
    64
  0
VERTEX
  5
B6
  8
TEAM-NET
 10
-59.106857
 20
-189.905642
 30
40.0
 70
    64
  0
VERTEX
  5
B7
  8
TEAM-NET
 10
-58.916619
 20
-167.414355
 30
40.0
 70
    64
  0
VERTEX
  5
B8
  8
TEAM-NET
 10
-58.72638
 20
-144.923068
 30
40.0
 70
    64
  0
VERTEX
  5
B9
  8
TEAM-NET
 10
-58.536141
 20
-122.431781
 30
40.0
 70
    64
  0
VERTEX
  5
BA
  8
TEAM-NET
 10
-58.345902
 20
-99.940494
 30
40.0
 70
    64
  0
VERTEX
  5
BB
  8
TEAM-NET
 10
-58.155664
 20
-77.449207
 30
40.0
 70
    64
  0
VERTEX
  5
BC
  8
TEAM-NET
 10
-57.965425
 20
-54.95792
 30
40.0
 70
    64
  0
VERTEX
  5
BD
  8
TEAM-NET
 10
-57.775186
 20
-32.466633
 30
40.0
 70
    64
  0
VERTEX
  5
BE
  8
TEAM-NET
 10
-57.584947
 20
-9.975346
 30
40.0
 70
    64
  0
VERTEX
  5
BF
  8
TEAM-NET
 10
-44.984183
 20
0.0
 30
40.0
 70
    64
  0
VERTEX
  5
C0
  8
TEAM-NET
 10
-22.492092
 20
0.0
 30
40.0
 70
    64
  0
VERTEX
  5
C1
  8
TEAM-NET
 10
0.0
 20
0.0
 30
40.0
 70
    64
  0
SEQEND
  5
C2
  8
TEAM-NET
  0
POLYLINE
  5
C3
  8
TEAM-NET
 66
     1
 10
0.0
 20
0.0
 30
0.0
 70
    16
 71
    25
 72
    25
  0
VERTEX
  5
C4
  8
TEAM-NET
 10
0.0
 20
-525.000012
 30
400.0
 70
    64
  0
VERTEX
  5
C5
  8
TEAM-NET
 10
-19.3142
 20
-522.348664
 30
400.0
 70
    64
  0
VERTEX
  5
C6
  8
TEAM-NET
 10
-38.138869
 20
-517.360982
 30
400.0
 70
    64
  0
VERTEX
  5
C7
  8
TEAM-NET
 10
-55.838597
 20
-509.220411
 30
400.0
 70
    64
  0
VERTEX
  5
C8
  8
TEAM-NET
 10
-72.079429
 20
-498.465829
 30
400.0
 70
    64
  0
VERTEX
  5
C9
  8
TEAM-NET
 10
-86.062912
 20
-484.917881
 30
400.0
 70
    64
  0
VERTEX
  5
CA
  8
TEAM-NET
 10
-97.56328
 20
-469.192648
 30
400.0
 70
    64
  0
VERTEX
  5
CB
  8
TEAM-NET
 10
-106.707924
 20
-451.984095
 30
400.0
 70
    64
  0
VERTEX
  5
CC
  8
TEAM-NET
 10
-114.01737
 20
-433.913456
 30
400.0
 70
    64
  0
VERTEX
  5
CD
  8
TEAM-NET
 10
-119.588206
 20
-415.230525
 30
400.0
 70
    64
  0
VERTEX
  5
CE
  8
TEAM-NET
 10
-123.936856
 20
-396.224478
 30
400.0
 70
    64
  0
VERTEX
  5
CF
  8
TEAM-NET
 10
-126.373909
 20
-376.889808
 30
400.0
 70
    64
  0
VERTEX
  5
D0
  8
TEAM-NET
 10
-126.975806
 20
-357.401812
 30
400.0
 70
    64
  0
VERTEX
  5
D1
  8
TEAM-NET
 10
-126.305857
 20
-337.917884
 30
400.0
 70
    64
  0
VERTEX
  5
D2
  8
TEAM-NET
 10
-123.842611
 20
-318.5803
 30
400.0
 70
    64
  0
VERTEX
  5
D3
  8
TEAM-NET
 10
-119.721349
 20
-299.526196
 30
400.0
 70
    64
  0
VERTEX
  5
D4
  8
TEAM-NET
 10
-114.011907
 20
-280.885928
 30
400.0
 70
    64
  0
VERTEX
  5
D5
  8
TEAM-NET
 10
-106.903842
 20
-262.732495
 30
400.0
 70
    64
  0
VERTEX
  5
D6
  8
TEAM-NET
 10
-97.717526
 20
-245.549099
 30
400.0
 70
    64
  0
VERTEX
  5
D7
  8
TEAM-NET
 10
-85.985158
 20
-229.998176
 30
400.0
 70
    64
  0
VERTEX
  5
D8
  8
TEAM-NET
 10
-72.070872
 20
-216.365049
 30
400.0
 70
    64
  0
VERTEX
  5
D9
  8
TEAM-NET
 10
-55.895437
 20
-205.525102
 30
400.0
 70
    64
  0
VERTEX
  5
DA
  8
TEAM-NET
 10
-38.153722
 20
-197.474926
 30
400.0
 70
    64
  0
VERTEX
  5
DB
  8
TEAM-NET
 10
-19.34
 20
-192.448617
 30
400.0
 70
    64
  0
VERTEX
  5
DC
  8
TEAM-NET
 10
0.0
 20
-190.000094
 30
400.0
 70
    64
  0
VERTEX
  5
DD
  8
TEAM-NET
 10
0.0
 20
-525.000012
 30
400.0
 70
    64
  0
VERTEX
  5
DE
  8
TEAM-NET
 10
-19.148965
 20
-522.348664
 30
397.478991
 70
    64
  0
VERTEX
  5
DF
  8
TEAM-NET
 10
-37.812586
 20
-517.360982
 30
395.021879
 70
    64
  0
VERTEX
  5
E0
  8
TEAM-NET
 10
-55.36089
 20
-509.220411
 30
392.711601
 70
    64
  0
VERTEX
  5
E1
  8
TEAM-NET
 10
-71.462779
 20
-498.465829
 30
390.591747
 70
    64
  0
VERTEX
  5
E2
  8
TEAM-NET
 10
-85.326631
 20
-484.917881
 30
388.766536
 70
    64
  0
VERTEX
  5
E3
  8
TEAM-NET
 10
-96.728612
 20
-469.192648
 30
387.265437
 70
    64
  0
VERTEX
  5
E4
  8
TEAM-NET
 10
-105.795023
 20
-451.984095
 30
386.071821
 70
    64
  0
VERTEX
  5
E5
  8
TEAM-NET
 10
-113.041936
 20
-433.913456
 30
385.117747
 70
    64
  0
VERTEX
  5
E6
  8
TEAM-NET
 10
-118.565113
 20
-415.230525
 30
384.390607
 70
    64
  0
VERTEX
  5
E7
  8
TEAM-NET
 10
-122.876559
 20
-396.224478
 30
383.822994
 70
    64
  0
VERTEX
  5
E8
  8
TEAM-NET
 10
-125.292763
 20
-376.889808
 30
383.504895
 70
    64
  0
VERTEX
  5
E9
  8
TEAM-NET
 10
-125.88951
 20
-357.401812
 30
383.426332
 70
    64
  0
VERTEX
  5
EA
  8
TEAM-NET
 10
-125.225293
 20
-337.917884
 30
383.513777
 70
    64
  0
VERTEX
  5
EB
  8
TEAM-NET
 10
-122.783121
 20
-318.5803
 30
383.835296
 70
    64
  0
VERTEX
  5
EC
  8
TEAM-NET
 10
-118.697117
 20
-299.526196
 30
384.373228
 70
    64
  0
VERTEX
  5
ED
  8
TEAM-NET
 10
-113.03652
 20
-280.885928
 30
385.11846
 70
    64
  0
VERTEX
  5
EE
  8
TEAM-NET
 10
-105.989264
 20
-262.732495
 30
386.046249
 70
    64
  0
VERTEX
  5
EF
  8
TEAM-NET
 10
-96.881539
 20
-245.549099
 30
387.245303
 70
    64
  0
VERTEX
  5
F0
  8
TEAM-NET
 10
-85.249543
 20
-229.998176
 30
388.776685
 70
    64
  0
VERTEX
  5
F1
  8
TEAM-NET
 10
-71.454296
 20
-216.365049
 30
390.592863
 70
    64
  0
VERTEX
  5
F2
  8
TEAM-NET
 10
-55.417244
 20
-205.525102
 30
392.704181
 70
    64
  0
VERTEX
  5
F3
  8
TEAM-NET
 10
-37.827311
 20
-197.474926
 30
395.01994
 70
    64
  0
VERTEX
  5
F4
  8
TEAM-NET
 10
-19.174544
 20
-192.448617
 30
397.475623
 70
    64
  0
VERTEX
  5
F5
  8
TEAM-NET
 10
0.0
 20
-190.000094
 30
400.0
 70
    64
  0
VERTEX
  5
F6
  8
TEAM-NET
 10
0.0
 20
-525.000012
 30
400.0
 70
    64
  0
VERTEX
  5
F7
  8
TEAM-NET
 10
-18.656085
 20
-522.348664
 30
395.001117
 70
    64
  0
VERTEX
  5
F8
  8
TEAM-NET
 10
-36.839318
 20
-517.360982
 30
390.128934
 70
    64
  0
VERTEX
  5
F9
  8
TEAM-NET
 10
-53.935943
 20
-509.220411
 30
385.547908
 70
    64
  0
VERTEX
  5
FA
  8
TEAM-NET
 10
-69.623382
 20
-498.465829
 30
381.344471
 70
    64
  0
VERTEX
  5
FB
  8
TEAM-NET
 10
-83.130389
 20
-484.917881
 30
377.725279
 70
    64
  0
VERTEX
  5
FC
  8
TEAM-NET
 10
-94.238891
 20
-469.192648
 30
374.748765
 70
    64
  0
VERTEX
  5
FD
  8
TEAM-NET
 10
-103.07194
 20
-451.984095
 30
372.381957
 70
    64
  0
VERTEX
  5
FE
  8
TEAM-NET
 10
-110.132323
 20
-433.913456
 30
370.490133
 70
    64
  0
VERTEX
  5
FF
  8
TEAM-NET
 10
-115.513337
 20
-415.230525
 30
369.048295
 70
    64
  0
VERTEX
  5
100
  8
TEAM-NET
 10
-119.71381
 20
-396.224478
 30
367.922781
 70
    64
  0
VERTEX
  5
101
  8
TEAM-NET
 10
-122.067822
 20
-376.889808
 30
367.292026
 70
    64
  0
VERTEX
  5
102
  8
TEAM-NET
 10
-122.64921
 20
-357.401812
 30
367.136243
 70
    64
  0
VERTEX
  5
103
  8
TEAM-NET
 10
-122.002089
 20
-337.917884
 30
367.309639
 70
    64
  0
VERTEX
  5
104
  8
TEAM-NET
 10
-119.622777
 20
-318.5803
 30
367.947174
 70
    64
  0
VERTEX
  5
105
  8
TEAM-NET
 10
-115.641943
 20
-299.526196
 30
369.013835
 70
    64
  0
VERTEX
  5
106
  8
TEAM-NET
 10
-110.127046
 20
-280.885928
 30
370.491547
 70
    64
  0
VERTEX
  5
107
  8
TEAM-NET
 10
-103.261182
 20
-262.732495
 30
372.33125
 70
    64
  0
VERTEX
  5
108
  8
TEAM-NET
 10
-94.387882
 20
-245.549099
 30
374.708843
 70
    64
  0
VERTEX
  5
109
  8
TEAM-NET
 10
-83.055285
 20
-229.998176
 30
377.745404
 70
    64
  0
VERTEX
  5
10A
  8
TEAM-NET
 10
-69.615117
 20
-216.365049
 30
381.346686
 70
    64
  0
VERTEX
  5
10B
  8
TEAM-NET
 10
-53.990846
 20
-205.525102
 30
385.533196
 70
    64
  0
VERTEX
  5
10C
  8
TEAM-NET
 10
-36.853665
 20
-197.474926
 30
390.12509
 70
    64
  0
VERTEX
  5
10D
  8
TEAM-NET
 10
-18.681006
 20
-192.448617
 30
394.99444
 70
    64
  0
VERTEX
  5
10E
  8
TEAM-NET
 10
0.0
 20
-190.000094
 30
400.0
 70
    64
  0
VERTEX
  5
10F
  8
TEAM-NET
 10
0.0
 20
-525.000012
 30
400.0
 70
    64
  0
VERTEX
  5
110
  8
TEAM-NET
 10
-17.843994
 20
-522.348664
 30
392.608776
 70
    64
  0
VERTEX
  5
111
  8
TEAM-NET
 10
-35.23572
 20
-517.360982
 30
385.404887
 70
    64
  0
VERTEX
  5
112
  8
TEAM-NET
 10
-51.588137
 20
-509.220411
 30
378.631494
 70
    64
  0
VERTEX
  5
113
  8
TEAM-NET
 10
-66.592709
 20
-498.465829
 30
372.416397
 70
    64
  0
VERTEX
  5
114
  8
TEAM-NET
 10
-79.511763
 20
-484.917881
 30
367.06515
 70
    64
  0
VERTEX
  5
115
  8
TEAM-NET
 10
-90.136717
 20
-469.192648
 30
362.664149
 70
    64
  0
VERTEX
  5
116
  8
TEAM-NET
 10
-98.585267
 20
-451.984095
 30
359.164645
 70
    64
  0
VERTEX
  5
117
  8
TEAM-NET
 10
-105.338315
 20
-433.913456
 30
356.367441
 70
    64
  0
VERTEX
  5
118
  8
TEAM-NET
 10
-110.485096
 20
-415.230525
 30
354.235575
 70
    64
  0
VERTEX
  5
119
  8
TEAM-NET
 10
-114.502725
 20
-396.224478
 30
352.571419
 70
    64
  0
VERTEX
  5
11A
  8
TEAM-NET
 10
-116.754268
 20
-376.889808
 30
351.638799
 70
    64
  0
VERTEX
  5
11B
  8
TEAM-NET
 10
-117.310348
 20
-357.401812
 30
351.408463
 70
    64
  0
VERTEX
  5
11C
  8
TEAM-NET
 10
-116.691396
 20
-337.917884
 30
351.664841
 70
    64
  0
VERTEX
  5
11D
  8
TEAM-NET
 10
-114.415654
 20
-318.5803
 30
352.607484
 70
    64
  0
VERTEX
  5
11E
  8
TEAM-NET
 10
-110.608104
 20
-299.526196
 30
354.184623
 70
    64
  0
VERTEX
  5
11F
  8
TEAM-NET
 10
-105.333268
 20
-280.885928
 30
356.369532
 70
    64
  0
VERTEX
  5
120
  8
TEAM-NET
 10
-98.766271
 20
-262.732495
 30
359.089671
 70
    64
  0
VERTEX
  5
121
  8
TEAM-NET
 10
-90.279222
 20
-245.549099
 30
362.605122
 70
    64
  0
VERTEX
  5
122
  8
TEAM-NET
 10
-79.439927
 20
-229.998176
 30
367.094905
 70
    64
  0
VERTEX
  5
123
  8
TEAM-NET
 10
-66.584804
 20
-216.365049
 30
372.419671
 70
    64
  0
VERTEX
  5
124
  8
TEAM-NET
 10
-51.64065
 20
-205.525102
 30
378.609742
 70
    64
  0
VERTEX
  5
125
  8
TEAM-NET
 10
-35.249443
 20
-197.474926
 30
385.399203
 70
    64
  0
VERTEX
  5
126
  8
TEAM-NET
 10
-17.86783
 20
-192.448617
 30
392.598902
 70
    64
  0
VERTEX
  5
127
  8
TEAM-NET
 10
0.0
 20
-190.000094
 30
400.0
 70
    64
  0
VERTEX
  5
128
  8
TEAM-NET
 10
0.0
 20
-525.000012
 30
400.0
 70
    64
  0
VERTEX
  5
129
  8
TEAM-NET
 10
-16.726588
 20
-522.348664
 30
390.3429
 70
    64
  0
VERTEX
  5
12A
  8
TEAM-NET
 10
-33.029229
 20
-517.360982
 30
380.930566
 70
    64
  0
VERTEX
  5
12B
  8
TEAM-NET
 10
-48.357643
 20
-509.220411
 30
372.080702
 70
    64
  0
VERTEX
  5
12C
  8
TEAM-NET
 10
-62.422616
 20
-498.465829
 30
363.960286
 70
    64
  0
VERTEX
  5
12D
  8
TEAM-NET
 10
-74.532668
 20
-484.917881
 30
356.968544
 70
    64
  0
VERTEX
  5
12E
  8
TEAM-NET
 10
-84.492279
 20
-469.192648
 30
351.21836
 70
    64
  0
VERTEX
  5
12F
  8
TEAM-NET
 10
-92.411773
 20
-451.984095
 30
346.646038
 70
    64
  0
VERTEX
  5
130
  8
TEAM-NET
 10
-98.741939
 20
-433.913456
 30
342.991315
 70
    64
  0
VERTEX
  5
131
  8
TEAM-NET
 10
-103.566425
 20
-415.230525
 30
340.205897
 70
    64
  0
VERTEX
  5
132
  8
TEAM-NET
 10
-107.332466
 20
-396.224478
 30
338.031572
 70
    64
  0
VERTEX
  5
133
  8
TEAM-NET
 10
-109.443016
 20
-376.889808
 30
336.813045
 70
    64
  0
VERTEX
  5
134
  8
TEAM-NET
 10
-109.964273
 20
-357.401812
 30
336.512097
 70
    64
  0
VERTEX
  5
135
  8
TEAM-NET
 10
-109.38408
 20
-337.917884
 30
336.847072
 70
    64
  0
VERTEX
  5
136
  8
TEAM-NET
 10
-107.250847
 20
-318.5803
 30
338.078694
 70
    64
  0
VERTEX
  5
137
  8
TEAM-NET
 10
-103.68173
 20
-299.526196
 30
340.139325
 70
    64
  0
VERTEX
  5
138
  8
TEAM-NET
 10
-98.737208
 20
-280.885928
 30
342.994046
 70
    64
  0
VERTEX
  5
139
  8
TEAM-NET
 10
-92.581443
 20
-262.732495
 30
346.548079
 70
    64
  0
VERTEX
  5
13A
  8
TEAM-NET
 10
-84.62586
 20
-245.549099
 30
351.141237
 70
    64
  0
VERTEX
  5
13B
  8
TEAM-NET
 10
-74.465331
 20
-229.998176
 30
357.007421
 70
    64
  0
VERTEX
  5
13C
  8
TEAM-NET
 10
-62.415206
 20
-216.365049
 30
363.964564
 70
    64
  0
VERTEX
  5
13D
  8
TEAM-NET
 10
-48.406868
 20
-205.525102
 30
372.052282
 70
    64
  0
VERTEX
  5
13E
  8
TEAM-NET
 10
-33.042092
 20
-197.474926
 30
380.923139
 70
    64
  0
VERTEX
  5
13F
  8
TEAM-NET
 10
-16.748931
 20
-192.448617
 30
390.33
 70
    64
  0
VERTEX
  5
140
  8
TEAM-NET
 10
0.0
 20
-190.000094
 30
400.0
 70
    64
  0
VERTEX
  5
141
  8
TEAM-NET
 10
0.0
 20
-525.000012
 30
400.0
 70
    64
  0
VERTEX
  5
142
  8
TEAM-NET
 10
-15.322985
 20
-522.348664
 30
388.24226
 70
    64
  0
VERTEX
  5
143
  8
TEAM-NET
 10
-30.257599
 20
-517.360982
 30
376.782528
 70
    64
  0
VERTEX
  5
144
  8
TEAM-NET
 10
-44.299737
 20
-509.220411
 30
366.007616
 70
    64
  0
VERTEX
  5
145
  8
TEAM-NET
 10
-57.184456
 20
-498.465829
 30
356.120824
 70
    64
  0
VERTEX
  5
146
  8
TEAM-NET
 10
-68.278298
 20
-484.917881
 30
347.608219
 70
    64
  0
VERTEX
  5
147
  8
TEAM-NET
 10
-77.402154
 20
-469.192648
 30
340.607238
 70
    64
  0
VERTEX
  5
148
  8
TEAM-NET
 10
-84.657088
 20
-451.984095
 30
335.040332
 70
    64
  0
VERTEX
  5
149
  8
TEAM-NET
 10
-90.456062
 20
-433.913456
 30
330.590623
 70
    64
  0
VERTEX
  5
14A
  8
TEAM-NET
 10
-94.875703
 20
-415.230525
 30
327.199313
 70
    64
  0
VERTEX
  5
14B
  8
TEAM-NET
 10
-98.325719
 20
-396.224478
 30
324.552022
 70
    64
  0
VERTEX
  5
14C
  8
TEAM-NET
 10
-100.259163
 20
-376.889808
 30
323.068439
 70
    64
  0
VERTEX
  5
14D
  8
TEAM-NET
 10
-100.736679
 20
-357.401812
 30
322.702027
 70
    64
  0
VERTEX
  5
14E
  8
TEAM-NET
 10
-100.205173
 20
-337.917884
 30
323.109866
 70
    64
  0
VERTEX
  5
14F
  8
TEAM-NET
 10
-98.250949
 20
-318.5803
 30
324.609395
 70
    64
  0
VERTEX
  5
150
  8
TEAM-NET
 10
-94.981332
 20
-299.526196
 30
327.11826
 70
    64
  0
VERTEX
  5
151
  8
TEAM-NET
 10
-90.451728
 20
-280.885928
 30
330.593948
 70
    64
  0
VERTEX
  5
152
  8
TEAM-NET
 10
-84.81252
 20
-262.732495
 30
334.921065
 70
    64
  0
VERTEX
  5
153
  8
TEAM-NET
 10
-77.524526
 20
-245.549099
 30
340.513339
 70
    64
  0
VERTEX
  5
154
  8
TEAM-NET
 10
-68.216612
 20
-229.998176
 30
347.655553
 70
    64
  0
VERTEX
  5
155
  8
TEAM-NET
 10
-57.177667
 20
-216.365049
 30
356.126033
 70
    64
  0
VERTEX
  5
156
  8
TEAM-NET
 10
-44.344832
 20
-205.525102
 30
365.973014
 70
    64
  0
VERTEX
  5
157
  8
TEAM-NET
 10
-30.269383
 20
-197.474926
 30
376.773486
 70
    64
  0
VERTEX
  5
158
  8
TEAM-NET
 10
-15.343454
 20
-192.448617
 30
388.226554
 70
    64
  0
VERTEX
  5
159
  8
TEAM-NET
 10
0.0
 20
-190.000094
 30
400.0
 70
    64
  0
VERTEX
  5
15A
  8
TEAM-NET
 10
0.0
 20
-525.000012
 30
400.0
 70
    64
  0
VERTEX
  5
15B
  8
TEAM-NET
 10
-13.657202
 20
-522.348664
 30
386.342798
 70
    64
  0
VERTEX
  5
15C
  8
TEAM-NET
 10
-26.968253
 20
-517.360982
 30
373.031747
 70
    64
  0
VERTEX
  5
15D
  8
TEAM-NET
 10
-39.483851
 20
-509.220411
 30
360.516149
 70
    64
  0
VERTEX
  5
15E
  8
TEAM-NET
 10
-50.967853
 20
-498.465829
 30
349.032147
 70
    64
  0
VERTEX
  5
15F
  8
TEAM-NET
 10
-60.855668
 20
-484.917881
 30
339.144332
 70
    64
  0
VERTEX
  5
160
  8
TEAM-NET
 10
-68.987657
 20
-469.192648
 30
331.012343
 70
    64
  0
VERTEX
  5
161
  8
TEAM-NET
 10
-75.453897
 20
-451.984095
 30
324.546103
 70
    64
  0
VERTEX
  5
162
  8
TEAM-NET
 10
-80.622456
 20
-433.913456
 30
319.377544
 70
    64
  0
VERTEX
  5
163
  8
TEAM-NET
 10
-84.561632
 20
-415.230525
 30
315.438368
 70
    64
  0
VERTEX
  5
164
  8
TEAM-NET
 10
-87.636591
 20
-396.224478
 30
312.363409
 70
    64
  0
VERTEX
  5
165
  8
TEAM-NET
 10
-89.359848
 20
-376.889808
 30
310.640152
 70
    64
  0
VERTEX
  5
166
  8
TEAM-NET
 10
-89.785453
 20
-357.401812
 30
310.214547
 70
    64
  0
VERTEX
  5
167
  8
TEAM-NET
 10
-89.311728
 20
-337.917884
 30
310.688272
 70
    64
  0
VERTEX
  5
168
  8
TEAM-NET
 10
-87.56995
 20
-318.5803
 30
312.43005
 70
    64
  0
VERTEX
  5
169
  8
TEAM-NET
 10
-84.655778
 20
-299.526196
 30
315.344222
 70
    64
  0
VERTEX
  5
16A
  8
TEAM-NET
 10
-80.618593
 20
-280.885928
 30
319.381407
 70
    64
  0
VERTEX
  5
16B
  8
TEAM-NET
 10
-75.592431
 20
-262.732495
 30
324.407569
 70
    64
  0
VERTEX
  5
16C
  8
TEAM-NET
 10
-69.096725
 20
-245.549099
 30
330.903275
 70
    64
  0
VERTEX
  5
16D
  8
TEAM-NET
 10
-60.800688
 20
-229.998176
 30
339.199312
 70
    64
  0
VERTEX
  5
16E
  8
TEAM-NET
 10
-50.961803
 20
-216.365049
 30
349.038197
 70
    64
  0
VERTEX
  5
16F
  8
TEAM-NET
 10
-39.524042
 20
-205.525102
 30
360.475958
 70
    64
  0
VERTEX
  5
170
  8
TEAM-NET
 10
-26.978755
 20
-197.474926
 30
373.021245
 70
    64
  0
VERTEX
  5
171
  8
TEAM-NET
 10
-13.675445
 20
-192.448617
 30
386.324555
 70
    64
  0
VERTEX
  5
172
  8
TEAM-NET
 10
0.0
 20
-190.000094
 30
400.0
 70
    64
  0
VERTEX
  5
173
  8
TEAM-NET
 10
0.0
 20
-525.000012
 30
400.0
 70
    64
  0
VERTEX
  5
174
  8
TEAM-NET
 10
-11.75774
 20
-522.348664
 30
384.677015
 70
    64
  0
VERTEX
  5
175
  8
TEAM-NET
 10
-23.217472
 20
-517.360982
 30
369.742401
 70
    64
  0
VERTEX
  5
176
  8
TEAM-NET
 10
-33.992384
 20
-509.220411
 30
355.700263
 70
    64
  0
VERTEX
  5
177
  8
TEAM-NET
 10
-43.879176
 20
-498.465829
 30
342.815544
 70
    64
  0
VERTEX
  5
178
  8
TEAM-NET
 10
-52.391781
 20
-484.917881
 30
331.721702
 70
    64
  0
VERTEX
  5
179
  8
TEAM-NET
 10
-59.392762
 20
-469.192648
 30
322.597846
 70
    64
  0
VERTEX
  5
17A
  8
TEAM-NET
 10
-64.959668
 20
-451.984095
 30
315.342912
 70
    64
  0
VERTEX
  5
17B
  8
TEAM-NET
 10
-69.409377
 20
-433.913456
 30
309.543938
 70
    64
  0
VERTEX
  5
17C
  8
TEAM-NET
 10
-72.800687
 20
-415.230525
 30
305.124297
 70
    64
  0
VERTEX
  5
17D
  8
TEAM-NET
 10
-75.447978
 20
-396.224478
 30
301.674281
 70
    64
  0
VERTEX
  5
17E
  8
TEAM-NET
 10
-76.931561
 20
-376.889808
 30
299.740837
 70
    64
  0
VERTEX
  5
17F
  8
TEAM-NET
 10
-77.297973
 20
-357.401812
 30
299.263321
 70
    64
  0
VERTEX
  5
180
  8
TEAM-NET
 10
-76.890134
 20
-337.917884
 30
299.794827
 70
    64
  0
VERTEX
  5
181
  8
TEAM-NET
 10
-75.390605
 20
-318.5803
 30
301.749051
 70
    64
  0
VERTEX
  5
182
  8
TEAM-NET
 10
-72.88174
 20
-299.526196
 30
305.018668
 70
    64
  0
VERTEX
  5
183
  8
TEAM-NET
 10
-69.406052
 20
-280.885928
 30
309.548272
 70
    64
  0
VERTEX
  5
184
  8
TEAM-NET
 10
-65.078935
 20
-262.732495
 30
315.18748
 70
    64
  0
VERTEX
  5
185
  8
TEAM-NET
 10
-59.486661
 20
-245.549099
 30
322.475474
 70
    64
  0
VERTEX
  5
186
  8
TEAM-NET
 10
-52.344447
 20
-229.998176
 30
331.783388
 70
    64
  0
VERTEX
  5
187
  8
TEAM-NET
 10
-43.873967
 20
-216.365049
 30
342.822333
 70
    64
  0
VERTEX
  5
188
  8
TEAM-NET
 10
-34.026986
 20
-205.525102
 30
355.655168
 70
    64
  0
VERTEX
  5
189
  8
TEAM-NET
 10
-23.226514
 20
-197.474926
 30
369.730617
 70
    64
  0
VERTEX
  5
18A
  8
TEAM-NET
 10
-11.773446
 20
-192.448617
 30
384.656546
 70
    64
  0
VERTEX
  5
18B
  8
TEAM-NET
 10
0.0
 20
-190.000094
 30
400.0
 70
    64
  0
VERTEX
  5
18C
  8
TEAM-NET
 10
0.0
 20
-525.000012
 30
400.0
 70
    64
  0
VERTEX
  5
18D
  8
TEAM-NET
 10
-9.6571
 20
-522.348664
 30
383.273412
 70
    64
  0
VERTEX
  5
18E
  8
TEAM-NET
 10
-19.069434
 20
-517.360982
 30
366.970771
 70
    64
  0
VERTEX
  5
18F
  8
TEAM-NET
 10
-27.919298
 20
-509.220411
 30
351.642357
 70
    64
  0
VERTEX
  5
190
  8
TEAM-NET
 10
-36.039714
 20
-498.465829
 30
337.577384
 70
    64
  0
VERTEX
  5
191
  8
TEAM-NET
 10
-43.031456
 20
-484.917881
 30
325.467332
 70
    64
  0
VERTEX
  5
192
  8
TEAM-NET
 10
-48.78164
 20
-469.192648
 30
315.507721
 70
    64
  0
VERTEX
  5
193
  8
TEAM-NET
 10
-53.353962
 20
-451.984095
 30
307.588227
 70
    64
  0
VERTEX
  5
194
  8
TEAM-NET
 10
-57.008685
 20
-433.913456
 30
301.258061
 70
    64
  0
VERTEX
  5
195
  8
TEAM-NET
 10
-59.794103
 20
-415.230525
 30
296.433575
 70
    64
  0
VERTEX
  5
196
  8
TEAM-NET
 10
-61.968428
 20
-396.224478
 30
292.667534
 70
    64
  0
VERTEX
  5
197
  8
TEAM-NET
 10
-63.186955
 20
-376.889808
 30
290.556984
 70
    64
  0
VERTEX
  5
198
  8
TEAM-NET
 10
-63.487903
 20
-357.401812
 30
290.035727
 70
    64
  0
VERTEX
  5
199
  8
TEAM-NET
 10
-63.152928
 20
-337.917884
 30
290.61592
 70
    64
  0
VERTEX
  5
19A
  8
TEAM-NET
 10
-61.921306
 20
-318.5803
 30
292.749153
 70
    64
  0
VERTEX
  5
19B
  8
TEAM-NET
 10
-59.860675
 20
-299.526196
 30
296.31827
 70
    64
  0
VERTEX
  5
19C
  8
TEAM-NET
 10
-57.005954
 20
-280.885928
 30
301.262792
 70
    64
  0
VERTEX
  5
19D
  8
TEAM-NET
 10
-53.451921
 20
-262.732495
 30
307.418557
 70
    64
  0
VERTEX
  5
19E
  8
TEAM-NET
 10
-48.858763
 20
-245.549099
 30
315.37414
 70
    64
  0
VERTEX
  5
19F
  8
TEAM-NET
 10
-42.992579
 20
-229.998176
 30
325.534669
 70
    64
  0
VERTEX
  5
1A0
  8
TEAM-NET
 10
-36.035436
 20
-216.365049
 30
337.584794
 70
    64
  0
VERTEX
  5
1A1
  8
TEAM-NET
 10
-27.947718
 20
-205.525102
 30
351.593132
 70
    64
  0
VERTEX
  5
1A2
  8
TEAM-NET
 10
-19.076861
 20
-197.474926
 30
366.957908
 70
    64
  0
VERTEX
  5
1A3
  8
TEAM-NET
 10
-9.67
 20
-192.448617
 30
383.251069
 70
    64
  0
VERTEX
  5
1A4
  8
TEAM-NET
 10
0.0
 20
-190.000094
 30
400.0
 70
    64
  0
VERTEX
  5
1A5
  8
TEAM-NET
 10
0.0
 20
-525.000012
 30
400.0
 70
    64
  0
VERTEX
  5
1A6
  8
TEAM-NET
 10
-7.391224
 20
-522.348664
 30
382.156006
 70
    64
  0
VERTEX
  5
1A7
  8
TEAM-NET
 10
-14.595113
 20
-517.360982
 30
364.76428
 70
    64
  0
VERTEX
  5
1A8
  8
TEAM-NET
 10
-21.368506
 20
-509.220411
 30
348.411863
 70
    64
  0
VERTEX
  5
1A9
  8
TEAM-NET
 10
-27.583603
 20
-498.465829
 30
333.407291
 70
    64
  0
VERTEX
  5
1AA
  8
TEAM-NET
 10
-32.93485
 20
-484.917881
 30
320.488237
 70
    64
  0
VERTEX
  5
1AB
  8
TEAM-NET
 10
-37.335851
 20
-469.192648
 30
309.863283
 70
    64
  0
VERTEX
  5
1AC
  8
TEAM-NET
 10
-40.835355
 20
-451.984095
 30
301.414733
 70
    64
  0
VERTEX
  5
1AD
  8
TEAM-NET
 10
-43.632559
 20
-433.913456
 30
294.661685
 70
    64
  0
VERTEX
  5
1AE
  8
TEAM-NET
 10
-45.764425
 20
-415.230525
 30
289.514904
 70
    64
  0
VERTEX
  5
1AF
  8
TEAM-NET
 10
-47.428581
 20
-396.224478
 30
285.497275
 70
    64
  0
VERTEX
  5
1B0
  8
TEAM-NET
 10
-48.361201
 20
-376.889808
 30
283.245732
 70
    64
  0
VERTEX
  5
1B1
  8
TEAM-NET
 10
-48.591537
 20
-357.401812
 30
282.689652
 70
    64
  0
VERTEX
  5
1B2
  8
TEAM-NET
 10
-48.335159
 20
-337.917884
 30
283.308604
 70
    64
  0
VERTEX
  5
1B3
  8
TEAM-NET
 10
-47.392516
 20
-318.5803
 30
285.584346
 70
    64
  0
VERTEX
  5
1B4
  8
TEAM-NET
 10
-45.815377
 20
-299.526196
 30
289.391896
 70
    64
  0
VERTEX
  5
1B5
  8
TEAM-NET
 10
-43.630468
 20
-280.885928
 30
294.666732
 70
    64
  0
VERTEX
  5
1B6
  8
TEAM-NET
 10
-40.910329
 20
-262.732495
 30
301.233729
 70
    64
  0
VERTEX
  5
1B7
  8
TEAM-NET
 10
-37.394878
 20
-245.549099
 30
309.720778
 70
    64
  0
VERTEX
  5
1B8
  8
TEAM-NET
 10
-32.905095
 20
-229.998176
 30
320.560073
 70
    64
  0
VERTEX
  5
1B9
  8
TEAM-NET
 10
-27.580329
 20
-216.365049
 30
333.415196
 70
    64
  0
VERTEX
  5
1BA
  8
TEAM-NET
 10
-21.390258
 20
-205.525102
 30
348.35935
 70
    64
  0
VERTEX
  5
1BB
  8
TEAM-NET
 10
-14.600797
 20
-197.474926
 30
364.750557
 70
    64
  0
VERTEX
  5
1BC
  8
TEAM-NET
 10
-7.401098
 20
-192.448617
 30
382.13217
 70
    64
  0
VERTEX
  5
1BD
  8
TEAM-NET
 10
0.0
 20
-190.000094
 30
400.0
 70
    64
  0
VERTEX
  5
1BE
  8
TEAM-NET
 10
0.0
 20
-525.000012
 30
400.0
 70
    64
  0
VERTEX
  5
1BF
  8
TEAM-NET
 10
-4.998883
 20
-522.348664
 30
381.343915
 70
    64
  0
VERTEX
  5
1C0
  8
TEAM-NET
 10
-9.871066
 20
-517.360982
 30
363.160682
 70
    64
  0
VERTEX
  5
1C1
  8
TEAM-NET
 10
-14.452092
 20
-509.220411
 30
346.064057
 70
    64
  0
VERTEX
  5
1C2
  8
TEAM-NET
 10
-18.655529
 20
-498.465829
 30
330.376618
 70
    64
  0
VERTEX
  5
1C3
  8
TEAM-NET
 10
-22.274721
 20
-484.917881
 30
316.869611
 70
    64
  0
VERTEX
  5
1C4
  8
TEAM-NET
 10
-25.251235
 20
-469.192648
 30
305.761109
 70
    64
  0
VERTEX
  5
1C5
  8
TEAM-NET
 10
-27.618043
 20
-451.984095
 30
296.92806
 70
    64
  0
VERTEX
  5
1C6
  8
TEAM-NET
 10
-29.509867
 20
-433.913456
 30
289.867677
 70
    64
  0
VERTEX
  5
1C7
  8
TEAM-NET
 10
-30.951705
 20
-415.230525
 30
284.486663
 70
    64
  0
VERTEX
  5
1C8
  8
TEAM-NET
 10
-32.077219
 20
-396.224478
 30
280.28619
 70
    64
  0
VERTEX
  5
1C9
  8
TEAM-NET
 10
-32.707974
 20
-376.889808
 30
277.932178
 70
    64
  0
VERTEX
  5
1CA
  8
TEAM-NET
 10
-32.863757
 20
-357.401812
 30
277.35079
 70
    64
  0
VERTEX
  5
1CB
  8
TEAM-NET
 10
-32.690361
 20
-337.917884
 30
277.997911
 70
    64
  0
VERTEX
  5
1CC
  8
TEAM-NET
 10
-32.052826
 20
-318.5803
 30
280.377223
 70
    64
  0
VERTEX
  5
1CD
  8
TEAM-NET
 10
-30.986165
 20
-299.526196
 30
284.358057
 70
    64
  0
VERTEX
  5
1CE
  8
TEAM-NET
 10
-29.508453
 20
-280.885928
 30
289.872954
 70
    64
  0
VERTEX
  5
1CF
  8
TEAM-NET
 10
-27.66875
 20
-262.732495
 30
296.738818
 70
    64
  0
VERTEX
  5
1D0
  8
TEAM-NET
 10
-25.291157
 20
-245.549099
 30
305.612118
 70
    64
  0
VERTEX
  5
1D1
  8
TEAM-NET
 10
-22.254596
 20
-229.998176
 30
316.944715
 70
    64
  0
VERTEX
  5
1D2
  8
TEAM-NET
 10
-18.653314
 20
-216.365049
 30
330.384883
 70
    64
  0
VERTEX
  5
1D3
  8
TEAM-NET
 10
-14.466804
 20
-205.525102
 30
346.009154
 70
    64
  0
VERTEX
  5
1D4
  8
TEAM-NET
 10
-9.87491
 20
-197.474926
 30
363.146335
 70
    64
  0
VERTEX
  5
1D5
  8
TEAM-NET
 10
-5.00556
 20
-192.448617
 30
381.318994
 70
    64
  0
VERTEX
  5
1D6
  8
TEAM-NET
 10
0.0
 20
-190.000094
 30
400.0
 70
    64
  0
VERTEX
  5
1D7
  8
TEAM-NET
 10
0.0
 20
-525.000012
 30
400.0
 70
    64
  0
VERTEX
  5
1D8
  8
TEAM-NET
 10
-2.521009
 20
-522.348664
 30
380.851035
 70
    64
  0
VERTEX
  5
1D9
  8
TEAM-NET
 10
-4.978121
 20
-517.360982
 30
362.187414
 70
    64
  0
VERTEX
  5
1DA
  8
TEAM-NET
 10
-7.288399
 20
-509.220411
 30
344.63911
 70
    64
  0
VERTEX
  5
1DB
  8
TEAM-NET
 10
-9.408253
 20
-498.465829
 30
328.537221
 70
    64
  0
VERTEX
  5
1DC
  8
TEAM-NET
 10
-11.233464
 20
-484.917881
 30
314.673369
 70
    64
  0
VERTEX
  5
1DD
  8
TEAM-NET
 10
-12.734563
 20
-469.192648
 30
303.271388
 70
    64
  0
VERTEX
  5
1DE
  8
TEAM-NET
 10
-13.928179
 20
-451.984095
 30
294.204977
 70
    64
  0
VERTEX
  5
1DF
  8
TEAM-NET
 10
-14.882253
 20
-433.913456
 30
286.958064
 70
    64
  0
VERTEX
  5
1E0
  8
TEAM-NET
 10
-15.609393
 20
-415.230525
 30
281.434887
 70
    64
  0
VERTEX
  5
1E1
  8
TEAM-NET
 10
-16.177006
 20
-396.224478
 30
277.123441
 70
    64
  0
VERTEX
  5
1E2
  8
TEAM-NET
 10
-16.495105
 20
-376.889808
 30
274.707237
 70
    64
  0
VERTEX
  5
1E3
  8
TEAM-NET
 10
-16.573668
 20
-357.401812
 30
274.11049
 70
    64
  0
VERTEX
  5
1E4
  8
TEAM-NET
 10
-16.486223
 20
-337.917884
 30
274.774707
 70
    64
  0
VERTEX
  5
1E5
  8
TEAM-NET
 10
-16.164704
 20
-318.5803
 30
277.216879
 70
    64
  0
VERTEX
  5
1E6
  8
TEAM-NET
 10
-15.626772
 20
-299.526196
 30
281.302883
 70
    64
  0
VERTEX
  5
1E7
  8
TEAM-NET
 10
-14.88154
 20
-280.885928
 30
286.96348
 70
    64
  0
VERTEX
  5
1E8
  8
TEAM-NET
 10
-13.953751
 20
-262.732495
 30
294.010736
 70
    64
  0
VERTEX
  5
1E9
  8
TEAM-NET
 10
-12.754697
 20
-245.549099
 30
303.118461
 70
    64
  0
VERTEX
  5
1EA
  8
TEAM-NET
 10
-11.223315
 20
-229.998176
 30
314.750457
 70
    64
  0
VERTEX
  5
1EB
  8
TEAM-NET
 10
-9.407137
 20
-216.365049
 30
328.545704
 70
    64
  0
VERTEX
  5
1EC
  8
TEAM-NET
 10
-7.295819
 20
-205.525102
 30
344.582756
 70
    64
  0
VERTEX
  5
1ED
  8
TEAM-NET
 10
-4.98006
 20
-197.474926
 30
362.172689
 70
    64
  0
VERTEX
  5
1EE
  8
TEAM-NET
 10
-2.524377
 20
-192.448617
 30
380.825456
 70
    64
  0
VERTEX
  5
1EF
  8
TEAM-NET
 10
0.0
 20
-190.000094
 30
400.0
 70
    64
  0
VERTEX
  5
1F0
  8
TEAM-NET
 10
0.0
 20
-525.000012
 30
400.0
 70
    64
  0
VERTEX
  5
1F1
  8
TEAM-NET
 10
0.0
 20
-522.348664
 30
380.6858
 70
    64
  0
VERTEX
  5
1F2
  8
TEAM-NET
 10
0.0
 20
-517.360982
 30
361.861131
 70
    64
  0
VERTEX
  5
1F3
  8
TEAM-NET
 10
0.0
 20
-509.220411
 30
344.161403
 70
    64
  0
VERTEX
  5
1F4
  8
TEAM-NET
 10
0.0
 20
-498.465829
 30
327.920571
 70
    64
  0
VERTEX
  5
1F5
  8
TEAM-NET
 10
0.0
 20
-484.917881
 30
313.937088
 70
    64
  0
VERTEX
  5
1F6
  8
TEAM-NET
 10
0.0
 20
-469.192648
 30
302.43672
 70
    64
  0
VERTEX
  5
1F7
  8
TEAM-NET
 10
0.0
 20
-451.984095
 30
293.292076
 70
    64
  0
VERTEX
  5
1F8
  8
TEAM-NET
 10
0.0
 20
-433.913456
 30
285.98263
 70
    64
  0
VERTEX
  5
1F9
  8
TEAM-NET
 10
0.0
 20
-415.230525
 30
280.411794
 70
    64
  0
VERTEX
  5
1FA
  8
TEAM-NET
 10
0.0
 20
-396.224478
 30
276.063144
 70
    64
  0
VERTEX
  5
1FB
  8
TEAM-NET
 10
0.0
 20
-376.889808
 30
273.626091
 70
    64
  0
VERTEX
  5
1FC
  8
TEAM-NET
 10
0.0
 20
-357.401812
 30
273.024194
 70
    64
  0
VERTEX
  5
1FD
  8
TEAM-NET
 10
0.0
 20
-337.917884
 30
273.694143
 70
    64
  0
VERTEX
  5
1FE
  8
TEAM-NET
 10
0.0
 20
-318.5803
 30
276.157389
 70
    64
  0
VERTEX
  5
1FF
  8
TEAM-NET
 10
0.0
 20
-299.526196
 30
280.278651
 70
    64
  0
VERTEX
  5
200
  8
TEAM-NET
 10
0.0
 20
-280.885928
 30
285.988093
 70
    64
  0
VERTEX
  5
201
  8
TEAM-NET
 10
0.0
 20
-262.732495
 30
293.096158
 70
    64
  0
VERTEX
  5
202
  8
TEAM-NET
 10
0.0
 20
-245.549099
 30
302.282474
 70
    64
  0
VERTEX
  5
203
  8
TEAM-NET
 10
0.0
 20
-229.998176
 30
314.014842
 70
    64
  0
VERTEX
  5
204
  8
TEAM-NET
 10
0.0
 20
-216.365049
 30
327.929128
 70
    64
  0
VERTEX
  5
205
  8
TEAM-NET
 10
0.0
 20
-205.525102
 30
344.104563
 70
    64
  0
VERTEX
  5
206
  8
TEAM-NET
 10
0.0
 20
-197.474926
 30
361.846278
 70
    64
  0
VERTEX
  5
207
  8
TEAM-NET
 10
0.0
 20
-192.448617
 30
380.66
 70
    64
  0
VERTEX
  5
208
  8
TEAM-NET
 10
0.0
 20
-190.000094
 30
400.0
 70
    64
  0
VERTEX
  5
209
  8
TEAM-NET
 10
0.0
 20
-525.000012
 30
400.0
 70
    64
  0
VERTEX
  5
20A
  8
TEAM-NET
 10
2.521009
 20
-522.348664
 30
380.851035
 70
    64
  0
VERTEX
  5
20B
  8
TEAM-NET
 10
4.978121
 20
-517.360982
 30
362.187414
 70
    64
  0
VERTEX
  5
20C
  8
TEAM-NET
 10
7.288399
 20
-509.220411
 30
344.63911
 70
    64
  0
VERTEX
  5
20D
  8
TEAM-NET
 10
9.408253
 20
-498.465829
 30
328.537221
 70
    64
  0
VERTEX
  5
20E
  8
TEAM-NET
 10
11.233464
 20
-484.917881
 30
314.673369
 70
    64
  0
VERTEX
  5
20F
  8
TEAM-NET
 10
12.734563
 20
-469.192648
 30
303.271388
 70
    64
  0
VERTEX
  5
210
  8
TEAM-NET
 10
13.928179
 20
-451.984095
 30
294.204977
 70
    64
  0
VERTEX
  5
211
  8
TEAM-NET
 10
14.882253
 20
-433.913456
 30
286.958064
 70
    64
  0
VERTEX
  5
212
  8
TEAM-NET
 10
15.609393
 20
-415.230525
 30
281.434887
 70
    64
  0
VERTEX
  5
213
  8
TEAM-NET
 10
16.177006
 20
-396.224478
 30
277.123441
 70
    64
  0
VERTEX
  5
214
  8
TEAM-NET
 10
16.495105
 20
-376.889808
 30
274.707237
 70
    64
  0
VERTEX
  5
215
  8
TEAM-NET
 10
16.573668
 20
-357.401812
 30
274.11049
 70
    64
  0
VERTEX
  5
216
  8
TEAM-NET
 10
16.486223
 20
-337.917884
 30
274.774707
 70
    64
  0
VERTEX
  5
217
  8
TEAM-NET
 10
16.164704
 20
-318.5803
 30
277.216879
 70
    64
  0
VERTEX
  5
218
  8
TEAM-NET
 10
15.626772
 20
-299.526196
 30
281.302883
 70
    64
  0
VERTEX
  5
219
  8
TEAM-NET
 10
14.88154
 20
-280.885928
 30
286.96348
 70
    64
  0
VERTEX
  5
21A
  8
TEAM-NET
 10
13.953751
 20
-262.732495
 30
294.010736
 70
    64
  0
VERTEX
  5
21B
  8
TEAM-NET
 10
12.754697
 20
-245.549099
 30
303.118461
 70
    64
  0
VERTEX
  5
21C
  8
TEAM-NET
 10
11.223315
 20
-229.998176
 30
314.750457
 70
    64
  0
VERTEX
  5
21D
  8
TEAM-NET
 10
9.407137
 20
-216.365049
 30
328.545704
 70
    64
  0
VERTEX
  5
21E
  8
TEAM-NET
 10
7.295819
 20
-205.525102
 30
344.582756
 70
    64
  0
VERTEX
  5
21F
  8
TEAM-NET
 10
4.98006
 20
-197.474926
 30
362.172689
 70
    64
  0
VERTEX
  5
220
  8
TEAM-NET
 10
2.524377
 20
-192.448617
 30
380.825456
 70
    64
  0
VERTEX
  5
221
  8
TEAM-NET
 10
0.0
 20
-190.000094
 30
400.0
 70
    64
  0
VERTEX
  5
222
  8
TEAM-NET
 10
0.0
 20
-525.000012
 30
400.0
 70
    64
  0
VERTEX
  5
223
  8
TEAM-NET
 10
4.998883
 20
-522.348664
 30
381.343915
 70
    64
  0
VERTEX
  5
224
  8
TEAM-NET
 10
9.871066
 20
-517.360982
 30
363.160682
 70
    64
  0
VERTEX
  5
225
  8
TEAM-NET
 10
14.452092
 20
-509.220411
 30
346.064057
 70
    64
  0
VERTEX
  5
226
  8
TEAM-NET
 10
18.655529
 20
-498.465829
 30
330.376618
 70
    64
  0
VERTEX
  5
227
  8
TEAM-NET
 10
22.274721
 20
-484.917881
 30
316.869611
 70
    64
  0
VERTEX
  5
228
  8
TEAM-NET
 10
25.251235
 20
-469.192648
 30
305.761109
 70
    64
  0
VERTEX
  5
229
  8
TEAM-NET
 10
27.618043
 20
-451.984095
 30
296.92806
 70
    64
  0
VERTEX
  5
22A
  8
TEAM-NET
 10
29.509867
 20
-433.913456
 30
289.867677
 70
    64
  0
VERTEX
  5
22B
  8
TEAM-NET
 10
30.951705
 20
-415.230525
 30
284.486663
 70
    64
  0
VERTEX
  5
22C
  8
TEAM-NET
 10
32.077219
 20
-396.224478
 30
280.28619
 70
    64
  0
VERTEX
  5
22D
  8
TEAM-NET
 10
32.707974
 20
-376.889808
 30
277.932178
 70
    64
  0
VERTEX
  5
22E
  8
TEAM-NET
 10
32.863757
 20
-357.401812
 30
277.35079
 70
    64
  0
VERTEX
  5
22F
  8
TEAM-NET
 10
32.690361
 20
-337.917884
 30
277.997911
 70
    64
  0
VERTEX
  5
230
  8
TEAM-NET
 10
32.052826
 20
-318.5803
 30
280.377223
 70
    64
  0
VERTEX
  5
231
  8
TEAM-NET
 10
30.986165
 20
-299.526196
 30
284.358057
 70
    64
  0
VERTEX
  5
232
  8
TEAM-NET
 10
29.508453
 20
-280.885928
 30
289.872954
 70
    64
  0
VERTEX
  5
233
  8
TEAM-NET
 10
27.66875
 20
-262.732495
 30
296.738818
 70
    64
  0
VERTEX
  5
234
  8
TEAM-NET
 10
25.291157
 20
-245.549099
 30
305.612118
 70
    64
  0
VERTEX
  5
235
  8
TEAM-NET
 10
22.254596
 20
-229.998176
 30
316.944715
 70
    64
  0
VERTEX
  5
236
  8
TEAM-NET
 10
18.653314
 20
-216.365049
 30
330.384883
 70
    64
  0
VERTEX
  5
237
  8
TEAM-NET
 10
14.466804
 20
-205.525102
 30
346.009154
 70
    64
  0
VERTEX
  5
238
  8
TEAM-NET
 10
9.87491
 20
-197.474926
 30
363.146335
 70
    64
  0
VERTEX
  5
239
  8
TEAM-NET
 10
5.00556
 20
-192.448617
 30
381.318994
 70
    64
  0
VERTEX
  5
23A
  8
TEAM-NET
 10
0.0
 20
-190.000094
 30
400.0
 70
    64
  0
VERTEX
  5
23B
  8
TEAM-NET
 10
0.0
 20
-525.000012
 30
400.0
 70
    64
  0
VERTEX
  5
23C
  8
TEAM-NET
 10
7.391224
 20
-522.348664
 30
382.156006
 70
    64
  0
VERTEX
  5
23D
  8
TEAM-NET
 10
14.595113
 20
-517.360982
 30
364.76428
 70
    64
  0
VERTEX
  5
23E
  8
TEAM-NET
 10
21.368506
 20
-509.220411
 30
348.411863
 70
    64
  0
VERTEX
  5
23F
  8
TEAM-NET
 10
27.583603
 20
-498.465829
 30
333.407291
 70
    64
  0
VERTEX
  5
240
  8
TEAM-NET
 10
32.93485
 20
-484.917881
 30
320.488237
 70
    64
  0
VERTEX
  5
241
  8
TEAM-NET
 10
37.335851
 20
-469.192648
 30
309.863283
 70
    64
  0
VERTEX
  5
242
  8
TEAM-NET
 10
40.835355
 20
-451.984095
 30
301.414733
 70
    64
  0
VERTEX
  5
243
  8
TEAM-NET
 10
43.632559
 20
-433.913456
 30
294.661685
 70
    64
  0
VERTEX
  5
244
  8
TEAM-NET
 10
45.764425
 20
-415.230525
 30
289.514904
 70
    64
  0
VERTEX
  5
245
  8
TEAM-NET
 10
47.428581
 20
-396.224478
 30
285.497275
 70
    64
  0
VERTEX
  5
246
  8
TEAM-NET
 10
48.361201
 20
-376.889808
 30
283.245732
 70
    64
  0
VERTEX
  5
247
  8
TEAM-NET
 10
48.591537
 20
-357.401812
 30
282.689652
 70
    64
  0
VERTEX
  5
248
  8
TEAM-NET
 10
48.335159
 20
-337.917884
 30
283.308604
 70
    64
  0
VERTEX
  5
249
  8
TEAM-NET
 10
47.392516
 20
-318.5803
 30
285.584346
 70
    64
  0
VERTEX
  5
24A
  8
TEAM-NET
 10
45.815377
 20
-299.526196
 30
289.391896
 70
    64
  0
VERTEX
  5
24B
  8
TEAM-NET
 10
43.630468
 20
-280.885928
 30
294.666732
 70
    64
  0
VERTEX
  5
24C
  8
TEAM-NET
 10
40.910329
 20
-262.732495
 30
301.233729
 70
    64
  0
VERTEX
  5
24D
  8
TEAM-NET
 10
37.394878
 20
-245.549099
 30
309.720778
 70
    64
  0
VERTEX
  5
24E
  8
TEAM-NET
 10
32.905095
 20
-229.998176
 30
320.560073
 70
    64
  0
VERTEX
  5
24F
  8
TEAM-NET
 10
27.580329
 20
-216.365049
 30
333.415196
 70
    64
  0
VERTEX
  5
250
  8
TEAM-NET
 10
21.390258
 20
-205.525102
 30
348.35935
 70
    64
  0
VERTEX
  5
251
  8
TEAM-NET
 10
14.600797
 20
-197.474926
 30
364.750557
 70
    64
  0
VERTEX
  5
252
  8
TEAM-NET
 10
7.401098
 20
-192.448617
 30
382.13217
 70
    64
  0
VERTEX
  5
253
  8
TEAM-NET
 10
0.0
 20
-190.000094
 30
400.0
 70
    64
  0
VERTEX
  5
254
  8
TEAM-NET
 10
0.0
 20
-525.000012
 30
400.0
 70
    64
  0
VERTEX
  5
255
  8
TEAM-NET
 10
9.6571
 20
-522.348664
 30
383.273412
 70
    64
  0
VERTEX
  5
256
  8
TEAM-NET
 10
19.069434
 20
-517.360982
 30
366.970771
 70
    64
  0
VERTEX
  5
257
  8
TEAM-NET
 10
27.919298
 20
-509.220411
 30
351.642357
 70
    64
  0
VERTEX
  5
258
  8
TEAM-NET
 10
36.039714
 20
-498.465829
 30
337.577384
 70
    64
  0
VERTEX
  5
259
  8
TEAM-NET
 10
43.031456
 20
-484.917881
 30
325.467332
 70
    64
  0
VERTEX
  5
25A
  8
TEAM-NET
 10
48.78164
 20
-469.192648
 30
315.507721
 70
    64
  0
VERTEX
  5
25B
  8
TEAM-NET
 10
53.353962
 20
-451.984095
 30
307.588227
 70
    64
  0
VERTEX
  5
25C
  8
TEAM-NET
 10
57.008685
 20
-433.913456
 30
301.258061
 70
    64
  0
VERTEX
  5
25D
  8
TEAM-NET
 10
59.794103
 20
-415.230525
 30
296.433575
 70
    64
  0
VERTEX
  5
25E
  8
TEAM-NET
 10
61.968428
 20
-396.224478
 30
292.667534
 70
    64
  0
VERTEX
  5
25F
  8
TEAM-NET
 10
63.186955
 20
-376.889808
 30
290.556984
 70
    64
  0
VERTEX
  5
260
  8
TEAM-NET
 10
63.487903
 20
-357.401812
 30
290.035727
 70
    64
  0
VERTEX
  5
261
  8
TEAM-NET
 10
63.152928
 20
-337.917884
 30
290.61592
 70
    64
  0
VERTEX
  5
262
  8
TEAM-NET
 10
61.921306
 20
-318.5803
 30
292.749153
 70
    64
  0
VERTEX
  5
263
  8
TEAM-NET
 10
59.860675
 20
-299.526196
 30
296.31827
 70
    64
  0
VERTEX
  5
264
  8
TEAM-NET
 10
57.005954
 20
-280.885928
 30
301.262792
 70
    64
  0
VERTEX
  5
265
  8
TEAM-NET
 10
53.451921
 20
-262.732495
 30
307.418557
 70
    64
  0
VERTEX
  5
266
  8
TEAM-NET
 10
48.858763
 20
-245.549099
 30
315.37414
 70
    64
  0
VERTEX
  5
267
  8
TEAM-NET
 10
42.992579
 20
-229.998176
 30
325.534669
 70
    64
  0
VERTEX
  5
268
  8
TEAM-NET
 10
36.035436
 20
-216.365049
 30
337.584794
 70
    64
  0
VERTEX
  5
269
  8
TEAM-NET
 10
27.947718
 20
-205.525102
 30
351.593132
 70
    64
  0
VERTEX
  5
26A
  8
TEAM-NET
 10
19.076861
 20
-197.474926
 30
366.957908
 70
    64
  0
VERTEX
  5
26B
  8
TEAM-NET
 10
9.67
 20
-192.448617
 30
383.251069
 70
    64
  0
VERTEX
  5
26C
  8
TEAM-NET
 10
0.0
 20
-190.000094
 30
400.0
 70
    64
  0
VERTEX
  5
26D
  8
TEAM-NET
 10
0.0
 20
-525.000012
 30
400.0
 70
    64
  0
VERTEX
  5
26E
  8
TEAM-NET
 10
11.75774
 20
-522.348664
 30
384.677015
 70
    64
  0
VERTEX
  5
26F
  8
TEAM-NET
 10
23.217472
 20
-517.360982
 30
369.742401
 70
    64
  0
VERTEX
  5
270
  8
TEAM-NET
 10
33.992384
 20
-509.220411
 30
355.700263
 70
    64
  0
VERTEX
  5
271
  8
TEAM-NET
 10
43.879176
 20
-498.465829
 30
342.815544
 70
    64
  0
VERTEX
  5
272
  8
TEAM-NET
 10
52.391781
 20
-484.917881
 30
331.721702
 70
    64
  0
VERTEX
  5
273
  8
TEAM-NET
 10
59.392762
 20
-469.192648
 30
322.597846
 70
    64
  0
VERTEX
  5
274
  8
TEAM-NET
 10
64.959668
 20
-451.984095
 30
315.342912
 70
    64
  0
VERTEX
  5
275
  8
TEAM-NET
 10
69.409377
 20
-433.913456
 30
309.543938
 70
    64
  0
VERTEX
  5
276
  8
TEAM-NET
 10
72.800687
 20
-415.230525
 30
305.124297
 70
    64
  0
VERTEX
  5
277
  8
TEAM-NET
 10
75.447978
 20
-396.224478
 30
301.674281
 70
    64
  0
VERTEX
  5
278
  8
TEAM-NET
 10
76.931561
 20
-376.889808
 30
299.740837
 70
    64
  0
VERTEX
  5
279
  8
TEAM-NET
 10
77.297973
 20
-357.401812
 30
299.263321
 70
    64
  0
VERTEX
  5
27A
  8
TEAM-NET
 10
76.890134
 20
-337.917884
 30
299.794827
 70
    64
  0
VERTEX
  5
27B
  8
TEAM-NET
 10
75.390605
 20
-318.5803
 30
301.749051
 70
    64
  0
VERTEX
  5
27C
  8
TEAM-NET
 10
72.88174
 20
-299.526196
 30
305.018668
 70
    64
  0
VERTEX
  5
27D
  8
TEAM-NET
 10
69.406052
 20
-280.885928
 30
309.548272
 70
    64
  0
VERTEX
  5
27E
  8
TEAM-NET
 10
65.078935
 20
-262.732495
 30
315.18748
 70
    64
  0
VERTEX
  5
27F
  8
TEAM-NET
 10
59.486661
 20
-245.549099
 30
322.475474
 70
    64
  0
VERTEX
  5
280
  8
TEAM-NET
 10
52.344447
 20
-229.998176
 30
331.783388
 70
    64
  0
VERTEX
  5
281
  8
TEAM-NET
 10
43.873967
 20
-216.365049
 30
342.822333
 70
    64
  0
VERTEX
  5
282
  8
TEAM-NET
 10
34.026986
 20
-205.525102
 30
355.655168
 70
    64
  0
VERTEX
  5
283
  8
TEAM-NET
 10
23.226514
 20
-197.474926
 30
369.730617
 70
    64
  0
VERTEX
  5
284
  8
TEAM-NET
 10
11.773446
 20
-192.448617
 30
384.656546
 70
    64
  0
VERTEX
  5
285
  8
TEAM-NET
 10
0.0
 20
-190.000094
 30
400.0
 70
    64
  0
VERTEX
  5
286
  8
TEAM-NET
 10
0.0
 20
-525.000012
 30
400.0
 70
    64
  0
VERTEX
  5
287
  8
TEAM-NET
 10
13.657202
 20
-522.348664
 30
386.342798
 70
    64
  0
VERTEX
  5
288
  8
TEAM-NET
 10
26.968253
 20
-517.360982
 30
373.031747
 70
    64
  0
VERTEX
  5
289
  8
TEAM-NET
 10
39.483851
 20
-509.220411
 30
360.516149
 70
    64
  0
VERTEX
  5
28A
  8
TEAM-NET
 10
50.967853
 20
-498.465829
 30
349.032147
 70
    64
  0
VERTEX
  5
28B
  8
TEAM-NET
 10
60.855668
 20
-484.917881
 30
339.144332
 70
    64
  0
VERTEX
  5
28C
  8
TEAM-NET
 10
68.987657
 20
-469.192648
 30
331.012343
 70
    64
  0
VERTEX
  5
28D
  8
TEAM-NET
 10
75.453897
 20
-451.984095
 30
324.546103
 70
    64
  0
VERTEX
  5
28E
  8
TEAM-NET
 10
80.622456
 20
-433.913456
 30
319.377544
 70
    64
  0
VERTEX
  5
28F
  8
TEAM-NET
 10
84.561632
 20
-415.230525
 30
315.438368
 70
    64
  0
VERTEX
  5
290
  8
TEAM-NET
 10
87.636591
 20
-396.224478
 30
312.363409
 70
    64
  0
VERTEX
  5
291
  8
TEAM-NET
 10
89.359848
 20
-376.889808
 30
310.640152
 70
    64
  0
VERTEX
  5
292
  8
TEAM-NET
 10
89.785453
 20
-357.401812
 30
310.214547
 70
    64
  0
VERTEX
  5
293
  8
TEAM-NET
 10
89.311728
 20
-337.917884
 30
310.688272
 70
    64
  0
VERTEX
  5
294
  8
TEAM-NET
 10
87.56995
 20
-318.5803
 30
312.43005
 70
    64
  0
VERTEX
  5
295
  8
TEAM-NET
 10
84.655778
 20
-299.526196
 30
315.344222
 70
    64
  0
VERTEX
  5
296
  8
TEAM-NET
 10
80.618593
 20
-280.885928
 30
319.381407
 70
    64
  0
VERTEX
  5
297
  8
TEAM-NET
 10
75.592431
 20
-262.732495
 30
324.407569
 70
    64
  0
VERTEX
  5
298
  8
TEAM-NET
 10
69.096725
 20
-245.549099
 30
330.903275
 70
    64
  0
VERTEX
  5
299
  8
TEAM-NET
 10
60.800688
 20
-229.998176
 30
339.199312
 70
    64
  0
VERTEX
  5
29A
  8
TEAM-NET
 10
50.961803
 20
-216.365049
 30
349.038197
 70
    64
  0
VERTEX
  5
29B
  8
TEAM-NET
 10
39.524042
 20
-205.525102
 30
360.475958
 70
    64
  0
VERTEX
  5
29C
  8
TEAM-NET
 10
26.978755
 20
-197.474926
 30
373.021245
 70
    64
  0
VERTEX
  5
29D
  8
TEAM-NET
 10
13.675445
 20
-192.448617
 30
386.324555
 70
    64
  0
VERTEX
  5
29E
  8
TEAM-NET
 10
0.0
 20
-190.000094
 30
400.0
 70
    64
  0
VERTEX
  5
29F
  8
TEAM-NET
 10
0.0
 20
-525.000012
 30
400.0
 70
    64
  0
VERTEX
  5
2A0
  8
TEAM-NET
 10
15.322985
 20
-522.348664
 30
388.24226
 70
    64
  0
VERTEX
  5
2A1
  8
TEAM-NET
 10
30.257599
 20
-517.360982
 30
376.782528
 70
    64
  0
VERTEX
  5
2A2
  8
TEAM-NET
 10
44.299737
 20
-509.220411
 30
366.007616
 70
    64
  0
VERTEX
  5
2A3
  8
TEAM-NET
 10
57.184456
 20
-498.465829
 30
356.120824
 70
    64
  0
VERTEX
  5
2A4
  8
TEAM-NET
 10
68.278298
 20
-484.917881
 30
347.608219
 70
    64
  0
VERTEX
  5
2A5
  8
TEAM-NET
 10
77.402154
 20
-469.192648
 30
340.607238
 70
    64
  0
VERTEX
  5
2A6
  8
TEAM-NET
 10
84.657088
 20
-451.984095
 30
335.040332
 70
    64
  0
VERTEX
  5
2A7
  8
TEAM-NET
 10
90.456062
 20
-433.913456
 30
330.590623
 70
    64
  0
VERTEX
  5
2A8
  8
TEAM-NET
 10
94.875703
 20
-415.230525
 30
327.199313
 70
    64
  0
VERTEX
  5
2A9
  8
TEAM-NET
 10
98.325719
 20
-396.224478
 30
324.552022
 70
    64
  0
VERTEX
  5
2AA
  8
TEAM-NET
 10
100.259163
 20
-376.889808
 30
323.068439
 70
    64
  0
VERTEX
  5
2AB
  8
TEAM-NET
 10
100.736679
 20
-357.401812
 30
322.702027
 70
    64
  0
VERTEX
  5
2AC
  8
TEAM-NET
 10
100.205173
 20
-337.917884
 30
323.109866
 70
    64
  0
VERTEX
  5
2AD
  8
TEAM-NET
 10
98.250949
 20
-318.5803
 30
324.609395
 70
    64
  0
VERTEX
  5
2AE
  8
TEAM-NET
 10
94.981332
 20
-299.526196
 30
327.11826
 70
    64
  0
VERTEX
  5
2AF
  8
TEAM-NET
 10
90.451728
 20
-280.885928
 30
330.593948
 70
    64
  0
VERTEX
  5
2B0
  8
TEAM-NET
 10
84.81252
 20
-262.732495
 30
334.921065
 70
    64
  0
VERTEX
  5
2B1
  8
TEAM-NET
 10
77.524526
 20
-245.549099
 30
340.513339
 70
    64
  0
VERTEX
  5
2B2
  8
TEAM-NET
 10
68.216612
 20
-229.998176
 30
347.655553
 70
    64
  0
VERTEX
  5
2B3
  8
TEAM-NET
 10
57.177667
 20
-216.365049
 30
356.126033
 70
    64
  0
VERTEX
  5
2B4
  8
TEAM-NET
 10
44.344832
 20
-205.525102
 30
365.973014
 70
    64
  0
VERTEX
  5
2B5
  8
TEAM-NET
 10
30.269383
 20
-197.474926
 30
376.773486
 70
    64
  0
VERTEX
  5
2B6
  8
TEAM-NET
 10
15.343454
 20
-192.448617
 30
388.226554
 70
    64
  0
VERTEX
  5
2B7
  8
TEAM-NET
 10
0.0
 20
-190.000094
 30
400.0
 70
    64
  0
VERTEX
  5
2B8
  8
TEAM-NET
 10
0.0
 20
-525.000012
 30
400.0
 70
    64
  0
VERTEX
  5
2B9
  8
TEAM-NET
 10
16.726588
 20
-522.348664
 30
390.3429
 70
    64
  0
VERTEX
  5
2BA
  8
TEAM-NET
 10
33.029229
 20
-517.360982
 30
380.930566
 70
    64
  0
VERTEX
  5
2BB
  8
TEAM-NET
 10
48.357643
 20
-509.220411
 30
372.080702
 70
    64
  0
VERTEX
  5
2BC
  8
TEAM-NET
 10
62.422616
 20
-498.465829
 30
363.960286
 70
    64
  0
VERTEX
  5
2BD
  8
TEAM-NET
 10
74.532668
 20
-484.917881
 30
356.968544
 70
    64
  0
VERTEX
  5
2BE
  8
TEAM-NET
 10
84.492279
 20
-469.192648
 30
351.21836
 70
    64
  0
VERTEX
  5
2BF
  8
TEAM-NET
 10
92.411773
 20
-451.984095
 30
346.646038
 70
    64
  0
VERTEX
  5
2C0
  8
TEAM-NET
 10
98.741939
 20
-433.913456
 30
342.991315
 70
    64
  0
VERTEX
  5
2C1
  8
TEAM-NET
 10
103.566425
 20
-415.230525
 30
340.205897
 70
    64
  0
VERTEX
  5
2C2
  8
TEAM-NET
 10
107.332466
 20
-396.224478
 30
338.031572
 70
    64
  0
VERTEX
  5
2C3
  8
TEAM-NET
 10
109.443016
 20
-376.889808
 30
336.813045
 70
    64
  0
VERTEX
  5
2C4
  8
TEAM-NET
 10
109.964273
 20
-357.401812
 30
336.512097
 70
    64
  0
VERTEX
  5
2C5
  8
TEAM-NET
 10
109.38408
 20
-337.917884
 30
336.847072
 70
    64
  0
VERTEX
  5
2C6
  8
TEAM-NET
 10
107.250847
 20
-318.5803
 30
338.078694
 70
    64
  0
VERTEX
  5
2C7
  8
TEAM-NET
 10
103.68173
 20
-299.526196
 30
340.139325
 70
    64
  0
VERTEX
  5
2C8
  8
TEAM-NET
 10
98.737208
 20
-280.885928
 30
342.994046
 70
    64
  0
VERTEX
  5
2C9
  8
TEAM-NET
 10
92.581443
 20
-262.732495
 30
346.548079
 70
    64
  0
VERTEX
  5
2CA
  8
TEAM-NET
 10
84.62586
 20
-245.549099
 30
351.141237
 70
    64
  0
VERTEX
  5
2CB
  8
TEAM-NET
 10
74.465331
 20
-229.998176
 30
357.007421
 70
    64
  0
VERTEX
  5
2CC
  8
TEAM-NET
 10
62.415206
 20
-216.365049
 30
363.964564
 70
    64
  0
VERTEX
  5
2CD
  8
TEAM-NET
 10
48.406868
 20
-205.525102
 30
372.052282
 70
    64
  0
VERTEX
  5
2CE
  8
TEAM-NET
 10
33.042092
 20
-197.474926
 30
380.923139
 70
    64
  0
VERTEX
  5
2CF
  8
TEAM-NET
 10
16.748931
 20
-192.448617
 30
390.33
 70
    64
  0
VERTEX
  5
2D0
  8
TEAM-NET
 10
0.0
 20
-190.000094
 30
400.0
 70
    64
  0
VERTEX
  5
2D1
  8
TEAM-NET
 10
0.0
 20
-525.000012
 30
400.0
 70
    64
  0
VERTEX
  5
2D2
  8
TEAM-NET
 10
17.843994
 20
-522.348664
 30
392.608776
 70
    64
  0
VERTEX
  5
2D3
  8
TEAM-NET
 10
35.23572
 20
-517.360982
 30
385.404887
 70
    64
  0
VERTEX
  5
2D4
  8
TEAM-NET
 10
51.588137
 20
-509.220411
 30
378.631494
 70
    64
  0
VERTEX
  5
2D5
  8
TEAM-NET
 10
66.592709
 20
-498.465829
 30
372.416397
 70
    64
  0
VERTEX
  5
2D6
  8
TEAM-NET
 10
79.511763
 20
-484.917881
 30
367.06515
 70
    64
  0
VERTEX
  5
2D7
  8
TEAM-NET
 10
90.136717
 20
-469.192648
 30
362.664149
 70
    64
  0
VERTEX
  5
2D8
  8
TEAM-NET
 10
98.585267
 20
-451.984095
 30
359.164645
 70
    64
  0
VERTEX
  5
2D9
  8
TEAM-NET
 10
105.338315
 20
-433.913456
 30
356.367441
 70
    64
  0
VERTEX
  5
2DA
  8
TEAM-NET
 10
110.485096
 20
-415.230525
 30
354.235575
 70
    64
  0
VERTEX
  5
2DB
  8
TEAM-NET
 10
114.502725
 20
-396.224478
 30
352.571419
 70
    64
  0
VERTEX
  5
2DC
  8
TEAM-NET
 10
116.754268
 20
-376.889808
 30
351.638799
 70
    64
  0
VERTEX
  5
2DD
  8
TEAM-NET
 10
117.310348
 20
-357.401812
 30
351.408463
 70
    64
  0
VERTEX
  5
2DE
  8
TEAM-NET
 10
116.691396
 20
-337.917884
 30
351.664841
 70
    64
  0
VERTEX
  5
2DF
  8
TEAM-NET
 10
114.415654
 20
-318.5803
 30
352.607484
 70
    64
  0
VERTEX
  5
2E0
  8
TEAM-NET
 10
110.608104
 20
-299.526196
 30
354.184623
 70
    64
  0
VERTEX
  5
2E1
  8
TEAM-NET
 10
105.333268
 20
-280.885928
 30
356.369532
 70
    64
  0
VERTEX
  5
2E2
  8
TEAM-NET
 10
98.766271
 20
-262.732495
 30
359.089671
 70
    64
  0
VERTEX
  5
2E3
  8
TEAM-NET
 10
90.279222
 20
-245.549099
 30
362.605122
 70
    64
  0
VERTEX
  5
2E4
  8
TEAM-NET
 10
79.439927
 20
-229.998176
 30
367.094905
 70
    64
  0
VERTEX
  5
2E5
  8
TEAM-NET
 10
66.584804
 20
-216.365049
 30
372.419671
 70
    64
  0
VERTEX
  5
2E6
  8
TEAM-NET
 10
51.64065
 20
-205.525102
 30
378.609742
 70
    64
  0
VERTEX
  5
2E7
  8
TEAM-NET
 10
35.249443
 20
-197.474926
 30
385.399203
 70
    64
  0
VERTEX
  5
2E8
  8
TEAM-NET
 10
17.86783
 20
-192.448617
 30
392.598902
 70
    64
  0
VERTEX
  5
2E9
  8
TEAM-NET
 10
0.0
 20
-190.000094
 30
400.0
 70
    64
  0
VERTEX
  5
2EA
  8
TEAM-NET
 10
0.0
 20
-525.000012
 30
400.0
 70
    64
  0
VERTEX
  5
2EB
  8
TEAM-NET
 10
18.656085
 20
-522.348664
 30
395.001117
 70
    64
  0
VERTEX
  5
2EC
  8
TEAM-NET
 10
36.839318
 20
-517.360982
 30
390.128934
 70
    64
  0
VERTEX
  5
2ED
  8
TEAM-NET
 10
53.935943
 20
-509.220411
 30
385.547908
 70
    64
  0
VERTEX
  5
2EE
  8
TEAM-NET
 10
69.623382
 20
-498.465829
 30
381.344471
 70
    64
  0
VERTEX
  5
2EF
  8
TEAM-NET
 10
83.130389
 20
-484.917881
 30
377.725279
 70
    64
  0
VERTEX
  5
2F0
  8
TEAM-NET
 10
94.238891
 20
-469.192648
 30
374.748765
 70
    64
  0
VERTEX
  5
2F1
  8
TEAM-NET
 10
103.07194
 20
-451.984095
 30
372.381957
 70
    64
  0
VERTEX
  5
2F2
  8
TEAM-NET
 10
110.132323
 20
-433.913456
 30
370.490133
 70
    64
  0
VERTEX
  5
2F3
  8
TEAM-NET
 10
115.513337
 20
-415.230525
 30
369.048295
 70
    64
  0
VERTEX
  5
2F4
  8
TEAM-NET
 10
119.71381
 20
-396.224478
 30
367.922781
 70
    64
  0
VERTEX
  5
2F5
  8
TEAM-NET
 10
122.067822
 20
-376.889808
 30
367.292026
 70
    64
  0
VERTEX
  5
2F6
  8
TEAM-NET
 10
122.64921
 20
-357.401812
 30
367.136243
 70
    64
  0
VERTEX
  5
2F7
  8
TEAM-NET
 10
122.002089
 20
-337.917884
 30
367.309639
 70
    64
  0
VERTEX
  5
2F8
  8
TEAM-NET
 10
119.622777
 20
-318.5803
 30
367.947174
 70
    64
  0
VERTEX
  5
2F9
  8
TEAM-NET
 10
115.641943
 20
-299.526196
 30
369.013835
 70
    64
  0
VERTEX
  5
2FA
  8
TEAM-NET
 10
110.127046
 20
-280.885928
 30
370.491547
 70
    64
  0
VERTEX
  5
2FB
  8
TEAM-NET
 10
103.261182
 20
-262.732495
 30
372.33125
 70
    64
  0
VERTEX
  5
2FC
  8
TEAM-NET
 10
94.387882
 20
-245.549099
 30
374.708843
 70
    64
  0
VERTEX
  5
2FD
  8
TEAM-NET
 10
83.055285
 20
-229.998176
 30
377.745404
 70
    64
  0
VERTEX
  5
2FE
  8
TEAM-NET
 10
69.615117
 20
-216.365049
 30
381.346686
 70
    64
  0
VERTEX
  5
2FF
  8
TEAM-NET
 10
53.990846
 20
-205.525102
 30
385.533196
 70
    64
  0
VERTEX
  5
300
  8
TEAM-NET
 10
36.853665
 20
-197.474926
 30
390.12509
 70
    64
  0
VERTEX
  5
301
  8
TEAM-NET
 10
18.681006
 20
-192.448617
 30
394.99444
 70
    64
  0
VERTEX
  5
302
  8
TEAM-NET
 10
0.0
 20
-190.000094
 30
400.0
 70
    64
  0
VERTEX
  5
303
  8
TEAM-NET
 10
0.0
 20
-525.000012
 30
400.0
 70
    64
  0
VERTEX
  5
304
  8
TEAM-NET
 10
19.148965
 20
-522.348664
 30
397.478991
 70
    64
  0
VERTEX
  5
305
  8
TEAM-NET
 10
37.812586
 20
-517.360982
 30
395.021879
 70
    64
  0
VERTEX
  5
306
  8
TEAM-NET
 10
55.36089
 20
-509.220411
 30
392.711601
 70
    64
  0
VERTEX
  5
307
  8
TEAM-NET
 10
71.462779
 20
-498.465829
 30
390.591747
 70
    64
  0
VERTEX
  5
308
  8
TEAM-NET
 10
85.326631
 20
-484.917881
 30
388.766536
 70
    64
  0
VERTEX
  5
309
  8
TEAM-NET
 10
96.728612
 20
-469.192648
 30
387.265437
 70
    64
  0
VERTEX
  5
30A
  8
TEAM-NET
 10
105.795023
 20
-451.984095
 30
386.071821
 70
    64
  0
VERTEX
  5
30B
  8
TEAM-NET
 10
113.041936
 20
-433.913456
 30
385.117747
 70
    64
  0
VERTEX
  5
30C
  8
TEAM-NET
 10
118.565113
 20
-415.230525
 30
384.390607
 70
    64
  0
VERTEX
  5
30D
  8
TEAM-NET
 10
122.876559
 20
-396.224478
 30
383.822994
 70
    64
  0
VERTEX
  5
30E
  8
TEAM-NET
 10
125.292763
 20
-376.889808
 30
383.504895
 70
    64
  0
VERTEX
  5
30F
  8
TEAM-NET
 10
125.88951
 20
-357.401812
 30
383.426332
 70
    64
  0
VERTEX
  5
310
  8
TEAM-NET
 10
125.225293
 20
-337.917884
 30
383.513777
 70
    64
  0
VERTEX
  5
311
  8
TEAM-NET
 10
122.783121
 20
-318.5803
 30
383.835296
 70
    64
  0
VERTEX
  5
312
  8
TEAM-NET
 10
118.697117
 20
-299.526196
 30
384.373228
 70
    64
  0
VERTEX
  5
313
  8
TEAM-NET
 10
113.03652
 20
-280.885928
 30
385.11846
 70
    64
  0
VERTEX
  5
314
  8
TEAM-NET
 10
105.989264
 20
-262.732495
 30
386.046249
 70
    64
  0
VERTEX
  5
315
  8
TEAM-NET
 10
96.881539
 20
-245.549099
 30
387.245303
 70
    64
  0
VERTEX
  5
316
  8
TEAM-NET
 10
85.249543
 20
-229.998176
 30
388.776685
 70
    64
  0
VERTEX
  5
317
  8
TEAM-NET
 10
71.454296
 20
-216.365049
 30
390.592863
 70
    64
  0
VERTEX
  5
318
  8
TEAM-NET
 10
55.417244
 20
-205.525102
 30
392.704181
 70
    64
  0
VERTEX
  5
319
  8
TEAM-NET
 10
37.827311
 20
-197.474926
 30
395.01994
 70
    64
  0
VERTEX
  5
31A
  8
TEAM-NET
 10
19.174544
 20
-192.448617
 30
397.475623
 70
    64
  0
VERTEX
  5
31B
  8
TEAM-NET
 10
0.0
 20
-190.000094
 30
400.0
 70
    64
  0
VERTEX
  5
31C
  8
TEAM-NET
 10
0.0
 20
-525.000012
 30
400.0
 70
    64
  0
VERTEX
  5
31D
  8
TEAM-NET
 10
19.3142
 20
-522.348664
 30
400.0
 70
    64
  0
VERTEX
  5
31E
  8
TEAM-NET
 10
38.138869
 20
-517.360982
 30
400.0
 70
    64
  0
VERTEX
  5
31F
  8
TEAM-NET
 10
55.838597
 20
-509.220411
 30
400.0
 70
    64
  0
VERTEX
  5
320
  8
TEAM-NET
 10
72.079429
 20
-498.465829
 30
400.0
 70
    64
  0
VERTEX
  5
321
  8
TEAM-NET
 10
86.062912
 20
-484.917881
 30
400.0
 70
    64
  0
VERTEX
  5
322
  8
TEAM-NET
 10
97.56328
 20
-469.192648
 30
400.0
 70
    64
  0
VERTEX
  5
323
  8
TEAM-NET
 10
106.707924
 20
-451.984095
 30
400.0
 70
    64
  0
VERTEX
  5
324
  8
TEAM-NET
 10
114.01737
 20
-433.913456
 30
400.0
 70
    64
  0
VERTEX
  5
325
  8
TEAM-NET
 10
119.588206
 20
-415.230525
 30
400.0
 70
    64
  0
VERTEX
  5
326
  8
TEAM-NET
 10
123.936856
 20
-396.224478
 30
400.0
 70
    64
  0
VERTEX
  5
327
  8
TEAM-NET
 10
126.373909
 20
-376.889808
 30
400.0
 70
    64
  0
VERTEX
  5
328
  8
TEAM-NET
 10
126.975806
 20
-357.401812
 30
400.0
 70
    64
  0
VERTEX
  5
329
  8
TEAM-NET
 10
126.305857
 20
-337.917884
 30
400.0
 70
    64
  0
VERTEX
  5
32A
  8
TEAM-NET
 10
123.842611
 20
-318.5803
 30
400.0
 70
    64
  0
VERTEX
  5
32B
  8
TEAM-NET
 10
119.721349
 20
-299.526196
 30
400.0
 70
    64
  0
VERTEX
  5
32C
  8
TEAM-NET
 10
114.011907
 20
-280.885928
 30
400.0
 70
    64
  0
VERTEX
  5
32D
  8
TEAM-NET
 10
106.903842
 20
-262.732495
 30
400.0
 70
    64
  0
VERTEX
  5
32E
  8
TEAM-NET
 10
97.717526
 20
-245.549099
 30
400.0
 70
    64
  0
VERTEX
  5
32F
  8
TEAM-NET
 10
85.985158
 20
-229.998176
 30
400.0
 70
    64
  0
VERTEX
  5
330
  8
TEAM-NET
 10
72.070872
 20
-216.365049
 30
400.0
 70
    64
  0
VERTEX
  5
331
  8
TEAM-NET
 10
55.895437
 20
-205.525102
 30
400.0
 70
    64
  0
VERTEX
  5
332
  8
TEAM-NET
 10
38.153722
 20
-197.474926
 30
400.0
 70
    64
  0
VERTEX
  5
333
  8
TEAM-NET
 10
19.34
 20
-192.448617
 30
400.0
 70
    64
  0
VERTEX
  5
334
  8
TEAM-NET
 10
0.0
 20
-190.000094
 30
400.0
 70
    64
  0
SEQEND
  5
335
  8
TEAM-NET
  0
CIRCLE
  5
336
  8
TEAM-DET1
 10
0.0
 20
-297.599748
 30
210.0
 40
37.5
  0
CIRCLE
  5
337
  8
TEAM-BODY
 10
0.0
 20
-297.599748
 30
210.0
 40
24.0
  0
TEXT
  5
339
  8
TEAM-TXT
 10
-167.83285
 20
-173.808286
 30
400.0
 40
30.0
  1
team 227003
 41
0.8
 51
15.0
  7
TEAM
  0
POLYLINE
  5
33C
  8
TEAM-BODY
 66
     1
 10
0.0
 20
0.0
 30
400.0
 70
     4
 75
     6
  0
VERTEX
  5
33D
  8
TEAM-BODY
 10
0.0
 20
-190.000094
 30
400.0
 70
    16
  0
VERTEX
  5
33E
  8
TEAM-BODY
 10
0.0
 20
-190.000094
 30
400.0
 70
     8
  0
VERTEX
  5
33F
  8
TEAM-BODY
 10
7.022516
 20
-190.694662
 30
400.0
 70
     8
  0
VERTEX
  5
340
  8
TEAM-BODY
 10
13.188681
 20
-191.465183
 30
400.0
 70
     8
  0
VERTEX
  5
341
  8
TEAM-BODY
 10
18.605992
 20
-192.308368
 30
400.0
 70
     8
  0
VERTEX
  5
342
  8
TEAM-BODY
 10
23.38195
 20
-193.220924
 30
400.0
 70
     8
  0
VERTEX
  5
343
  8
TEAM-BODY
 10
27.624054
 20
-194.199562
 30
400.0
 70
     8
  0
VERTEX
  5
344
  8
TEAM-BODY
 10
31.439801
 20
-195.240989
 30
400.0
 70
     8
  0
VERTEX
  5
345
  8
TEAM-BODY
 10
34.936691
 20
-196.341916
 30
400.0
 70
     8
  0
VERTEX
  5
346
  8
TEAM-BODY
 10
38.222223
 20
-197.499051
 30
400.0
 70
     8
  0
VERTEX
  5
347
  8
TEAM-BODY
 10
41.386022
 20
-198.708885
 30
400.0
 70
     8
  0
VERTEX
  5
348
  8
TEAM-BODY
 10
44.446219
 20
-199.967031
 30
400.0
 70
     8
  0
VERTEX
  5
349
  8
TEAM-BODY
 10
47.403075
 20
-201.268885
 30
400.0
 70
     8
  0
VERTEX
  5
34A
  8
TEAM-BODY
 10
50.256845
 20
-202.609844
 30
400.0
 70
     8
  0
VERTEX
  5
34B
  8
TEAM-BODY
 10
53.00779
 20
-203.985302
 30
400.0
 70
     8
  0
VERTEX
  5
34C
  8
TEAM-BODY
 10
55.656166
 20
-205.390655
 30
400.0
 70
     8
  0
VERTEX
  5
34D
  8
TEAM-BODY
 10
58.202234
 20
-206.821298
 30
400.0
 70
     8
  0
VERTEX
  5
34E
  8
TEAM-BODY
 10
60.646249
 20
-208.272628
 30
400.0
 70
     8
  0
VERTEX
  5
34F
  8
TEAM-BODY
 10
62.990778
 20
-209.742603
 30
400.0
 70
     8
  0
VERTEX
  5
350
  8
TEAM-BODY
 10
65.247609
 20
-211.239429
 30
400.0
 70
     8
  0
VERTEX
  5
351
  8
TEAM-BODY
 10
67.430834
 20
-212.773877
 30
400.0
 70
     8
  0
VERTEX
  5
352
  8
TEAM-BODY
 10
69.55455
 20
-214.356717
 30
400.0
 70
     8
  0
VERTEX
  5
353
  8
TEAM-BODY
 10
71.632849
 20
-215.99872
 30
400.0
 70
     8
  0
VERTEX
  5
354
  8
TEAM-BODY
 10
73.679827
 20
-217.710655
 30
400.0
 70
     8
  0
VERTEX
  5
355
  8
TEAM-BODY
 10
75.709577
 20
-219.503292
 30
400.0
 70
     8
  0
VERTEX
  5
356
  8
TEAM-BODY
 10
77.736194
 20
-221.387402
 30
400.0
 70
     8
  0
VERTEX
  5
357
  8
TEAM-BODY
 10
79.769054
 20
-223.369383
 30
400.0
 70
     8
  0
VERTEX
  5
358
  8
TEAM-BODY
 10
81.798669
 20
-225.438141
 30
400.0
 70
     8
  0
VERTEX
  5
359
  8
TEAM-BODY
 10
83.810831
 20
-227.578211
 30
400.0
 70
     8
  0
VERTEX
  5
35A
  8
TEAM-BODY
 10
85.791334
 20
-229.77413
 30
400.0
 70
     8
  0
VERTEX
  5
35B
  8
TEAM-BODY
 10
87.725972
 20
-232.010431
 30
400.0
 70
     8
  0
VERTEX
  5
35C
  8
TEAM-BODY
 10
89.600536
 20
-234.271651
 30
400.0
 70
     8
  0
VERTEX
  5
35D
  8
TEAM-BODY
 10
91.400822
 20
-236.542323
 30
400.0
 70
     8
  0
VERTEX
  5
35E
  8
TEAM-BODY
 10
93.112622
 20
-238.806983
 30
400.0
 70
     8
  0
VERTEX
  5
35F
  8
TEAM-BODY
 10
94.724847
 20
-241.051826
 30
400.0
 70
     8
  0
VERTEX
  5
360
  8
TEAM-BODY
 10
96.238881
 20
-243.269684
 30
400.0
 70
     8
  0
VERTEX
  5
361
  8
TEAM-BODY
 10
97.659225
 20
-245.45505
 30
400.0
 70
     8
  0
VERTEX
  5
362
  8
TEAM-BODY
 10
98.990379
 20
-247.602415
 30
400.0
 70
     8
  0
VERTEX
  5
363
  8
TEAM-BODY
 10
100.236847
 20
-249.706272
 30
400.0
 70
     8
  0
VERTEX
  5
364
  8
TEAM-BODY
 10
101.403127
 20
-251.761112
 30
400.0
 70
     8
  0
VERTEX
  5
365
  8
TEAM-BODY
 10
102.493722
 20
-253.761429
 30
400.0
 70
     8
  0
VERTEX
  5
366
  8
TEAM-BODY
 10
103.513133
 20
-255.701715
 30
400.0
 70
     8
  0
VERTEX
  5
367
  8
TEAM-BODY
 10
104.46686
 20
-257.580588
 30
400.0
 70
     8
  0
VERTEX
  5
368
  8
TEAM-BODY
 10
105.364398
 20
-259.413183
 30
400.0
 70
     8
  0
VERTEX
  5
369
  8
TEAM-BODY
 10
106.216241
 20
-261.218759
 30
400.0
 70
     8
  0
VERTEX
  5
36A
  8
TEAM-BODY
 10
107.032883
 20
-263.016577
 30
400.0
 70
     8
  0
VERTEX
  5
36B
  8
TEAM-BODY
 10
107.824819
 20
-264.825897
 30
400.0
 70
     8
  0
VERTEX
  5
36C
  8
TEAM-BODY
 10
108.602543
 20
-266.665979
 30
400.0
 70
     8
  0
VERTEX
  5
36D
  8
TEAM-BODY
 10
109.376549
 20
-268.556085
 30
400.0
 70
     8
  0
VERTEX
  5
36E
  8
TEAM-BODY
 10
110.157331
 20
-270.515473
 30
400.0
 70
     8
  0
VERTEX
  5
36F
  8
TEAM-BODY
 10
110.952732
 20
-272.558523
 30
400.0
 70
     8
  0
VERTEX
  5
370
  8
TEAM-BODY
 10
111.759987
 20
-274.680082
 30
400.0
 70
     8
  0
VERTEX
  5
371
  8
TEAM-BODY
 10
112.573682
 20
-276.870116
 30
400.0
 70
     8
  0
VERTEX
  5
372
  8
TEAM-BODY
 10
113.3884
 20
-279.118588
 30
400.0
 70
     8
  0
VERTEX
  5
373
  8
TEAM-BODY
 10
114.198726
 20
-281.415466
 30
400.0
 70
     8
  0
VERTEX
  5
374
  8
TEAM-BODY
 10
114.999244
 20
-283.750713
 30
400.0
 70
     8
  0
VERTEX
  5
375
  8
TEAM-BODY
 10
115.784538
 20
-286.114296
 30
400.0
 70
     8
  0
VERTEX
  5
376
  8
TEAM-BODY
 10
116.549193
 20
-288.496179
 30
400.0
 70
     8
  0
VERTEX
  5
377
  8
TEAM-BODY
 10
117.288685
 20
-290.887947
 30
400.0
 70
     8
  0
VERTEX
  5
378
  8
TEAM-BODY
 10
118.002055
 20
-293.287667
 30
400.0
 70
     8
  0
VERTEX
  5
379
  8
TEAM-BODY
 10
118.689236
 20
-295.695023
 30
400.0
 70
     8
  0
VERTEX
  5
37A
  8
TEAM-BODY
 10
119.350159
 20
-298.109702
 30
400.0
 70
     8
  0
VERTEX
  5
37B
  8
TEAM-BODY
 10
119.984759
 20
-300.531388
 30
400.0
 70
     8
  0
VERTEX
  5
37C
  8
TEAM-BODY
 10
120.592967
 20
-302.959768
 30
400.0
 70
     8
  0
VERTEX
  5
37D
  8
TEAM-BODY
 10
121.174716
 20
-305.394527
 30
400.0
 70
     8
  0
VERTEX
  5
37E
  8
TEAM-BODY
 10
121.729939
 20
-307.83535
 30
400.0
 70
     8
  0
VERTEX
  5
37F
  8
TEAM-BODY
 10
122.258568
 20
-310.28193
 30
400.0
 70
     8
  0
VERTEX
  5
380
  8
TEAM-BODY
 10
122.760537
 20
-312.733991
 30
400.0
 70
     8
  0
VERTEX
  5
381
  8
TEAM-BODY
 10
123.235777
 20
-315.191263
 30
400.0
 70
     8
  0
VERTEX
  5
382
  8
TEAM-BODY
 10
123.684221
 20
-317.653476
 30
400.0
 70
     8
  0
VERTEX
  5
383
  8
TEAM-BODY
 10
124.105802
 20
-320.120361
 30
400.0
 70
     8
  0
VERTEX
  5
384
  8
TEAM-BODY
 10
124.500452
 20
-322.591648
 30
400.0
 70
     8
  0
VERTEX
  5
385
  8
TEAM-BODY
 10
124.868104
 20
-325.067068
 30
400.0
 70
     8
  0
VERTEX
  5
386
  8
TEAM-BODY
 10
125.208691
 20
-327.546351
 30
400.0
 70
     8
  0
VERTEX
  5
387
  8
TEAM-BODY
 10
125.52201
 20
-330.032492
 30
400.0
 70
     8
  0
VERTEX
  5
388
  8
TEAM-BODY
 10
125.807321
 20
-332.541543
 30
400.0
 70
     8
  0
VERTEX
  5
389
  8
TEAM-BODY
 10
126.063746
 20
-335.092821
 30
400.0
 70
     8
  0
VERTEX
  5
38A
  8
TEAM-BODY
 10
126.290411
 20
-337.705641
 30
400.0
 70
     8
  0
VERTEX
  5
38B
  8
TEAM-BODY
 10
126.486439
 20
-340.399322
 30
400.0
 70
     8
  0
VERTEX
  5
38C
  8
TEAM-BODY
 10
126.650954
 20
-343.193177
 30
400.0
 70
     8
  0
VERTEX
  5
38D
  8
TEAM-BODY
 10
126.783081
 20
-346.106525
 30
400.0
 70
     8
  0
VERTEX
  5
38E
  8
TEAM-BODY
 10
126.881943
 20
-349.158682
 30
400.0
 70
     8
  0
VERTEX
  5
38F
  8
TEAM-BODY
 10
126.946811
 20
-352.359126
 30
400.0
 70
     8
  0
VERTEX
  5
390
  8
TEAM-BODY
 10
126.977538
 20
-355.677984
 30
400.0
 70
     8
  0
VERTEX
  5
391
  8
TEAM-BODY
 10
126.974124
 20
-359.075545
 30
400.0
 70
     8
  0
VERTEX
  5
392
  8
TEAM-BODY
 10
126.936569
 20
-362.512098
 30
400.0
 70
     8
  0
VERTEX
  5
393
  8
TEAM-BODY
 10
126.864874
 20
-365.947933
 30
400.0
 70
     8
  0
VERTEX
  5
394
  8
TEAM-BODY
 10
126.759038
 20
-369.343338
 30
400.0
 70
     8
  0
VERTEX
  5
395
  8
TEAM-BODY
 10
126.619062
 20
-372.658602
 30
400.0
 70
     8
  0
VERTEX
  5
396
  8
TEAM-BODY
 10
126.444944
 20
-375.854014
 30
400.0
 70
     8
  0
VERTEX
  5
397
  8
TEAM-BODY
 10
126.235855
 20
-378.902831
 30
400.0
 70
     8
  0
VERTEX
  5
398
  8
TEAM-BODY
 10
125.987639
 20
-381.83018
 30
400.0
 70
     8
  0
VERTEX
  5
399
  8
TEAM-BODY
 10
125.695309
 20
-384.674153
 30
400.0
 70
     8
  0
VERTEX
  5
39A
  8
TEAM-BODY
 10
125.353879
 20
-387.472846
 30
400.0
 70
     8
  0
VERTEX
  5
39B
  8
TEAM-BODY
 10
124.958364
 20
-390.26435
 30
400.0
 70
     8
  0
VERTEX
  5
39C
  8
TEAM-BODY
 10
124.503777
 20
-393.086762
 30
400.0
 70
     8
  0
VERTEX
  5
39D
  8
TEAM-BODY
 10
123.985131
 20
-395.978173
 30
400.0
 70
     8
  0
VERTEX
  5
39E
  8
TEAM-BODY
 10
123.39744
 20
-398.976678
 30
400.0
 70
     8
  0
VERTEX
  5
39F
  8
TEAM-BODY
 10
122.738256
 20
-402.107636
 30
400.0
 70
     8
  0
VERTEX
  5
3A0
  8
TEAM-BODY
 10
122.015284
 20
-405.345463
 30
400.0
 70
     8
  0
VERTEX
  5
3A1
  8
TEAM-BODY
 10
121.238765
 20
-408.651841
 30
400.0
 70
     8
  0
VERTEX
  5
3A2
  8
TEAM-BODY
 10
120.418941
 20
-411.988451
 30
400.0
 70
     8
  0
VERTEX
  5
3A3
  8
TEAM-BODY
 10
119.566055
 20
-415.316976
 30
400.0
 70
     8
  0
VERTEX
  5
3A4
  8
TEAM-BODY
 10
118.690348
 20
-418.599096
 30
400.0
 70
     8
  0
VERTEX
  5
3A5
  8
TEAM-BODY
 10
117.802064
 20
-421.796493
 30
400.0
 70
     8
  0
VERTEX
  5
3A6
  8
TEAM-BODY
 10
116.911443
 20
-424.87085
 30
400.0
 70
     8
  0
VERTEX
  5
3A7
  8
TEAM-BODY
 10
116.025599
 20
-427.794815
 30
400.0
 70
     8
  0
VERTEX
  5
3A8
  8
TEAM-BODY
 10
115.13912
 20
-430.584916
 30
400.0
 70
     8
  0
VERTEX
  5
3A9
  8
TEAM-BODY
 10
114.243467
 20
-433.268646
 30
400.0
 70
     8
  0
VERTEX
  5
3AA
  8
TEAM-BODY
 10
113.330099
 20
-435.873501
 30
400.0
 70
     8
  0
VERTEX
  5
3AB
  8
TEAM-BODY
 10
112.390475
 20
-438.426976
 30
400.0
 70
     8
  0
VERTEX
  5
3AC
  8
TEAM-BODY
 10
111.416057
 20
-440.956564
 30
400.0
 70
     8
  0
VERTEX
  5
3AD
  8
TEAM-BODY
 10
110.398302
 20
-443.48976
 30
400.0
 70
     8
  0
VERTEX
  5
3AE
  8
TEAM-BODY
 10
109.328671
 20
-446.05406
 30
400.0
 70
     8
  0
VERTEX
  5
3AF
  8
TEAM-BODY
 10
108.199942
 20
-448.670321
 30
400.0
 70
     8
  0
VERTEX
  5
3B0
  8
TEAM-BODY
 10
107.010166
 20
-451.332856
 30
400.0
 70
     8
  0
VERTEX
  5
3B1
  8
TEAM-BODY
 10
105.758715
 20
-454.029342
 30
400.0
 70
     8
  0
VERTEX
  5
3B2
  8
TEAM-BODY
 10
104.444958
 20
-456.747456
 30
400.0
 70
     8
  0
VERTEX
  5
3B3
  8
TEAM-BODY
 10
103.068266
 20
-459.474872
 30
400.0
 70
     8
  0
VERTEX
  5
3B4
  8
TEAM-BODY
 10
101.628009
 20
-462.199268
 30
400.0
 70
     8
  0
VERTEX
  5
3B5
  8
TEAM-BODY
 10
100.123557
 20
-464.908321
 30
400.0
 70
     8
  0
VERTEX
  5
3B6
  8
TEAM-BODY
 10
98.554281
 20
-467.589705
 30
400.0
 70
     8
  0
VERTEX
  5
3B7
  8
TEAM-BODY
 10
96.920604
 20
-470.232174
 30
400.0
 70
     8
  0
VERTEX
  5
3B8
  8
TEAM-BODY
 10
95.227164
 20
-472.828776
 30
400.0
 70
     8
  0
VERTEX
  5
3B9
  8
TEAM-BODY
 10
93.47965
 20
-475.373637
 30
400.0
 70
     8
  0
VERTEX
  5
3BA
  8
TEAM-BODY
 10
91.683754
 20
-477.860882
 30
400.0
 70
     8
  0
VERTEX
  5
3BB
  8
TEAM-BODY
 10
89.845166
 20
-480.284635
 30
400.0
 70
     8
  0
VERTEX
  5
3BC
  8
TEAM-BODY
 10
87.969576
 20
-482.639021
 30
400.0
 70
     8
  0
VERTEX
  5
3BD
  8
TEAM-BODY
 10
86.062675
 20
-484.918164
 30
400.0
 70
     8
  0
VERTEX
  5
3BE
  8
TEAM-BODY
 10
84.130152
 20
-487.116191
 30
400.0
 70
     8
  0
VERTEX
  5
3BF
  8
TEAM-BODY
 10
82.174521
 20
-489.229809
 30
400.0
 70
     8
  0
VERTEX
  5
3C0
  8
TEAM-BODY
 10
80.185574
 20
-491.266058
 30
400.0
 70
     8
  0
VERTEX
  5
3C1
  8
TEAM-BODY
 10
78.149926
 20
-493.234564
 30
400.0
 70
     8
  0
VERTEX
  5
3C2
  8
TEAM-BODY
 10
76.054194
 20
-495.144949
 30
400.0
 70
     8
  0
VERTEX
  5
3C3
  8
TEAM-BODY
 10
73.884991
 20
-497.006838
 30
400.0
 70
     8
  0
VERTEX
  5
3C4
  8
TEAM-BODY
 10
71.628933
 20
-498.829854
 30
400.0
 70
     8
  0
VERTEX
  5
3C5
  8
TEAM-BODY
 10
69.272634
 20
-500.623623
 30
400.0
 70
     8
  0
VERTEX
  5
3C6
  8
TEAM-BODY
 10
66.80271
 20
-502.397768
 30
400.0
 70
     8
  0
VERTEX
  5
3C7
  8
TEAM-BODY
 10
64.208223
 20
-504.159141
 30
400.0
 70
     8
  0
VERTEX
  5
3C8
  8
TEAM-BODY
 10
61.488016
 20
-505.903506
 30
400.0
 70
     8
  0
VERTEX
  5
3C9
  8
TEAM-BODY
 10
58.643383
 20
-507.623856
 30
400.0
 70
     8
  0
VERTEX
  5
3CA
  8
TEAM-BODY
 10
55.675615
 20
-509.313184
 30
400.0
 70
     8
  0
VERTEX
  5
3CB
  8
TEAM-BODY
 10
52.586004
 20
-510.964482
 30
400.0
 70
     8
  0
VERTEX
  5
3CC
  8
TEAM-BODY
 10
49.375841
 20
-512.570742
 30
400.0
 70
     8
  0
VERTEX
  5
3CD
  8
TEAM-BODY
 10
46.046418
 20
-514.124958
 30
400.0
 70
     8
  0
VERTEX
  5
3CE
  8
TEAM-BODY
 10
42.599027
 20
-515.620121
 30
400.0
 70
     8
  0
VERTEX
  5
3CF
  8
TEAM-BODY
 10
39.013616
 20
-517.049976
 30
400.0
 70
     8
  0
VERTEX
  5
3D0
  8
TEAM-BODY
 10
35.184757
 20
-518.411281
 30
400.0
 70
     8
  0
VERTEX
  5
3D1
  8
TEAM-BODY
 10
30.985679
 20
-519.701543
 30
400.0
 70
     8
  0
VERTEX
  5
3D2
  8
TEAM-BODY
 10
26.28961
 20
-520.91827
 30
400.0
 70
     8
  0
VERTEX
  5
3D3
  8
TEAM-BODY
 10
20.969779
 20
-522.058972
 30
400.0
 70
     8
  0
VERTEX
  5
3D4
  8
TEAM-BODY
 10
14.899415
 20
-523.121158
 30
400.0
 70
     8
  0
VERTEX
  5
3D5
  8
TEAM-BODY
 10
7.951746
 20
-524.102335
 30
400.0
 70
     8
  0
VERTEX
  5
3D6
  8
TEAM-BODY
 10
0.0
 20
-525.000012
 30
400.0
 70
     8
  0
VERTEX
  5
3D7
  8
TEAM-BODY
 10
19.964066
 20
-191.748077
 30
400.0
 70
    16
  0
VERTEX
  5
3D8
  8
TEAM-BODY
 10
39.330056
 20
-196.934601
 30
400.0
 70
    16
  0
VERTEX
  5
3D9
  8
TEAM-BODY
 10
61.73204
 20
-208.101089
 30
400.0
 70
    16
  0
VERTEX
  5
3DA
  8
TEAM-BODY
 10
77.619279
 20
-220.296813
 30
400.0
 70
    16
  0
VERTEX
  5
3DB
  8
TEAM-BODY
 10
94.208008
 20
-239.036071
 30
400.0
 70
    16
  0
VERTEX
  5
3DC
  8
TEAM-BODY
 10
104.224419
 20
-256.400802
 30
400.0
 70
    16
  0
VERTEX
  5
3DD
  8
TEAM-BODY
 10
109.973115
 20
-269.571006
 30
400.0
 70
    16
  0
VERTEX
  5
3DE
  8
TEAM-BODY
 10
116.827111
 20
-288.408012
 30
400.0
 70
    16
  0
VERTEX
  5
3DF
  8
TEAM-BODY
 10
122.013603
 20
-307.774017
 30
400.0
 70
    16
  0
VERTEX
  5
3E0
  8
TEAM-BODY
 10
125.498109
 20
-327.508018
 30
400.0
 70
    16
  0
VERTEX
  5
3E1
  8
TEAM-BODY
 10
127.24611
 20
-347.472015
 30
400.0
 70
    16
  0
VERTEX
  5
3E2
  8
TEAM-BODY
 10
126.809113
 20
-377.556015
 30
400.0
 70
    16
  0
VERTEX
  5
3E3
  8
TEAM-BODY
 10
124.187104
 20
-397.428009
 30
400.0
 70
    16
  0
VERTEX
  5
3E4
  8
TEAM-BODY
 10
116.827111
 20
-426.592018
 30
400.0
 70
    16
  0
VERTEX
  5
3E5
  8
TEAM-BODY
 10
109.973115
 20
-445.429016
 30
400.0
 70
    16
  0
VERTEX
  5
3E6
  8
TEAM-BODY
 10
99.252457
 20
-468.016277
 30
400.0
 70
    16
  0
VERTEX
  5
3E7
  8
TEAM-BODY
 10
84.342743
 20
-488.044109
 30
400.0
 70
    16
  0
VERTEX
  5
3E8
  8
TEAM-BODY
 10
68.157486
 20
-502.504435
 30
400.0
 70
    16
  0
VERTEX
  5
3E9
  8
TEAM-BODY
 10
43.843575
 20
-516.32476
 30
400.0
 70
    16
  0
VERTEX
  5
3EA
  8
TEAM-BODY
 10
22.656109
 20
-522.719753
 30
400.0
 70
    16
  0
VERTEX
  5
3EB
  8
TEAM-BODY
 10
0.0
 20
-525.000012
 30
400.0
 70
    16
  0
SEQEND
  5
3EC
  8
TEAM-BODY
  0
POLYLINE
  5
3ED
  8
TEAM-NET
 66
     1
 10
0.0
 20
0.0
 30
0.0
 70
    16
 71
     2
 72
    25
  0
VERTEX
  5
3EE
  8
TEAM-NET
 10
0.0
 20
0.0
 30
400.0
 70
    64
  0
VERTEX
  5
3EF
  8
TEAM-NET
 10
35.165494
 20
0.0
 30
400.0
 70
    64
  0
VERTEX
  5
3F0
  8
TEAM-NET
 10
70.330987
 20
0.0
 30
400.0
 70
    64
  0
VERTEX
  5
3F1
  8
TEAM-NET
 10
105.496481
 20
0.0
 30
400.0
 70
    64
  0
VERTEX
  5
3F2
  8
TEAM-NET
 10
140.661975
 20
0.0
 30
400.0
 70
    64
  0
VERTEX
  5
3F3
  8
TEAM-NET
 10
175.827468
 20
0.0
 30
400.0
 70
    64
  0
VERTEX
  5
3F4
  8
TEAM-NET
 10
176.410011
 20
-35.033831
 30
400.0
 70
    64
  0
VERTEX
  5
3F5
  8
TEAM-NET
 10
176.865497
 20
-70.196374
 30
400.0
 70
    64
  0
VERTEX
  5
3F6
  8
TEAM-NET
 10
177.320983
 20
-105.358918
 30
400.0
 70
    64
  0
VERTEX
  5
3F7
  8
TEAM-NET
 10
177.77647
 20
-140.521462
 30
400.0
 70
    64
  0
VERTEX
  5
3F8
  8
TEAM-NET
 10
178.231956
 20
-175.684005
 30
400.0
 70
    64
  0
VERTEX
  5
3F9
  8
TEAM-NET
 10
178.687442
 20
-210.846549
 30
400.0
 70
    64
  0
VERTEX
  5
3FA
  8
TEAM-NET
 10
179.142928
 20
-246.009093
 30
400.0
 70
    64
  0
VERTEX
  5
3FB
  8
TEAM-NET
 10
179.598415
 20
-281.171636
 30
400.0
 70
    64
  0
VERTEX
  5
3FC
  8
TEAM-NET
 10
180.053901
 20
-316.33418
 30
400.0
 70
    64
  0
VERTEX
  5
3FD
  8
TEAM-NET
 10
180.308584
 20
-351.495037
 30
400.0
 70
    64
  0
VERTEX
  5
3FE
  8
TEAM-NET
 10
178.150994
 20
-386.577313
 30
400.0
 70
    64
  0
VERTEX
  5
3FF
  8
TEAM-NET
 10
172.010426
 20
-421.173134
 30
400.0
 70
    64
  0
VERTEX
  5
400
  8
TEAM-NET
 10
160.950557
 20
-454.45941
 30
400.0
 70
    64
  0
VERTEX
  5
401
  8
TEAM-NET
 10
145.128606
 20
-485.831153
 30
400.0
 70
    64
  0
VERTEX
  5
402
  8
TEAM-NET
 10
124.456099
 20
-514.208583
 30
400.0
 70
    64
  0
VERTEX
  5
403
  8
TEAM-NET
 10
98.501866
 20
-537.83373
 30
400.0
 70
    64
  0
VERTEX
  5
404
  8
TEAM-NET
 10
68.305686
 20
-555.709397
 30
400.0
 70
    64
  0
VERTEX
  5
405
  8
TEAM-NET
 10
34.913272
 20
-566.475719
 30
400.0
 70
    64
  0
VERTEX
  5
406
  8
TEAM-NET
 10
0.0
 20
-569.926953
 30
400.0
 70
    64
  0
VERTEX
  5
407
  8
TEAM-NET
 10
0.0
 20
-190.000094
 30
400.0
 70
    64
  0
VERTEX
  5
408
  8
TEAM-NET
 10
19.34
 20
-192.448617
 30
400.0
 70
    64
  0
VERTEX
  5
409
  8
TEAM-NET
 10
38.153722
 20
-197.474926
 30
400.0
 70
    64
  0
VERTEX
  5
40A
  8
TEAM-NET
 10
55.895437
 20
-205.525102
 30
400.0
 70
    64
  0
VERTEX
  5
40B
  8
TEAM-NET
 10
72.070872
 20
-216.365049
 30
400.0
 70
    64
  0
VERTEX
  5
40C
  8
TEAM-NET
 10
85.985158
 20
-229.998176
 30
400.0
 70
    64
  0
VERTEX
  5
40D
  8
TEAM-NET
 10
97.717526
 20
-245.549099
 30
400.0
 70
    64
  0
VERTEX
  5
40E
  8
TEAM-NET
 10
106.903842
 20
-262.732495
 30
400.0
 70
    64
  0
VERTEX
  5
40F
  8
TEAM-NET
 10
114.011907
 20
-280.885928
 30
400.0
 70
    64
  0
VERTEX
  5
410
  8
TEAM-NET
 10
119.721349
 20
-299.526196
 30
400.0
 70
    64
  0
VERTEX
  5
411
  8
TEAM-NET
 10
123.842611
 20
-318.5803
 30
400.0
 70
    64
  0
VERTEX
  5
412
  8
TEAM-NET
 10
126.305857
 20
-337.917884
 30
400.0
 70
    64
  0
VERTEX
  5
413
  8
TEAM-NET
 10
126.975806
 20
-357.401812
 30
400.0
 70
    64
  0
VERTEX
  5
414
  8
TEAM-NET
 10
126.373909
 20
-376.889808
 30
400.0
 70
    64
  0
VERTEX
  5
415
  8
TEAM-NET
 10
123.936856
 20
-396.224478
 30
400.0
 70
    64
  0
VERTEX
  5
416
  8
TEAM-NET
 10
119.588206
 20
-415.230525
 30
400.0
 70
    64
  0
VERTEX
  5
417
  8
TEAM-NET
 10
114.01737
 20
-433.913456
 30
400.0
 70
    64
  0
VERTEX
  5
418
  8
TEAM-NET
 10
106.707924
 20
-451.984095
 30
400.0
 70
    64
  0
VERTEX
  5
419
  8
TEAM-NET
 10
97.56328
 20
-469.192648
 30
400.0
 70
    64
  0
VERTEX
  5
41A
  8
TEAM-NET
 10
86.062912
 20
-484.917881
 30
400.0
 70
    64
  0
VERTEX
  5
41B
  8
TEAM-NET
 10
72.079429
 20
-498.465829
 30
400.0
 70
    64
  0
VERTEX
  5
41C
  8
TEAM-NET
 10
55.838597
 20
-509.220411
 30
400.0
 70
    64
  0
VERTEX
  5
41D
  8
TEAM-NET
 10
38.138869
 20
-517.360982
 30
400.0
 70
    64
  0
VERTEX
  5
41E
  8
TEAM-NET
 10
19.3142
 20
-522.348664
 30
400.0
 70
    64
  0
VERTEX
  5
41F
  8
TEAM-NET
 10
0.0
 20
-525.000012
 30
400.0
 70
    64
  0
SEQEND
  5
420
  8
TEAM-NET
  0
POLYLINE
  5
421
  8
TEAM-BODY
 66
     1
 10
0.0
 20
0.0
 30
400.0
  0
VERTEX
  5
72A
  8
TEAM-BODY
 10
0.0
 20
-569.926953
 30
400.0
  0
VERTEX
  5
72B
  8
TEAM-BODY
 10
2.030033
 20
-569.997879
 30
400.0
  0
VERTEX
  5
72C
  8
TEAM-BODY
 10
15.363869
 20
-569.448024
 30
400.0
  0
VERTEX
  5
72D
  8
TEAM-BODY
 10
28.623268
 20
-567.796749
 30
400.0
  0
VERTEX
  5
72E
  8
TEAM-BODY
 10
41.742348
 20
-565.041473
 30
400.0
  0
VERTEX
  5
72F
  8
TEAM-BODY
 10
54.655213
 20
-561.179622
 30
400.0
  0
VERTEX
  5
730
  8
TEAM-BODY
 10
67.295967
 20
-556.208622
 30
400.0
  0
VERTEX
  5
731
  8
TEAM-BODY
 10
79.598725
 20
-550.125894
 30
400.0
  0
VERTEX
  5
732
  8
TEAM-BODY
 10
91.497605
 20
-542.928865
 30
400.0
  0
VERTEX
  5
733
  8
TEAM-BODY
 10
102.926697
 20
-534.614959
 30
400.0
  0
VERTEX
  5
734
  8
TEAM-BODY
 10
113.820114
 20
-525.1816
 30
400.0
  0
VERTEX
  5
735
  8
TEAM-BODY
 10
124.111969
 20
-514.626213
 30
400.0
  0
VERTEX
  5
736
  8
TEAM-BODY
 10
133.736374
 20
-502.946222
 30
400.0
  0
VERTEX
  5
737
  8
TEAM-BODY
 10
142.627426
 20
-490.139049
 30
400.0
  0
VERTEX
  5
738
  8
TEAM-BODY
 10
150.719254
 20
-476.202125
 30
400.0
  0
VERTEX
  5
739
  8
TEAM-BODY
 10
157.945938
 20
-461.132866
 30
400.0
  0
VERTEX
  5
73A
  8
TEAM-BODY
 10
165.241608
 20
-444.928703
 30
400.0
  0
VERTEX
  5
73B
  8
TEAM-BODY
 10
170.540375
 20
-427.587059
 30
400.0
  0
VERTEX
  5
73C
  8
TEAM-BODY
 10
174.776322
 20
-409.105354
 30
400.0
  0
VERTEX
  5
73D
  8
TEAM-BODY
 10
177.883591
 20
-389.481018
 30
400.0
  0
VERTEX
  5
73E
  8
TEAM-BODY
 10
179.796265
 20
-368.711471
 30
400.0
  0
VERTEX
  5
73F
  8
TEAM-BODY
 10
180.448471
 20
-346.794143
 30
400.0
  0
VERTEX
  5
740
  8
TEAM-BODY
 10
175.956192
 20
0.0
 30
400.0
  0
VERTEX
  5
741
  8
TEAM-BODY
 10
0.0
 20
0.0
 30
400.0
  0
VERTEX
  5
742
  8
TEAM-BODY
 10
0.0
 20
0.0
 30
400.0
  0
SEQEND
  5
743
  8
TEAM-BODY
  0
LINE
  5
422
  8
TEAM-DET1
 10
-177.459624
 20
0.0
 30
400.0
 11
177.120056
 21
0.0
 31
400.0
  0
POLYLINE
  5
423
  8
TEAM-BODY
 66
     1
 10
0.0
 20
0.0
 30
400.0
  0
VERTEX
  5
744
  8
TEAM-BODY
 10
0.0
 20
-569.926953
 30
400.0
  0
VERTEX
  5
745
  8
TEAM-BODY
 10
-2.030033
 20
-569.997879
 30
400.0
  0
VERTEX
  5
746
  8
TEAM-BODY
 10
-15.363869
 20
-569.448024
 30
400.0
  0
VERTEX
  5
747
  8
TEAM-BODY
 10
-28.623268
 20
-567.796749
 30
400.0
  0
VERTEX
  5
748
  8
TEAM-BODY
 10
-41.742348
 20
-565.041473
 30
400.0
  0
VERTEX
  5
749
  8
TEAM-BODY
 10
-54.655213
 20
-561.179622
 30
400.0
  0
VERTEX
  5
74A
  8
TEAM-BODY
 10
-67.295967
 20
-556.208622
 30
400.0
  0
VERTEX
  5
74B
  8
TEAM-BODY
 10
-79.598725
 20
-550.125894
 30
400.0
  0
VERTEX
  5
74C
  8
TEAM-BODY
 10
-91.497605
 20
-542.928865
 30
400.0
  0
VERTEX
  5
74D
  8
TEAM-BODY
 10
-102.926697
 20
-534.614959
 30
400.0
  0
VERTEX
  5
74E
  8
TEAM-BODY
 10
-113.820114
 20
-525.1816
 30
400.0
  0
VERTEX
  5
74F
  8
TEAM-BODY
 10
-124.111969
 20
-514.626213
 30
400.0
  0
VERTEX
  5
750
  8
TEAM-BODY
 10
-133.736374
 20
-502.946222
 30
400.0
  0
VERTEX
  5
751
  8
TEAM-BODY
 10
-142.627426
 20
-490.139049
 30
400.0
  0
VERTEX
  5
752
  8
TEAM-BODY
 10
-150.719254
 20
-476.202125
 30
400.0
  0
VERTEX
  5
753
  8
TEAM-BODY
 10
-157.945938
 20
-461.132866
 30
400.0
  0
VERTEX
  5
754
  8
TEAM-BODY
 10
-165.241608
 20
-444.928703
 30
400.0
  0
VERTEX
  5
755
  8
TEAM-BODY
 10
-170.540375
 20
-427.587059
 30
400.0
  0
VERTEX
  5
756
  8
TEAM-BODY
 10
-174.776322
 20
-409.105354
 30
400.0
  0
VERTEX
  5
757
  8
TEAM-BODY
 10
-177.883591
 20
-389.481018
 30
400.0
  0
VERTEX
  5
758
  8
TEAM-BODY
 10
-179.796265
 20
-368.711471
 30
400.0
  0
VERTEX
  5
759
  8
TEAM-BODY
 10
-180.448471
 20
-346.794143
 30
400.0
  0
VERTEX
  5
75A
  8
TEAM-BODY
 10
-175.956192
 20
0.0
 30
400.0
  0
VERTEX
  5
75B
  8
TEAM-BODY
 10
0.0
 20
0.0
 30
400.0
  0
VERTEX
  5
75C
  8
TEAM-BODY
 10
0.0
 20
0.0
 30
400.0
  0
SEQEND
  5
75D
  8
TEAM-BODY
  0
POLYLINE
  5
424
  8
TEAM-NET
 66
     1
 10
0.0
 20
0.0
 30
0.0
 70
    16
 71
     2
 72
    25
  0
VERTEX
  5
425
  8
TEAM-NET
 10
0.0
 20
0.0
 30
400.0
 70
    64
  0
VERTEX
  5
426
  8
TEAM-NET
 10
-35.165494
 20
0.0
 30
400.0
 70
    64
  0
VERTEX
  5
427
  8
TEAM-NET
 10
-70.330987
 20
0.0
 30
400.0
 70
    64
  0
VERTEX
  5
428
  8
TEAM-NET
 10
-105.496481
 20
0.0
 30
400.0
 70
    64
  0
VERTEX
  5
429
  8
TEAM-NET
 10
-140.661975
 20
0.0
 30
400.0
 70
    64
  0
VERTEX
  5
42A
  8
TEAM-NET
 10
-175.827468
 20
0.0
 30
400.0
 70
    64
  0
VERTEX
  5
42B
  8
TEAM-NET
 10
-176.410011
 20
-35.033831
 30
400.0
 70
    64
  0
VERTEX
  5
42C
  8
TEAM-NET
 10
-176.865497
 20
-70.196374
 30
400.0
 70
    64
  0
VERTEX
  5
42D
  8
TEAM-NET
 10
-177.320983
 20
-105.358918
 30
400.0
 70
    64
  0
VERTEX
  5
42E
  8
TEAM-NET
 10
-177.77647
 20
-140.521462
 30
400.0
 70
    64
  0
VERTEX
  5
42F
  8
TEAM-NET
 10
-178.231956
 20
-175.684005
 30
400.0
 70
    64
  0
VERTEX
  5
430
  8
TEAM-NET
 10
-178.687442
 20
-210.846549
 30
400.0
 70
    64
  0
VERTEX
  5
431
  8
TEAM-NET
 10
-179.142928
 20
-246.009093
 30
400.0
 70
    64
  0
VERTEX
  5
432
  8
TEAM-NET
 10
-179.598415
 20
-281.171636
 30
400.0
 70
    64
  0
VERTEX
  5
433
  8
TEAM-NET
 10
-180.053901
 20
-316.33418
 30
400.0
 70
    64
  0
VERTEX
  5
434
  8
TEAM-NET
 10
-180.308584
 20
-351.495037
 30
400.0
 70
    64
  0
VERTEX
  5
435
  8
TEAM-NET
 10
-178.150994
 20
-386.577313
 30
400.0
 70
    64
  0
VERTEX
  5
436
  8
TEAM-NET
 10
-172.010426
 20
-421.173134
 30
400.0
 70
    64
  0
VERTEX
  5
437
  8
TEAM-NET
 10
-160.950557
 20
-454.45941
 30
400.0
 70
    64
  0
VERTEX
  5
438
  8
TEAM-NET
 10
-145.128606
 20
-485.831153
 30
400.0
 70
    64
  0
VERTEX
  5
439
  8
TEAM-NET
 10
-124.456099
 20
-514.208583
 30
400.0
 70
    64
  0
VERTEX
  5
43A
  8
TEAM-NET
 10
-98.501866
 20
-537.83373
 30
400.0
 70
    64
  0
VERTEX
  5
43B
  8
TEAM-NET
 10
-68.305686
 20
-555.709397
 30
400.0
 70
    64
  0
VERTEX
  5
43C
  8
TEAM-NET
 10
-34.913272
 20
-566.475719
 30
400.0
 70
    64
  0
VERTEX
  5
43D
  8
TEAM-NET
 10
0.0
 20
-569.926953
 30
400.0
 70
    64
  0
VERTEX
  5
43E
  8
TEAM-NET
 10
0.0
 20
-190.000094
 30
400.0
 70
    64
  0
VERTEX
  5
43F
  8
TEAM-NET
 10
-19.34
 20
-192.448617
 30
400.0
 70
    64
  0
VERTEX
  5
440
  8
TEAM-NET
 10
-38.153722
 20
-197.474926
 30
400.0
 70
    64
  0
VERTEX
  5
441
  8
TEAM-NET
 10
-55.895437
 20
-205.525102
 30
400.0
 70
    64
  0
VERTEX
  5
442
  8
TEAM-NET
 10
-72.070872
 20
-216.365049
 30
400.0
 70
    64
  0
VERTEX
  5
443
  8
TEAM-NET
 10
-85.985158
 20
-229.998176
 30
400.0
 70
    64
  0
VERTEX
  5
444
  8
TEAM-NET
 10
-97.717526
 20
-245.549099
 30
400.0
 70
    64
  0
VERTEX
  5
445
  8
TEAM-NET
 10
-106.903842
 20
-262.732495
 30
400.0
 70
    64
  0
VERTEX
  5
446
  8
TEAM-NET
 10
-114.011907
 20
-280.885928
 30
400.0
 70
    64
  0
VERTEX
  5
447
  8
TEAM-NET
 10
-119.721349
 20
-299.526196
 30
400.0
 70
    64
  0
VERTEX
  5
448
  8
TEAM-NET
 10
-123.842611
 20
-318.5803
 30
400.0
 70
    64
  0
VERTEX
  5
449
  8
TEAM-NET
 10
-126.305857
 20
-337.917884
 30
400.0
 70
    64
  0
VERTEX
  5
44A
  8
TEAM-NET
 10
-126.975806
 20
-357.401812
 30
400.0
 70
    64
  0
VERTEX
  5
44B
  8
TEAM-NET
 10
-126.373909
 20
-376.889808
 30
400.0
 70
    64
  0
VERTEX
  5
44C
  8
TEAM-NET
 10
-123.936856
 20
-396.224478
 30
400.0
 70
    64
  0
VERTEX
  5
44D
  8
TEAM-NET
 10
-119.588206
 20
-415.230525
 30
400.0
 70
    64
  0
VERTEX
  5
44E
  8
TEAM-NET
 10
-114.01737
 20
-433.913456
 30
400.0
 70
    64
  0
VERTEX
  5
44F
  8
TEAM-NET
 10
-106.707924
 20
-451.984095
 30
400.0
 70
    64
  0
VERTEX
  5
450
  8
TEAM-NET
 10
-97.56328
 20
-469.192648
 30
400.0
 70
    64
  0
VERTEX
  5
451
  8
TEAM-NET
 10
-86.062912
 20
-484.917881
 30
400.0
 70
    64
  0
VERTEX
  5
452
  8
TEAM-NET
 10
-72.079429
 20
-498.465829
 30
400.0
 70
    64
  0
VERTEX
  5
453
  8
TEAM-NET
 10
-55.838597
 20
-509.220411
 30
400.0
 70
    64
  0
VERTEX
  5
454
  8
TEAM-NET
 10
-38.138869
 20
-517.360982
 30
400.0
 70
    64
  0
VERTEX
  5
455
  8
TEAM-NET
 10
-19.3142
 20
-522.348664
 30
400.0
 70
    64
  0
VERTEX
  5
456
  8
TEAM-NET
 10
0.0
 20
-525.000012
 30
400.0
 70
    64
  0
SEQEND
  5
457
  8
TEAM-NET
  0
POLYLINE
  5
458
  8
TEAM-BODY
 66
     1
 10
0.0
 20
0.0
 30
400.0
 70
     4
 75
     6
  0
VERTEX
  5
459
  8
TEAM-BODY
 10
0.0
 20
-190.000094
 30
400.0
 70
    16
  0
VERTEX
  5
45A
  8
TEAM-BODY
 10
0.0
 20
-190.000094
 30
400.0
 70
     8
  0
VERTEX
  5
45B
  8
TEAM-BODY
 10
-7.022516
 20
-190.694662
 30
400.0
 70
     8
  0
VERTEX
  5
45C
  8
TEAM-BODY
 10
-13.188681
 20
-191.465183
 30
400.0
 70
     8
  0
VERTEX
  5
45D
  8
TEAM-BODY
 10
-18.605992
 20
-192.308368
 30
400.0
 70
     8
  0
VERTEX
  5
45E
  8
TEAM-BODY
 10
-23.38195
 20
-193.220924
 30
400.0
 70
     8
  0
VERTEX
  5
45F
  8
TEAM-BODY
 10
-27.624054
 20
-194.199562
 30
400.0
 70
     8
  0
VERTEX
  5
460
  8
TEAM-BODY
 10
-31.439801
 20
-195.240989
 30
400.0
 70
     8
  0
VERTEX
  5
461
  8
TEAM-BODY
 10
-34.936691
 20
-196.341916
 30
400.0
 70
     8
  0
VERTEX
  5
462
  8
TEAM-BODY
 10
-38.222223
 20
-197.499051
 30
400.0
 70
     8
  0
VERTEX
  5
463
  8
TEAM-BODY
 10
-41.386022
 20
-198.708885
 30
400.0
 70
     8
  0
VERTEX
  5
464
  8
TEAM-BODY
 10
-44.446219
 20
-199.967031
 30
400.0
 70
     8
  0
VERTEX
  5
465
  8
TEAM-BODY
 10
-47.403075
 20
-201.268885
 30
400.0
 70
     8
  0
VERTEX
  5
466
  8
TEAM-BODY
 10
-50.256845
 20
-202.609844
 30
400.0
 70
     8
  0
VERTEX
  5
467
  8
TEAM-BODY
 10
-53.00779
 20
-203.985302
 30
400.0
 70
     8
  0
VERTEX
  5
468
  8
TEAM-BODY
 10
-55.656166
 20
-205.390655
 30
400.0
 70
     8
  0
VERTEX
  5
469
  8
TEAM-BODY
 10
-58.202234
 20
-206.821298
 30
400.0
 70
     8
  0
VERTEX
  5
46A
  8
TEAM-BODY
 10
-60.646249
 20
-208.272628
 30
400.0
 70
     8
  0
VERTEX
  5
46B
  8
TEAM-BODY
 10
-62.990778
 20
-209.742603
 30
400.0
 70
     8
  0
VERTEX
  5
46C
  8
TEAM-BODY
 10
-65.247609
 20
-211.239429
 30
400.0
 70
     8
  0
VERTEX
  5
46D
  8
TEAM-BODY
 10
-67.430834
 20
-212.773877
 30
400.0
 70
     8
  0
VERTEX
  5
46E
  8
TEAM-BODY
 10
-69.55455
 20
-214.356717
 30
400.0
 70
     8
  0
VERTEX
  5
46F
  8
TEAM-BODY
 10
-71.632849
 20
-215.99872
 30
400.0
 70
     8
  0
VERTEX
  5
470
  8
TEAM-BODY
 10
-73.679827
 20
-217.710655
 30
400.0
 70
     8
  0
VERTEX
  5
471
  8
TEAM-BODY
 10
-75.709577
 20
-219.503292
 30
400.0
 70
     8
  0
VERTEX
  5
472
  8
TEAM-BODY
 10
-77.736194
 20
-221.387402
 30
400.0
 70
     8
  0
VERTEX
  5
473
  8
TEAM-BODY
 10
-79.769054
 20
-223.369383
 30
400.0
 70
     8
  0
VERTEX
  5
474
  8
TEAM-BODY
 10
-81.798669
 20
-225.438141
 30
400.0
 70
     8
  0
VERTEX
  5
475
  8
TEAM-BODY
 10
-83.810831
 20
-227.578211
 30
400.0
 70
     8
  0
VERTEX
  5
476
  8
TEAM-BODY
 10
-85.791334
 20
-229.77413
 30
400.0
 70
     8
  0
VERTEX
  5
477
  8
TEAM-BODY
 10
-87.725972
 20
-232.010431
 30
400.0
 70
     8
  0
VERTEX
  5
478
  8
TEAM-BODY
 10
-89.600536
 20
-234.271651
 30
400.0
 70
     8
  0
VERTEX
  5
479
  8
TEAM-BODY
 10
-91.400822
 20
-236.542323
 30
400.0
 70
     8
  0
VERTEX
  5
47A
  8
TEAM-BODY
 10
-93.112622
 20
-238.806983
 30
400.0
 70
     8
  0
VERTEX
  5
47B
  8
TEAM-BODY
 10
-94.724847
 20
-241.051826
 30
400.0
 70
     8
  0
VERTEX
  5
47C
  8
TEAM-BODY
 10
-96.238881
 20
-243.269684
 30
400.0
 70
     8
  0
VERTEX
  5
47D
  8
TEAM-BODY
 10
-97.659225
 20
-245.45505
 30
400.0
 70
     8
  0
VERTEX
  5
47E
  8
TEAM-BODY
 10
-98.990379
 20
-247.602415
 30
400.0
 70
     8
  0
VERTEX
  5
47F
  8
TEAM-BODY
 10
-100.236847
 20
-249.706272
 30
400.0
 70
     8
  0
VERTEX
  5
480
  8
TEAM-BODY
 10
-101.403127
 20
-251.761112
 30
400.0
 70
     8
  0
VERTEX
  5
481
  8
TEAM-BODY
 10
-102.493722
 20
-253.761429
 30
400.0
 70
     8
  0
VERTEX
  5
482
  8
TEAM-BODY
 10
-103.513133
 20
-255.701715
 30
400.0
 70
     8
  0
VERTEX
  5
483
  8
TEAM-BODY
 10
-104.46686
 20
-257.580588
 30
400.0
 70
     8
  0
VERTEX
  5
484
  8
TEAM-BODY
 10
-105.364398
 20
-259.413183
 30
400.0
 70
     8
  0
VERTEX
  5
485
  8
TEAM-BODY
 10
-106.216241
 20
-261.218759
 30
400.0
 70
     8
  0
VERTEX
  5
486
  8
TEAM-BODY
 10
-107.032883
 20
-263.016577
 30
400.0
 70
     8
  0
VERTEX
  5
487
  8
TEAM-BODY
 10
-107.824819
 20
-264.825897
 30
400.0
 70
     8
  0
VERTEX
  5
488
  8
TEAM-BODY
 10
-108.602543
 20
-266.665979
 30
400.0
 70
     8
  0
VERTEX
  5
489
  8
TEAM-BODY
 10
-109.376549
 20
-268.556085
 30
400.0
 70
     8
  0
VERTEX
  5
48A
  8
TEAM-BODY
 10
-110.157331
 20
-270.515473
 30
400.0
 70
     8
  0
VERTEX
  5
48B
  8
TEAM-BODY
 10
-110.952732
 20
-272.558523
 30
400.0
 70
     8
  0
VERTEX
  5
48C
  8
TEAM-BODY
 10
-111.759987
 20
-274.680082
 30
400.0
 70
     8
  0
VERTEX
  5
48D
  8
TEAM-BODY
 10
-112.573682
 20
-276.870116
 30
400.0
 70
     8
  0
VERTEX
  5
48E
  8
TEAM-BODY
 10
-113.3884
 20
-279.118588
 30
400.0
 70
     8
  0
VERTEX
  5
48F
  8
TEAM-BODY
 10
-114.198726
 20
-281.415466
 30
400.0
 70
     8
  0
VERTEX
  5
490
  8
TEAM-BODY
 10
-114.999244
 20
-283.750713
 30
400.0
 70
     8
  0
VERTEX
  5
491
  8
TEAM-BODY
 10
-115.784538
 20
-286.114296
 30
400.0
 70
     8
  0
VERTEX
  5
492
  8
TEAM-BODY
 10
-116.549193
 20
-288.496179
 30
400.0
 70
     8
  0
VERTEX
  5
493
  8
TEAM-BODY
 10
-117.288685
 20
-290.887947
 30
400.0
 70
     8
  0
VERTEX
  5
494
  8
TEAM-BODY
 10
-118.002055
 20
-293.287667
 30
400.0
 70
     8
  0
VERTEX
  5
495
  8
TEAM-BODY
 10
-118.689236
 20
-295.695023
 30
400.0
 70
     8
  0
VERTEX
  5
496
  8
TEAM-BODY
 10
-119.350159
 20
-298.109702
 30
400.0
 70
     8
  0
VERTEX
  5
497
  8
TEAM-BODY
 10
-119.984759
 20
-300.531388
 30
400.0
 70
     8
  0
VERTEX
  5
498
  8
TEAM-BODY
 10
-120.592967
 20
-302.959768
 30
400.0
 70
     8
  0
VERTEX
  5
499
  8
TEAM-BODY
 10
-121.174716
 20
-305.394527
 30
400.0
 70
     8
  0
VERTEX
  5
49A
  8
TEAM-BODY
 10
-121.729939
 20
-307.83535
 30
400.0
 70
     8
  0
VERTEX
  5
49B
  8
TEAM-BODY
 10
-122.258568
 20
-310.28193
 30
400.0
 70
     8
  0
VERTEX
  5
49C
  8
TEAM-BODY
 10
-122.760537
 20
-312.733991
 30
400.0
 70
     8
  0
VERTEX
  5
49D
  8
TEAM-BODY
 10
-123.235777
 20
-315.191263
 30
400.0
 70
     8
  0
VERTEX
  5
49E
  8
TEAM-BODY
 10
-123.684221
 20
-317.653476
 30
400.0
 70
     8
  0
VERTEX
  5
49F
  8
TEAM-BODY
 10
-124.105802
 20
-320.120361
 30
400.0
 70
     8
  0
VERTEX
  5
4A0
  8
TEAM-BODY
 10
-124.500452
 20
-322.591648
 30
400.0
 70
     8
  0
VERTEX
  5
4A1
  8
TEAM-BODY
 10
-124.868104
 20
-325.067068
 30
400.0
 70
     8
  0
VERTEX
  5
4A2
  8
TEAM-BODY
 10
-125.208691
 20
-327.546351
 30
400.0
 70
     8
  0
VERTEX
  5
4A3
  8
TEAM-BODY
 10
-125.52201
 20
-330.032492
 30
400.0
 70
     8
  0
VERTEX
  5
4A4
  8
TEAM-BODY
 10
-125.807321
 20
-332.541543
 30
400.0
 70
     8
  0
VERTEX
  5
4A5
  8
TEAM-BODY
 10
-126.063746
 20
-335.092821
 30
400.0
 70
     8
  0
VERTEX
  5
4A6
  8
TEAM-BODY
 10
-126.290411
 20
-337.705641
 30
400.0
 70
     8
  0
VERTEX
  5
4A7
  8
TEAM-BODY
 10
-126.486439
 20
-340.399322
 30
400.0
 70
     8
  0
VERTEX
  5
4A8
  8
TEAM-BODY
 10
-126.650954
 20
-343.193177
 30
400.0
 70
     8
  0
VERTEX
  5
4A9
  8
TEAM-BODY
 10
-126.783081
 20
-346.106525
 30
400.0
 70
     8
  0
VERTEX
  5
4AA
  8
TEAM-BODY
 10
-126.881943
 20
-349.158682
 30
400.0
 70
     8
  0
VERTEX
  5
4AB
  8
TEAM-BODY
 10
-126.946811
 20
-352.359126
 30
400.0
 70
     8
  0
VERTEX
  5
4AC
  8
TEAM-BODY
 10
-126.977538
 20
-355.677984
 30
400.0
 70
     8
  0
VERTEX
  5
4AD
  8
TEAM-BODY
 10
-126.974124
 20
-359.075545
 30
400.0
 70
     8
  0
VERTEX
  5
4AE
  8
TEAM-BODY
 10
-126.936569
 20
-362.512098
 30
400.0
 70
     8
  0
VERTEX
  5
4AF
  8
TEAM-BODY
 10
-126.864874
 20
-365.947933
 30
400.0
 70
     8
  0
VERTEX
  5
4B0
  8
TEAM-BODY
 10
-126.759038
 20
-369.343338
 30
400.0
 70
     8
  0
VERTEX
  5
4B1
  8
TEAM-BODY
 10
-126.619062
 20
-372.658602
 30
400.0
 70
     8
  0
VERTEX
  5
4B2
  8
TEAM-BODY
 10
-126.444944
 20
-375.854014
 30
400.0
 70
     8
  0
VERTEX
  5
4B3
  8
TEAM-BODY
 10
-126.235855
 20
-378.902831
 30
400.0
 70
     8
  0
VERTEX
  5
4B4
  8
TEAM-BODY
 10
-125.987639
 20
-381.83018
 30
400.0
 70
     8
  0
VERTEX
  5
4B5
  8
TEAM-BODY
 10
-125.695309
 20
-384.674153
 30
400.0
 70
     8
  0
VERTEX
  5
4B6
  8
TEAM-BODY
 10
-125.353879
 20
-387.472846
 30
400.0
 70
     8
  0
VERTEX
  5
4B7
  8
TEAM-BODY
 10
-124.958364
 20
-390.26435
 30
400.0
 70
     8
  0
VERTEX
  5
4B8
  8
TEAM-BODY
 10
-124.503777
 20
-393.086762
 30
400.0
 70
     8
  0
VERTEX
  5
4B9
  8
TEAM-BODY
 10
-123.985131
 20
-395.978173
 30
400.0
 70
     8
  0
VERTEX
  5
4BA
  8
TEAM-BODY
 10
-123.39744
 20
-398.976678
 30
400.0
 70
     8
  0
VERTEX
  5
4BB
  8
TEAM-BODY
 10
-122.738256
 20
-402.107636
 30
400.0
 70
     8
  0
VERTEX
  5
4BC
  8
TEAM-BODY
 10
-122.015284
 20
-405.345463
 30
400.0
 70
     8
  0
VERTEX
  5
4BD
  8
TEAM-BODY
 10
-121.238765
 20
-408.651841
 30
400.0
 70
     8
  0
VERTEX
  5
4BE
  8
TEAM-BODY
 10
-120.418941
 20
-411.988451
 30
400.0
 70
     8
  0
VERTEX
  5
4BF
  8
TEAM-BODY
 10
-119.566055
 20
-415.316976
 30
400.0
 70
     8
  0
VERTEX
  5
4C0
  8
TEAM-BODY
 10
-118.690348
 20
-418.599096
 30
400.0
 70
     8
  0
VERTEX
  5
4C1
  8
TEAM-BODY
 10
-117.802064
 20
-421.796493
 30
400.0
 70
     8
  0
VERTEX
  5
4C2
  8
TEAM-BODY
 10
-116.911443
 20
-424.87085
 30
400.0
 70
     8
  0
VERTEX
  5
4C3
  8
TEAM-BODY
 10
-116.025599
 20
-427.794815
 30
400.0
 70
     8
  0
VERTEX
  5
4C4
  8
TEAM-BODY
 10
-115.13912
 20
-430.584916
 30
400.0
 70
     8
  0
VERTEX
  5
4C5
  8
TEAM-BODY
 10
-114.243467
 20
-433.268646
 30
400.0
 70
     8
  0
VERTEX
  5
4C6
  8
TEAM-BODY
 10
-113.330099
 20
-435.873501
 30
400.0
 70
     8
  0
VERTEX
  5
4C7
  8
TEAM-BODY
 10
-112.390475
 20
-438.426976
 30
400.0
 70
     8
  0
VERTEX
  5
4C8
  8
TEAM-BODY
 10
-111.416057
 20
-440.956564
 30
400.0
 70
     8
  0
VERTEX
  5
4C9
  8
TEAM-BODY
 10
-110.398302
 20
-443.48976
 30
400.0
 70
     8
  0
VERTEX
  5
4CA
  8
TEAM-BODY
 10
-109.328671
 20
-446.05406
 30
400.0
 70
     8
  0
VERTEX
  5
4CB
  8
TEAM-BODY
 10
-108.199942
 20
-448.670321
 30
400.0
 70
     8
  0
VERTEX
  5
4CC
  8
TEAM-BODY
 10
-107.010166
 20
-451.332856
 30
400.0
 70
     8
  0
VERTEX
  5
4CD
  8
TEAM-BODY
 10
-105.758715
 20
-454.029342
 30
400.0
 70
     8
  0
VERTEX
  5
4CE
  8
TEAM-BODY
 10
-104.444958
 20
-456.747456
 30
400.0
 70
     8
  0
VERTEX
  5
4CF
  8
TEAM-BODY
 10
-103.068266
 20
-459.474872
 30
400.0
 70
     8
  0
VERTEX
  5
4D0
  8
TEAM-BODY
 10
-101.628009
 20
-462.199268
 30
400.0
 70
     8
  0
VERTEX
  5
4D1
  8
TEAM-BODY
 10
-100.123557
 20
-464.908321
 30
400.0
 70
     8
  0
VERTEX
  5
4D2
  8
TEAM-BODY
 10
-98.554281
 20
-467.589705
 30
400.0
 70
     8
  0
VERTEX
  5
4D3
  8
TEAM-BODY
 10
-96.920604
 20
-470.232174
 30
400.0
 70
     8
  0
VERTEX
  5
4D4
  8
TEAM-BODY
 10
-95.227164
 20
-472.828776
 30
400.0
 70
     8
  0
VERTEX
  5
4D5
  8
TEAM-BODY
 10
-93.47965
 20
-475.373637
 30
400.0
 70
     8
  0
VERTEX
  5
4D6
  8
TEAM-BODY
 10
-91.683754
 20
-477.860882
 30
400.0
 70
     8
  0
VERTEX
  5
4D7
  8
TEAM-BODY
 10
-89.845166
 20
-480.284635
 30
400.0
 70
     8
  0
VERTEX
  5
4D8
  8
TEAM-BODY
 10
-87.969576
 20
-482.639021
 30
400.0
 70
     8
  0
VERTEX
  5
4D9
  8
TEAM-BODY
 10
-86.062675
 20
-484.918164
 30
400.0
 70
     8
  0
VERTEX
  5
4DA
  8
TEAM-BODY
 10
-84.130152
 20
-487.116191
 30
400.0
 70
     8
  0
VERTEX
  5
4DB
  8
TEAM-BODY
 10
-82.174521
 20
-489.229809
 30
400.0
 70
     8
  0
VERTEX
  5
4DC
  8
TEAM-BODY
 10
-80.185574
 20
-491.266058
 30
400.0
 70
     8
  0
VERTEX
  5
4DD
  8
TEAM-BODY
 10
-78.149926
 20
-493.234564
 30
400.0
 70
     8
  0
VERTEX
  5
4DE
  8
TEAM-BODY
 10
-76.054194
 20
-495.144949
 30
400.0
 70
     8
  0
VERTEX
  5
4DF
  8
TEAM-BODY
 10
-73.884991
 20
-497.006838
 30
400.0
 70
     8
  0
VERTEX
  5
4E0
  8
TEAM-BODY
 10
-71.628933
 20
-498.829854
 30
400.0
 70
     8
  0
VERTEX
  5
4E1
  8
TEAM-BODY
 10
-69.272634
 20
-500.623623
 30
400.0
 70
     8
  0
VERTEX
  5
4E2
  8
TEAM-BODY
 10
-66.80271
 20
-502.397768
 30
400.0
 70
     8
  0
VERTEX
  5
4E3
  8
TEAM-BODY
 10
-64.208223
 20
-504.159141
 30
400.0
 70
     8
  0
VERTEX
  5
4E4
  8
TEAM-BODY
 10
-61.488016
 20
-505.903506
 30
400.0
 70
     8
  0
VERTEX
  5
4E5
  8
TEAM-BODY
 10
-58.643383
 20
-507.623856
 30
400.0
 70
     8
  0
VERTEX
  5
4E6
  8
TEAM-BODY
 10
-55.675615
 20
-509.313184
 30
400.0
 70
     8
  0
VERTEX
  5
4E7
  8
TEAM-BODY
 10
-52.586004
 20
-510.964482
 30
400.0
 70
     8
  0
VERTEX
  5
4E8
  8
TEAM-BODY
 10
-49.375841
 20
-512.570742
 30
400.0
 70
     8
  0
VERTEX
  5
4E9
  8
TEAM-BODY
 10
-46.046418
 20
-514.124958
 30
400.0
 70
     8
  0
VERTEX
  5
4EA
  8
TEAM-BODY
 10
-42.599027
 20
-515.620121
 30
400.0
 70
     8
  0
VERTEX
  5
4EB
  8
TEAM-BODY
 10
-39.013616
 20
-517.049976
 30
400.0
 70
     8
  0
VERTEX
  5
4EC
  8
TEAM-BODY
 10
-35.184757
 20
-518.411281
 30
400.0
 70
     8
  0
VERTEX
  5
4ED
  8
TEAM-BODY
 10
-30.985679
 20
-519.701543
 30
400.0
 70
     8
  0
VERTEX
  5
4EE
  8
TEAM-BODY
 10
-26.28961
 20
-520.91827
 30
400.0
 70
     8
  0
VERTEX
  5
4EF
  8
TEAM-BODY
 10
-20.969779
 20
-522.058972
 30
400.0
 70
     8
  0
VERTEX
  5
4F0
  8
TEAM-BODY
 10
-14.899415
 20
-523.121158
 30
400.0
 70
     8
  0
VERTEX
  5
4F1
  8
TEAM-BODY
 10
-7.951746
 20
-524.102335
 30
400.0
 70
     8
  0
VERTEX
  5
4F2
  8
TEAM-BODY
 10
0.0
 20
-525.000012
 30
400.0
 70
     8
  0
VERTEX
  5
4F3
  8
TEAM-BODY
 10
-19.964066
 20
-191.748077
 30
400.0
 70
    16
  0
VERTEX
  5
4F4
  8
TEAM-BODY
 10
-39.330056
 20
-196.934601
 30
400.0
 70
    16
  0
VERTEX
  5
4F5
  8
TEAM-BODY
 10
-61.73204
 20
-208.101089
 30
400.0
 70
    16
  0
VERTEX
  5
4F6
  8
TEAM-BODY
 10
-77.619279
 20
-220.296813
 30
400.0
 70
    16
  0
VERTEX
  5
4F7
  8
TEAM-BODY
 10
-94.208008
 20
-239.036071
 30
400.0
 70
    16
  0
VERTEX
  5
4F8
  8
TEAM-BODY
 10
-104.224419
 20
-256.400802
 30
400.0
 70
    16
  0
VERTEX
  5
4F9
  8
TEAM-BODY
 10
-109.973115
 20
-269.571006
 30
400.0
 70
    16
  0
VERTEX
  5
4FA
  8
TEAM-BODY
 10
-116.827111
 20
-288.408012
 30
400.0
 70
    16
  0
VERTEX
  5
4FB
  8
TEAM-BODY
 10
-122.013603
 20
-307.774017
 30
400.0
 70
    16
  0
VERTEX
  5
4FC
  8
TEAM-BODY
 10
-125.498109
 20
-327.508018
 30
400.0
 70
    16
  0
VERTEX
  5
4FD
  8
TEAM-BODY
 10
-127.24611
 20
-347.472015
 30
400.0
 70
    16
  0
VERTEX
  5
4FE
  8
TEAM-BODY
 10
-126.809113
 20
-377.556015
 30
400.0
 70
    16
  0
VERTEX
  5
4FF
  8
TEAM-BODY
 10
-124.187104
 20
-397.428009
 30
400.0
 70
    16
  0
VERTEX
  5
500
  8
TEAM-BODY
 10
-116.827111
 20
-426.592018
 30
400.0
 70
    16
  0
VERTEX
  5
501
  8
TEAM-BODY
 10
-109.973115
 20
-445.429016
 30
400.0
 70
    16
  0
VERTEX
  5
502
  8
TEAM-BODY
 10
-99.252457
 20
-468.016277
 30
400.0
 70
    16
  0
VERTEX
  5
503
  8
TEAM-BODY
 10
-84.342743
 20
-488.044109
 30
400.0
 70
    16
  0
VERTEX
  5
504
  8
TEAM-BODY
 10
-68.157486
 20
-502.504435
 30
400.0
 70
    16
  0
VERTEX
  5
505
  8
TEAM-BODY
 10
-43.843575
 20
-516.32476
 30
400.0
 70
    16
  0
VERTEX
  5
506
  8
TEAM-BODY
 10
-22.656109
 20
-522.719753
 30
400.0
 70
    16
  0
VERTEX
  5
507
  8
TEAM-BODY
 10
0.0
 20
-525.000012
 30
400.0
 70
    16
  0
SEQEND
  5
508
  8
TEAM-BODY
  0
CIRCLE
  5
509
  8
TEAM-DET1
 10
0.0
 20
-76.429149
 30
405.0
 40
17.5
  0
ENDSEC
  0
EOF
