  0
SECTION
  2
HEADER
  9
$ACADVER
  1
AC1009
  9
$INSBASE
 10
0.0
 20
0.0
 30
0.0
  9
$EXTMIN
 10
-201.422206
 20
-584.992783
 30
-0.026245
  9
$EXTMAX
 10
201.42221
 20
10.036317
 30
430.026244
  9
$LIMMIN
 10
-201.422206
 20
-584.992783
  9
$LIMMAX
 10
201.42221
 20
10.036317
  9
$ORTHOMODE
 70
     1
  9
$REGENMODE
 70
     1
  9
$FILLMODE
 70
     1
  9
$QTEXTMODE
 70
     0
  9
$MIRRTEXT
 70
     0
  9
$DRAGMODE
 70
     2
  9
$LTSCALE
 40
25.0
  9
$OSMODE
 70
     0
  9
$ATTMODE
 70
     1
  9
$TEXTSIZE
 40
200.0
  9
$TRACEWID
 40
1.0
  9
$TEXTSTYLE
  7
STANDARD
  9
$CLAYER
  8
TEAM-MAS
  9
$CELTYPE
  6
BYLAYER
  9
$CECOLOR
 62
   256
  9
$DIMSCALE
 40
0.0
  9
$DIMASZ
 40
20.0
  9
$DIMEXO
 40
10.0
  9
$DIMDLI
 40
1.0
  9
$DIMRND
 40
0.0
  9
$DIMDLE
 40
0.0
  9
$DIMEXE
 40
1.0
  9
$DIMTP
 40
0.0
  9
$DIMTM
 40
0.0
  9
$DIMTXT
 40
35.0
  9
$DIMCEN
 40
1.0
  9
$DIMTSZ
 40
0.0
  9
$DIMTOL
 70
     0
  9
$DIMLIM
 70
     0
  9
$DIMTIH
 70
     0
  9
$DIMTOH
 70
     0
  9
$DIMSE1
 70
     0
  9
$DIMSE2
 70
     0
  9
$DIMTAD
 70
     0
  9
$DIMZIN
 70
     0
  9
$DIMBLK
  1

  9
$DIMASO
 70
     1
  9
$DIMSHO
 70
     0
  9
$DIMPOST
  1

  9
$DIMAPOST
  1

  9
$DIMALT
 70
     0
  9
$DIMALTD
 70
     2
  9
$DIMALTF
 40
25.4
  9
$DIMLFAC
 40
1.0
  9
$DIMTOFL
 70
     0
  9
$DIMTVP
 40
0.0
  9
$DIMTIX
 70
     0
  9
$DIMSOXD
 70
     0
  9
$DIMSAH
 70
     0
  9
$DIMBLK1
  1

  9
$DIMBLK2
  1

  9
$DIMSTYLE
  2
TEAM
  9
$DIMCLRD
 70
     9
  9
$DIMCLRE
 70
     9
  9
$DIMCLRT
 70
    11
  9
$DIMTFAC
 40
1.0
  9
$DIMGAP
 40
15.0
  9
$LUNITS
 70
     2
  9
$LUPREC
 70
     1
  9
$SKETCHINC
 40
1.0
  9
$FILLETRAD
 40
50.0
  9
$AUNITS
 70
     0
  9
$AUPREC
 70
     0
  9
$MENU
  1
ROPLANS
  9
$ELEVATION
 40
0.0
  9
$PELEVATION
 40
0.0
  9
$THICKNESS
 40
0.0
  9
$LIMCHECK
 70
     0
  9
$BLIPMODE
 70
     1
  9
$CHAMFERA
 40
0.0
  9
$CHAMFERB
 40
0.0
  9
$SKPOLY
 70
     0
  9
$TDCREATE
 40
2450392.957851
  9
$TDUPDATE
 40
2455505.390806
  9
$TDINDWG
 40
2.108696
  9
$TDUSRTIMER
 40
2.108696
  9
$USRTIMER
 70
     1
  9
$ANGBASE
 50
0.0
  9
$ANGDIR
 70
     0
  9
$PDMODE
 70
     0
  9
$PDSIZE
 40
0.0
  9
$PLINEWID
 40
0.0
  9
$COORDS
 70
     2
  9
$SPLFRAME
 70
     0
  9
$SPLINETYPE
 70
     6
  9
$SPLINESEGS
 70
     8
  9
$ATTDIA
 70
     0
  9
$ATTREQ
 70
     0
  9
$HANDLING
 70
     1
  9
$HANDSEED
  5
B7A
  9
$SURFTAB1
 70
    24
  9
$SURFTAB2
 70
    24
  9
$SURFTYPE
 70
     6
  9
$SURFU
 70
     6
  9
$SURFV
 70
     6
  9
$UCSNAME
  2

  9
$UCSORG
 10
0.0
 20
0.0
 30
0.0
  9
$UCSXDIR
 10
1.0
 20
0.0
 30
0.0
  9
$UCSYDIR
 10
0.0
 20
1.0
 30
0.0
  9
$PUCSNAME
  2

  9
$PUCSORG
 10
0.0
 20
0.0
 30
0.0
  9
$PUCSXDIR
 10
1.0
 20
0.0
 30
0.0
  9
$PUCSYDIR
 10
0.0
 20
1.0
 30
0.0
  9
$USERI1
 70
     0
  9
$USERI2
 70
     0
  9
$USERI3
 70
     0
  9
$USERI4
 70
     0
  9
$USERI5
 70
     0
  9
$USERR1
 40
0.0
  9
$USERR2
 40
0.0
  9
$USERR3
 40
0.0
  9
$USERR4
 40
0.0
  9
$USERR5
 40
0.0
  9
$WORLDVIEW
 70
     1
  9
$SHADEDGE
 70
     0
  9
$SHADEDIF
 70
    70
  9
$TILEMODE
 70
     1
  9
$MAXACTVP
 70
    16
  9
$PLIMCHECK
 70
     0
  9
$PEXTMIN
 10
-0.805942
 20
0.005011
 30
0.0
  9
$PEXTMAX
 10
20.250094
 20
11.356329
 30
0.0
  9
$PLIMMIN
 10
0.0
 20
0.0
  9
$PLIMMAX
 10
12.0
 20
9.0
  9
$UNITMODE
 70
     0
  9
$VISRETAIN
 70
     0
  9
$PLINEGEN
 70
     0
  9
$PSLTSCALE
 70
     0
  0
ENDSEC
  0
SECTION
  2
TABLES
  0
TABLE
  2
VPORT
 70
     2
  0
VPORT
  2
*ACTIVE
 70
     0
 10
0.0
 20
0.0
 11
1.0
 21
1.0
 12
0.000002
 22
-287.478233
 13
0.0
 23
0.0
 14
1.0
 24
1.0
 15
50.0
 25
50.0
 16
0.0
 26
0.0
 36
1.0
 17
0.0
 27
0.0
 37
0.0
 40
598.683322
 41
1.865779
 42
50.0
 43
0.0
 44
0.0
 50
0.0
 51
0.0
 71
     0
 72
   100
 73
     1
 74
     1
 75
     0
 76
     0
 77
     0
 78
     0
  0
ENDTAB
  0
TABLE
  2
LTYPE
 70
     2
  0
LTYPE
  2
CONTINUOUS
 70
     0
  3
Solid Line
 72
    65
 73
     0
 40
0.0
  0
LTYPE
  2
31
 70
     0
  3

 72
    65
 73
     4
 40
2.1
 49
1.5
 49
-0.3
 49
0.0
 49
-0.3
  0
ENDTAB
  0
TABLE
  2
LAYER
 70
     9
  0
LAYER
  2
0
 70
     0
 62
     7
  6
CONTINUOUS
  0
LAYER
  2
TEAM-BODY
 70
     0
 62
     2
  6
CONTINUOUS
  0
LAYER
  2
TEAM-AXE
 70
     0
 62
    10
  6
31
  0
LAYER
  2
TEAM-MAS
 70
     0
 62
     9
  6
CONTINUOUS
  0
LAYER
  2
TEAM-TXT
 70
     0
 62
    11
  6
CONTINUOUS
  0
LAYER
  2
TEAM-DET1
 70
     0
 62
     4
  6
CONTINUOUS
  0
LAYER
  2
TEAM-KAN
 70
     0
 62
     6
  6
CONTINUOUS
  0
LAYER
  2
TEAM-NET
 70
     0
 62
    15
  6
CONTINUOUS
  0
LAYER
  2
TEAM-INSP
 70
     0
 62
     5
  6
CONTINUOUS
  0
ENDTAB
  0
TABLE
  2
STYLE
 70
     2
  0
STYLE
  2
STANDARD
 70
     0
 40
0.0
 41
1.0
 50
0.0
 71
     0
 42
200.0
  3
txt
  4

  0
STYLE
  2
TEAM
 70
     0
 40
0.0
 41
0.8
 50
15.0
 71
     0
 42
7.0
  3
ROMANS.shx
  4

  0
ENDTAB
  0
TABLE
  2
VIEW
 70
     0
  0
ENDTAB
  0
TABLE
  2
UCS
 70
     0
  0
ENDTAB
  0
TABLE
  2
APPID
 70
     1
  0
APPID
  2
ACAD
 70
     0
  0
ENDTAB
  0
TABLE
  2
DIMSTYLE
 70
     1
  0
DIMSTYLE
  2
TEAM
 70
     0
  3

  4

  5

  6

  7

 40
0.0
 41
20.0
 42
10.0
 43
1.0
 44
1.0
 45
0.0
 46
0.0
 47
0.0
 48
0.0
140
35.0
141
1.0
142
0.0
143
25.4
144
1.0
145
0.0
146
1.0
147
15.0
 71
     0
 72
     0
 73
     0
 74
     0
 75
     0
 76
     0
 77
     0
 78
     0
170
     0
171
     2
172
     0
173
     0
174
     0
175
     0
176
     9
177
     9
178
    11
  0
ENDTAB
  0
ENDSEC
  0
SECTION
  2
BLOCKS
  0
BLOCK
  8
0
  2
$MODEL_SPACE
 70
     0
 10
0.0
 20
0.0
 30
0.0
  3
$MODEL_SPACE
  1

  0
ENDBLK
  5
9E7
  8
0
  0
BLOCK
 67
     1
  8
0
  2
$PAPER_SPACE
 70
     0
 10
0.0
 20
0.0
 30
0.0
  3
$PAPER_SPACE
  1

  0
ENDBLK
  5
9E5
 67
     1
  8
0
  0
ENDSEC
  0
SECTION
  2
ENTITIES
  0
POLYLINE
  5
20
  8
TEAM-DET1
 66
     1
 10
0.0
 20
0.0
 30
429.4107
210
0.0
220
-0.052336
230
0.99863
  0
VERTEX
  5
9ED
  8
TEAM-DET1
 10
0.0
 20
22.504461
 30
429.4107
  0
VERTEX
  5
9EE
  8
TEAM-DET1
 10
179.522945
 20
22.504461
 30
429.4107
 42
-0.042909
  0
VERTEX
  5
9EF
  8
TEAM-DET1
 10
194.90122
 20
-280.232402
 30
429.4107
 42
-0.042909
  0
SEQEND
  5
9F0
  8
TEAM-DET1
  0
POLYLINE
  5
22
  8
TEAM-DET1
 66
     1
 10
0.0
 20
0.0
 30
429.4107
210
0.0
220
-0.052336
230
0.99863
  0
VERTEX
  5
9F1
  8
TEAM-DET1
 10
0.0
 20
22.504461
 30
429.4107
  0
VERTEX
  5
9F2
  8
TEAM-DET1
 10
-179.522945
 20
22.504461
 30
429.4107
 42
0.042909
  0
VERTEX
  5
9F3
  8
TEAM-DET1
 10
-194.90122
 20
-280.232402
 30
429.4107
 42
0.042909
  0
SEQEND
  5
9F4
  8
TEAM-DET1
  0
POLYLINE
  5
23
  8
TEAM-NET
 66
     1
 10
0.0
 20
0.0
 30
0.0
 70
    16
 71
     2
 72
    13
  0
VERTEX
  5
24
  8
TEAM-NET
 10
194.90122
 20
-302.321973
 30
414.155977
 70
    64
  0
VERTEX
  5
25
  8
TEAM-NET
 10
195.852566
 20
-262.137391
 30
416.261961
 70
    64
  0
VERTEX
  5
26
  8
TEAM-NET
 10
195.888305
 20
-221.941597
 30
418.368534
 70
    64
  0
VERTEX
  5
27
  8
TEAM-NET
 10
195.008418
 20
-181.755391
 30
420.474604
 70
    64
  0
VERTEX
  5
28
  8
TEAM-NET
 10
193.213362
 20
-141.599573
 30
422.579081
 70
    64
  0
VERTEX
  5
29
  8
TEAM-NET
 10
190.504065
 20
-101.494922
 30
424.680877
 70
    64
  0
VERTEX
  5
2A
  8
TEAM-NET
 10
186.881928
 20
-61.462195
 30
426.778903
 70
    64
  0
VERTEX
  5
2B
  8
TEAM-NET
 10
182.348828
 20
-21.52211
 30
428.872074
 70
    64
  0
VERTEX
  5
2C
  8
TEAM-NET
 10
161.007364
 20
0.0
 30
430.0
 70
    64
  0
VERTEX
  5
2D
  8
TEAM-NET
 10
120.755523
 20
0.0
 30
430.0
 70
    64
  0
VERTEX
  5
2E
  8
TEAM-NET
 10
80.503682
 20
0.0
 30
430.0
 70
    64
  0
VERTEX
  5
2F
  8
TEAM-NET
 10
40.251841
 20
0.0
 30
430.0
 70
    64
  0
VERTEX
  5
30
  8
TEAM-NET
 10
0.0
 20
0.0
 30
430.0
 70
    64
  0
VERTEX
  5
31
  8
TEAM-NET
 10
195.7174
 20
-271.606378
 30
415.0
 70
    64
  0
VERTEX
  5
32
  8
TEAM-NET
 10
192.359785
 20
-242.662782
 30
415.0
 70
    64
  0
VERTEX
  5
33
  8
TEAM-NET
 10
186.903905
 20
-214.045914
 30
415.0
 70
    64
  0
VERTEX
  5
34
  8
TEAM-NET
 10
179.297483
 20
-185.928564
 30
415.0
 70
    64
  0
VERTEX
  5
35
  8
TEAM-NET
 10
169.471015
 20
-158.510488
 30
415.0
 70
    64
  0
VERTEX
  5
36
  8
TEAM-NET
 10
157.343308
 20
-132.02818
 30
415.0
 70
    64
  0
VERTEX
  5
37
  8
TEAM-NET
 10
142.606294
 20
-106.908332
 30
415.0
 70
    64
  0
VERTEX
  5
38
  8
TEAM-NET
 10
125.129012
 20
-83.618847
 30
415.0
 70
    64
  0
VERTEX
  5
39
  8
TEAM-NET
 10
105.078986
 20
-62.511149
 30
415.0
 70
    64
  0
VERTEX
  5
3A
  8
TEAM-NET
 10
82.108413
 20
-44.654857
 30
415.0
 70
    64
  0
VERTEX
  5
3B
  8
TEAM-NET
 10
56.589794
 20
-30.678737
 30
415.0
 70
    64
  0
VERTEX
  5
3C
  8
TEAM-NET
 10
28.890431
 20
-21.877018
 30
415.0
 70
    64
  0
VERTEX
  5
3D
  8
TEAM-NET
 10
0.0
 20
-18.517255
 30
415.0
 70
    64
  0
SEQEND
  5
3F
  8
TEAM-NET
  0
POLYLINE
  5
40
  8
TEAM-NET
 66
     1
 10
0.0
 20
0.0
 30
0.0
 70
    16
 71
     2
 72
    13
  0
VERTEX
  5
41
  8
TEAM-NET
 10
0.0
 20
-18.517255
 30
415.0
 70
    64
  0
VERTEX
  5
42
  8
TEAM-NET
 10
-28.890431
 20
-21.877018
 30
415.0
 70
    64
  0
VERTEX
  5
43
  8
TEAM-NET
 10
-56.589794
 20
-30.678737
 30
415.0
 70
    64
  0
VERTEX
  5
44
  8
TEAM-NET
 10
-82.108413
 20
-44.654857
 30
415.0
 70
    64
  0
VERTEX
  5
45
  8
TEAM-NET
 10
-105.078986
 20
-62.511149
 30
415.0
 70
    64
  0
VERTEX
  5
46
  8
TEAM-NET
 10
-125.129012
 20
-83.618847
 30
415.0
 70
    64
  0
VERTEX
  5
47
  8
TEAM-NET
 10
-142.606294
 20
-106.908332
 30
415.0
 70
    64
  0
VERTEX
  5
48
  8
TEAM-NET
 10
-157.343308
 20
-132.02818
 30
415.0
 70
    64
  0
VERTEX
  5
49
  8
TEAM-NET
 10
-169.471015
 20
-158.510488
 30
415.0
 70
    64
  0
VERTEX
  5
4A
  8
TEAM-NET
 10
-179.297483
 20
-185.928564
 30
415.0
 70
    64
  0
VERTEX
  5
4B
  8
TEAM-NET
 10
-186.903905
 20
-214.045914
 30
415.0
 70
    64
  0
VERTEX
  5
4C
  8
TEAM-NET
 10
-192.359785
 20
-242.662782
 30
415.0
 70
    64
  0
VERTEX
  5
4D
  8
TEAM-NET
 10
-195.7174
 20
-271.606378
 30
415.0
 70
    64
  0
VERTEX
  5
4E
  8
TEAM-NET
 10
0.0
 20
0.0
 30
430.0
 70
    64
  0
VERTEX
  5
4F
  8
TEAM-NET
 10
-40.251841
 20
0.0
 30
430.0
 70
    64
  0
VERTEX
  5
50
  8
TEAM-NET
 10
-80.503682
 20
0.0
 30
430.0
 70
    64
  0
VERTEX
  5
51
  8
TEAM-NET
 10
-120.755523
 20
0.0
 30
430.0
 70
    64
  0
VERTEX
  5
52
  8
TEAM-NET
 10
-161.007364
 20
0.0
 30
430.0
 70
    64
  0
VERTEX
  5
53
  8
TEAM-NET
 10
-182.348828
 20
-21.52211
 30
428.872074
 70
    64
  0
VERTEX
  5
54
  8
TEAM-NET
 10
-186.881928
 20
-61.462195
 30
426.778903
 70
    64
  0
VERTEX
  5
55
  8
TEAM-NET
 10
-190.504065
 20
-101.494922
 30
424.680877
 70
    64
  0
VERTEX
  5
56
  8
TEAM-NET
 10
-193.213362
 20
-141.599573
 30
422.579081
 70
    64
  0
VERTEX
  5
57
  8
TEAM-NET
 10
-195.008418
 20
-181.755391
 30
420.474604
 70
    64
  0
VERTEX
  5
58
  8
TEAM-NET
 10
-195.888305
 20
-221.941597
 30
418.368534
 70
    64
  0
VERTEX
  5
59
  8
TEAM-NET
 10
-195.852566
 20
-262.137391
 30
416.261961
 70
    64
  0
VERTEX
  5
5A
  8
TEAM-NET
 10
-194.90122
 20
-302.321973
 30
414.155977
 70
    64
  0
SEQEND
  5
5B
  8
TEAM-NET
  0
POLYLINE
  5
5C
  8
TEAM-NET
 66
     1
 10
0.0
 20
0.0
 30
0.0
 70
    16
 71
     2
 72
    13
  0
VERTEX
  5
5D
  8
TEAM-NET
 10
0.0
 20
0.0
 30
415.0
 70
    64
  0
VERTEX
  5
5E
  8
TEAM-NET
 10
40.251841
 20
0.0
 30
415.0
 70
    64
  0
VERTEX
  5
5F
  8
TEAM-NET
 10
80.503682
 20
0.0
 30
415.0
 70
    64
  0
VERTEX
  5
60
  8
TEAM-NET
 10
120.755523
 20
0.0
 30
415.0
 70
    64
  0
VERTEX
  5
61
  8
TEAM-NET
 10
161.007364
 20
0.0
 30
415.0
 70
    64
  0
VERTEX
  5
62
  8
TEAM-NET
 10
182.348828
 20
-21.551645
 30
415.0
 70
    64
  0
VERTEX
  5
63
  8
TEAM-NET
 10
186.881928
 20
-61.546543
 30
415.0
 70
    64
  0
VERTEX
  5
64
  8
TEAM-NET
 10
190.504065
 20
-101.634209
 30
415.0
 70
    64
  0
VERTEX
  5
65
  8
TEAM-NET
 10
193.213362
 20
-141.793896
 30
415.0
 70
    64
  0
VERTEX
  5
66
  8
TEAM-NET
 10
195.008418
 20
-182.004823
 30
415.0
 70
    64
  0
VERTEX
  5
67
  8
TEAM-NET
 10
195.888305
 20
-222.246177
 30
415.0
 70
    64
  0
VERTEX
  5
68
  8
TEAM-NET
 10
195.852566
 20
-262.497134
 30
415.0
 70
    64
  0
VERTEX
  5
69
  8
TEAM-NET
 10
194.90122
 20
-302.736863
 30
415.0
 70
    64
  0
VERTEX
  5
6A
  8
TEAM-NET
 10
0.0
 20
0.0
 30
430.0
 70
    64
  0
VERTEX
  5
6B
  8
TEAM-NET
 10
40.251841
 20
0.0
 30
430.0
 70
    64
  0
VERTEX
  5
6C
  8
TEAM-NET
 10
80.503682
 20
0.0
 30
430.0
 70
    64
  0
VERTEX
  5
6D
  8
TEAM-NET
 10
120.755523
 20
0.0
 30
430.0
 70
    64
  0
VERTEX
  5
6E
  8
TEAM-NET
 10
161.007364
 20
0.0
 30
430.0
 70
    64
  0
VERTEX
  5
6F
  8
TEAM-NET
 10
182.348828
 20
-21.52211
 30
428.872074
 70
    64
  0
VERTEX
  5
70
  8
TEAM-NET
 10
186.881928
 20
-61.462195
 30
426.778903
 70
    64
  0
VERTEX
  5
71
  8
TEAM-NET
 10
190.504065
 20
-101.494922
 30
424.680877
 70
    64
  0
VERTEX
  5
72
  8
TEAM-NET
 10
193.213362
 20
-141.599573
 30
422.579081
 70
    64
  0
VERTEX
  5
73
  8
TEAM-NET
 10
195.008418
 20
-181.755391
 30
420.474604
 70
    64
  0
VERTEX
  5
74
  8
TEAM-NET
 10
195.888305
 20
-221.941597
 30
418.368534
 70
    64
  0
VERTEX
  5
75
  8
TEAM-NET
 10
195.852566
 20
-262.137391
 30
416.261961
 70
    64
  0
VERTEX
  5
76
  8
TEAM-NET
 10
194.90122
 20
-302.321973
 30
414.155977
 70
    64
  0
SEQEND
  5
77
  8
TEAM-NET
  0
POLYLINE
  5
78
  8
TEAM-NET
 66
     1
 10
0.0
 20
0.0
 30
0.0
 70
    16
 71
     2
 72
    13
  0
VERTEX
  5
79
  8
TEAM-NET
 10
0.0
 20
0.0
 30
430.0
 70
    64
  0
VERTEX
  5
7A
  8
TEAM-NET
 10
-40.251841
 20
0.0
 30
430.0
 70
    64
  0
VERTEX
  5
7B
  8
TEAM-NET
 10
-80.503682
 20
0.0
 30
430.0
 70
    64
  0
VERTEX
  5
7C
  8
TEAM-NET
 10
-120.755523
 20
0.0
 30
430.0
 70
    64
  0
VERTEX
  5
7D
  8
TEAM-NET
 10
-161.007364
 20
0.0
 30
430.0
 70
    64
  0
VERTEX
  5
7E
  8
TEAM-NET
 10
-182.348828
 20
-21.52211
 30
428.872074
 70
    64
  0
VERTEX
  5
7F
  8
TEAM-NET
 10
-186.881928
 20
-61.462195
 30
426.778903
 70
    64
  0
VERTEX
  5
80
  8
TEAM-NET
 10
-190.504065
 20
-101.494922
 30
424.680877
 70
    64
  0
VERTEX
  5
81
  8
TEAM-NET
 10
-193.213362
 20
-141.599573
 30
422.579081
 70
    64
  0
VERTEX
  5
82
  8
TEAM-NET
 10
-195.008418
 20
-181.755391
 30
420.474604
 70
    64
  0
VERTEX
  5
83
  8
TEAM-NET
 10
-195.888305
 20
-221.941597
 30
418.368534
 70
    64
  0
VERTEX
  5
84
  8
TEAM-NET
 10
-195.852566
 20
-262.137391
 30
416.261961
 70
    64
  0
VERTEX
  5
85
  8
TEAM-NET
 10
-194.90122
 20
-302.321973
 30
414.155977
 70
    64
  0
VERTEX
  5
86
  8
TEAM-NET
 10
0.0
 20
0.0
 30
415.0
 70
    64
  0
VERTEX
  5
87
  8
TEAM-NET
 10
-40.251841
 20
0.0
 30
415.0
 70
    64
  0
VERTEX
  5
88
  8
TEAM-NET
 10
-80.503682
 20
0.0
 30
415.0
 70
    64
  0
VERTEX
  5
89
  8
TEAM-NET
 10
-120.755523
 20
0.0
 30
415.0
 70
    64
  0
VERTEX
  5
8A
  8
TEAM-NET
 10
-161.007364
 20
0.0
 30
415.0
 70
    64
  0
VERTEX
  5
8B
  8
TEAM-NET
 10
-182.348828
 20
-21.551645
 30
415.0
 70
    64
  0
VERTEX
  5
8C
  8
TEAM-NET
 10
-186.881928
 20
-61.546543
 30
415.0
 70
    64
  0
VERTEX
  5
8D
  8
TEAM-NET
 10
-190.504065
 20
-101.634209
 30
415.0
 70
    64
  0
VERTEX
  5
8E
  8
TEAM-NET
 10
-193.213362
 20
-141.793896
 30
415.0
 70
    64
  0
VERTEX
  5
8F
  8
TEAM-NET
 10
-195.008418
 20
-182.004823
 30
415.0
 70
    64
  0
VERTEX
  5
90
  8
TEAM-NET
 10
-195.888305
 20
-222.246177
 30
415.0
 70
    64
  0
VERTEX
  5
91
  8
TEAM-NET
 10
-195.852566
 20
-262.497134
 30
415.0
 70
    64
  0
VERTEX
  5
92
  8
TEAM-NET
 10
-194.90122
 20
-302.736863
 30
415.0
 70
    64
  0
SEQEND
  5
93
  8
TEAM-NET
  0
POLYLINE
  5
94
  8
TEAM-NET
 66
     1
 10
0.0
 20
0.0
 30
0.0
 70
    16
 71
     2
 72
    25
  0
VERTEX
  5
95
  8
TEAM-NET
 10
0.0
 20
-584.956471
 30
415.0
 70
    64
  0
VERTEX
  5
96
  8
TEAM-NET
 10
31.207815
 20
-581.315094
 30
415.0
 70
    64
  0
VERTEX
  5
97
  8
TEAM-NET
 10
60.84469
 20
-570.851771
 30
415.0
 70
    64
  0
VERTEX
  5
98
  8
TEAM-NET
 10
87.815113
 20
-554.687025
 30
415.0
 70
    64
  0
VERTEX
  5
99
  8
TEAM-NET
 10
111.604209
 20
-534.10653
 30
415.0
 70
    64
  0
VERTEX
  5
9A
  8
TEAM-NET
 10
132.104863
 20
-510.236704
 30
415.0
 70
    64
  0
VERTEX
  5
9B
  8
TEAM-NET
 10
149.413678
 20
-483.952959
 30
415.0
 70
    64
  0
VERTEX
  5
9C
  8
TEAM-NET
 10
163.698809
 20
-455.906211
 30
415.0
 70
    64
  0
VERTEX
  5
9D
  8
TEAM-NET
 10
175.133895
 20
-426.57889
 30
415.0
 70
    64
  0
VERTEX
  5
9E
  8
TEAM-NET
 10
183.870093
 20
-396.33584
 30
415.0
 70
    64
  0
VERTEX
  5
9F
  8
TEAM-NET
 10
190.026248
 20
-365.462943
 30
415.0
 70
    64
  0
VERTEX
  5
A0
  8
TEAM-NET
 10
193.686617
 20
-334.195101
 30
415.0
 70
    64
  0
VERTEX
  5
A1
  8
TEAM-NET
 10
194.90122
 20
-302.736863
 30
415.0
 70
    64
  0
VERTEX
  5
A2
  8
TEAM-NET
 10
193.686617
 20
-271.278625
 30
415.0
 70
    64
  0
VERTEX
  5
A3
  8
TEAM-NET
 10
190.026248
 20
-240.010783
 30
415.0
 70
    64
  0
VERTEX
  5
A4
  8
TEAM-NET
 10
183.870093
 20
-209.137886
 30
415.0
 70
    64
  0
VERTEX
  5
A5
  8
TEAM-NET
 10
175.133895
 20
-178.894836
 30
415.0
 70
    64
  0
VERTEX
  5
A6
  8
TEAM-NET
 10
163.698809
 20
-149.567515
 30
415.0
 70
    64
  0
VERTEX
  5
A7
  8
TEAM-NET
 10
149.413678
 20
-121.520767
 30
415.0
 70
    64
  0
VERTEX
  5
A8
  8
TEAM-NET
 10
132.104863
 20
-95.237022
 30
415.0
 70
    64
  0
VERTEX
  5
A9
  8
TEAM-NET
 10
111.604209
 20
-71.367196
 30
415.0
 70
    64
  0
VERTEX
  5
AA
  8
TEAM-NET
 10
87.815113
 20
-50.786701
 30
415.0
 70
    64
  0
VERTEX
  5
AB
  8
TEAM-NET
 10
60.84469
 20
-34.621955
 30
415.0
 70
    64
  0
VERTEX
  5
AC
  8
TEAM-NET
 10
31.207815
 20
-24.158632
 30
415.0
 70
    64
  0
VERTEX
  5
AD
  8
TEAM-NET
 10
0.0
 20
-20.517255
 30
415.0
 70
    64
  0
VERTEX
  5
AE
  8
TEAM-NET
 10
0.0
 20
-156.232095
 30
60.0
 70
    64
  0
VERTEX
  5
AF
  8
TEAM-NET
 10
8.258496
 20
-155.615465
 30
60.0
 70
    64
  0
VERTEX
  5
B0
  8
TEAM-NET
 10
16.340065
 20
-153.804028
 30
60.0
 70
    64
  0
VERTEX
  5
B1
  8
TEAM-NET
 10
24.097866
 20
-150.901256
 30
60.0
 70
    64
  0
VERTEX
  5
B2
  8
TEAM-NET
 10
31.43127
 20
-147.047804
 30
60.0
 70
    64
  0
VERTEX
  5
B3
  8
TEAM-NET
 10
38.285359
 20
-142.393106
 30
60.0
 70
    64
  0
VERTEX
  5
B4
  8
TEAM-NET
 10
44.640635
 20
-137.076232
 30
60.0
 70
    64
  0
VERTEX
  5
B5
  8
TEAM-NET
 10
50.500731
 20
-131.21715
 30
60.0
 70
    64
  0
VERTEX
  5
B6
  8
TEAM-NET
 10
55.882323
 20
-124.915063
 30
60.0
 70
    64
  0
VERTEX
  5
B7
  8
TEAM-NET
 10
60.808238
 20
-118.250275
 30
60.0
 70
    64
  0
VERTEX
  5
B8
  8
TEAM-NET
 10
65.303251
 20
-111.287261
 30
60.0
 70
    64
  0
VERTEX
  5
B9
  8
TEAM-NET
 10
69.391733
 20
-104.077786
 30
60.0
 70
    64
  0
VERTEX
  5
BA
  8
TEAM-NET
 10
73.096452
 20
-96.663614
 30
60.0
 70
    64
  0
VERTEX
  5
BB
  8
TEAM-NET
 10
76.438048
 20
-89.078715
 30
60.0
 70
    64
  0
VERTEX
  5
BC
  8
TEAM-NET
 10
79.434867
 20
-81.350998
 30
60.0
 70
    64
  0
VERTEX
  5
BD
  8
TEAM-NET
 10
82.102999
 20
-73.50365
 30
60.0
 70
    64
  0
VERTEX
  5
BE
  8
TEAM-NET
 10
84.456401
 20
-65.556181
 30
60.0
 70
    64
  0
VERTEX
  5
BF
  8
TEAM-NET
 10
86.50705
 20
-57.525218
 30
60.0
 70
    64
  0
VERTEX
  5
C0
  8
TEAM-NET
 10
88.265112
 20
-49.425133
 30
60.0
 70
    64
  0
VERTEX
  5
C1
  8
TEAM-NET
 10
89.739087
 20
-41.268539
 30
60.0
 70
    64
  0
VERTEX
  5
C2
  8
TEAM-NET
 10
90.935947
 20
-33.066679
 30
60.0
 70
    64
  0
VERTEX
  5
C3
  8
TEAM-NET
 10
91.861247
 20
-24.829744
 30
60.0
 70
    64
  0
VERTEX
  5
C4
  8
TEAM-NET
 10
92.519214
 20
-16.567145
 30
60.0
 70
    64
  0
VERTEX
  5
C5
  8
TEAM-NET
 10
92.912819
 20
-8.287732
 30
60.0
 70
    64
  0
VERTEX
  5
C6
  8
TEAM-NET
 10
93.043826
 20
0.0
 30
60.0
 70
    64
  0
SEQEND
  5
C7
  8
TEAM-NET
  0
POLYLINE
  5
C8
  8
TEAM-NET
 66
     1
 10
0.0
 20
0.0
 30
0.0
 70
    16
 71
     2
 72
    25
  0
VERTEX
  5
C9
  8
TEAM-NET
 10
0.0
 20
-156.232095
 30
60.0
 70
    64
  0
VERTEX
  5
CA
  8
TEAM-NET
 10
-8.258496
 20
-155.615465
 30
60.0
 70
    64
  0
VERTEX
  5
CB
  8
TEAM-NET
 10
-16.340065
 20
-153.804028
 30
60.0
 70
    64
  0
VERTEX
  5
CC
  8
TEAM-NET
 10
-24.097866
 20
-150.901256
 30
60.0
 70
    64
  0
VERTEX
  5
CD
  8
TEAM-NET
 10
-31.43127
 20
-147.047804
 30
60.0
 70
    64
  0
VERTEX
  5
CE
  8
TEAM-NET
 10
-38.285359
 20
-142.393106
 30
60.0
 70
    64
  0
VERTEX
  5
CF
  8
TEAM-NET
 10
-44.640635
 20
-137.076232
 30
60.0
 70
    64
  0
VERTEX
  5
D0
  8
TEAM-NET
 10
-50.500731
 20
-131.21715
 30
60.0
 70
    64
  0
VERTEX
  5
D1
  8
TEAM-NET
 10
-55.882323
 20
-124.915063
 30
60.0
 70
    64
  0
VERTEX
  5
D2
  8
TEAM-NET
 10
-60.808238
 20
-118.250275
 30
60.0
 70
    64
  0
VERTEX
  5
D3
  8
TEAM-NET
 10
-65.303251
 20
-111.287261
 30
60.0
 70
    64
  0
VERTEX
  5
D4
  8
TEAM-NET
 10
-69.391733
 20
-104.077786
 30
60.0
 70
    64
  0
VERTEX
  5
D5
  8
TEAM-NET
 10
-73.096452
 20
-96.663614
 30
60.0
 70
    64
  0
VERTEX
  5
D6
  8
TEAM-NET
 10
-76.438048
 20
-89.078715
 30
60.0
 70
    64
  0
VERTEX
  5
D7
  8
TEAM-NET
 10
-79.434867
 20
-81.350998
 30
60.0
 70
    64
  0
VERTEX
  5
D8
  8
TEAM-NET
 10
-82.102999
 20
-73.50365
 30
60.0
 70
    64
  0
VERTEX
  5
D9
  8
TEAM-NET
 10
-84.456401
 20
-65.556181
 30
60.0
 70
    64
  0
VERTEX
  5
DA
  8
TEAM-NET
 10
-86.50705
 20
-57.525218
 30
60.0
 70
    64
  0
VERTEX
  5
DB
  8
TEAM-NET
 10
-88.265112
 20
-49.425133
 30
60.0
 70
    64
  0
VERTEX
  5
DC
  8
TEAM-NET
 10
-89.739087
 20
-41.268539
 30
60.0
 70
    64
  0
VERTEX
  5
DD
  8
TEAM-NET
 10
-90.935947
 20
-33.066679
 30
60.0
 70
    64
  0
VERTEX
  5
DE
  8
TEAM-NET
 10
-91.861247
 20
-24.829744
 30
60.0
 70
    64
  0
VERTEX
  5
DF
  8
TEAM-NET
 10
-92.519214
 20
-16.567145
 30
60.0
 70
    64
  0
VERTEX
  5
E0
  8
TEAM-NET
 10
-92.912819
 20
-8.287732
 30
60.0
 70
    64
  0
VERTEX
  5
E1
  8
TEAM-NET
 10
-93.043826
 20
0.0
 30
60.0
 70
    64
  0
VERTEX
  5
E2
  8
TEAM-NET
 10
0.0
 20
-584.956471
 30
415.0
 70
    64
  0
VERTEX
  5
E3
  8
TEAM-NET
 10
-31.207815
 20
-581.315094
 30
415.0
 70
    64
  0
VERTEX
  5
E4
  8
TEAM-NET
 10
-60.84469
 20
-570.851771
 30
415.0
 70
    64
  0
VERTEX
  5
E5
  8
TEAM-NET
 10
-87.815113
 20
-554.687025
 30
415.0
 70
    64
  0
VERTEX
  5
E6
  8
TEAM-NET
 10
-111.604209
 20
-534.10653
 30
415.0
 70
    64
  0
VERTEX
  5
E7
  8
TEAM-NET
 10
-132.104863
 20
-510.236704
 30
415.0
 70
    64
  0
VERTEX
  5
E8
  8
TEAM-NET
 10
-149.413678
 20
-483.952959
 30
415.0
 70
    64
  0
VERTEX
  5
E9
  8
TEAM-NET
 10
-163.698809
 20
-455.906211
 30
415.0
 70
    64
  0
VERTEX
  5
EA
  8
TEAM-NET
 10
-175.133895
 20
-426.57889
 30
415.0
 70
    64
  0
VERTEX
  5
EB
  8
TEAM-NET
 10
-183.870093
 20
-396.33584
 30
415.0
 70
    64
  0
VERTEX
  5
EC
  8
TEAM-NET
 10
-190.026248
 20
-365.462943
 30
415.0
 70
    64
  0
VERTEX
  5
ED
  8
TEAM-NET
 10
-193.686617
 20
-334.195101
 30
415.0
 70
    64
  0
VERTEX
  5
EE
  8
TEAM-NET
 10
-194.90122
 20
-302.736863
 30
415.0
 70
    64
  0
VERTEX
  5
EF
  8
TEAM-NET
 10
-193.686617
 20
-271.278625
 30
415.0
 70
    64
  0
VERTEX
  5
F0
  8
TEAM-NET
 10
-190.026248
 20
-240.010783
 30
415.0
 70
    64
  0
VERTEX
  5
F1
  8
TEAM-NET
 10
-183.870093
 20
-209.137886
 30
415.0
 70
    64
  0
VERTEX
  5
F2
  8
TEAM-NET
 10
-175.133895
 20
-178.894836
 30
415.0
 70
    64
  0
VERTEX
  5
F3
  8
TEAM-NET
 10
-163.698809
 20
-149.567515
 30
415.0
 70
    64
  0
VERTEX
  5
F4
  8
TEAM-NET
 10
-149.413678
 20
-121.520767
 30
415.0
 70
    64
  0
VERTEX
  5
F5
  8
TEAM-NET
 10
-132.104863
 20
-95.237022
 30
415.0
 70
    64
  0
VERTEX
  5
F6
  8
TEAM-NET
 10
-111.604209
 20
-71.367196
 30
415.0
 70
    64
  0
VERTEX
  5
F7
  8
TEAM-NET
 10
-87.815113
 20
-50.786701
 30
415.0
 70
    64
  0
VERTEX
  5
F8
  8
TEAM-NET
 10
-60.84469
 20
-34.621955
 30
415.0
 70
    64
  0
VERTEX
  5
F9
  8
TEAM-NET
 10
-31.207815
 20
-24.158632
 30
415.0
 70
    64
  0
VERTEX
  5
FA
  8
TEAM-NET
 10
0.0
 20
-20.517255
 30
415.0
 70
    64
  0
SEQEND
  5
FB
  8
TEAM-NET
  0
POLYLINE
  5
FC
  8
TEAM-NET
 66
     1
 10
0.0
 20
0.0
 30
0.0
 70
    16
 71
     2
 72
    25
  0
VERTEX
  5
FD
  8
TEAM-NET
 10
0.0
 20
0.0
 30
60.0
 70
    64
  0
VERTEX
  5
FE
  8
TEAM-NET
 10
-8.02648
 20
0.0
 30
60.0
 70
    64
  0
VERTEX
  5
FF
  8
TEAM-NET
 10
-16.05296
 20
0.0
 30
60.0
 70
    64
  0
VERTEX
  5
100
  8
TEAM-NET
 10
-24.07944
 20
0.0
 30
60.0
 70
    64
  0
VERTEX
  5
101
  8
TEAM-NET
 10
-32.10592
 20
0.0
 30
60.0
 70
    64
  0
VERTEX
  5
102
  8
TEAM-NET
 10
-40.132399
 20
0.0
 30
60.0
 70
    64
  0
VERTEX
  5
103
  8
TEAM-NET
 10
-48.158879
 20
0.0
 30
60.0
 70
    64
  0
VERTEX
  5
104
  8
TEAM-NET
 10
-56.185359
 20
0.0
 30
60.0
 70
    64
  0
VERTEX
  5
105
  8
TEAM-NET
 10
-64.211839
 20
0.0
 30
60.0
 70
    64
  0
VERTEX
  5
106
  8
TEAM-NET
 10
-72.238319
 20
0.0
 30
60.0
 70
    64
  0
VERTEX
  5
107
  8
TEAM-NET
 10
-80.264799
 20
0.0
 30
60.0
 70
    64
  0
VERTEX
  5
108
  8
TEAM-NET
 10
-88.291279
 20
0.0
 30
60.0
 70
    64
  0
VERTEX
  5
109
  8
TEAM-NET
 10
-93.112307
 20
-3.273184
 30
60.0
 70
    64
  0
VERTEX
  5
10A
  8
TEAM-NET
 10
-93.068874
 20
-11.299079
 30
60.0
 70
    64
  0
VERTEX
  5
10B
  8
TEAM-NET
 10
-92.725346
 20
-19.317736
 30
60.0
 70
    64
  0
VERTEX
  5
10C
  8
TEAM-NET
 10
-92.082203
 20
-27.317938
 30
60.0
 70
    64
  0
VERTEX
  5
10D
  8
TEAM-NET
 10
-91.140345
 20
-35.288495
 30
60.0
 70
    64
  0
VERTEX
  5
10E
  8
TEAM-NET
 10
-89.901088
 20
-43.218256
 30
60.0
 70
    64
  0
VERTEX
  5
10F
  8
TEAM-NET
 10
-88.366167
 20
-51.096129
 30
60.0
 70
    64
  0
VERTEX
  5
110
  8
TEAM-NET
 10
-86.537729
 20
-58.911094
 30
60.0
 70
    64
  0
VERTEX
  5
111
  8
TEAM-NET
 10
-84.418331
 20
-66.65222
 30
60.0
 70
    64
  0
VERTEX
  5
112
  8
TEAM-NET
 10
-82.010938
 20
-74.308676
 30
60.0
 70
    64
  0
VERTEX
  5
113
  8
TEAM-NET
 10
-79.318918
 20
-81.869754
 30
60.0
 70
    64
  0
VERTEX
  5
114
  8
TEAM-NET
 10
-76.346037
 20
-89.324876
 30
60.0
 70
    64
  0
VERTEX
  5
115
  8
TEAM-NET
 10
-73.096452
 20
-96.663614
 30
60.0
 70
    64
  0
VERTEX
  5
116
  8
TEAM-NET
 10
0.0
 20
0.0
 30
415.0
 70
    64
  0
VERTEX
  5
117
  8
TEAM-NET
 10
-20.12592
 20
0.0
 30
415.0
 70
    64
  0
VERTEX
  5
118
  8
TEAM-NET
 10
-40.251841
 20
0.0
 30
415.0
 70
    64
  0
VERTEX
  5
119
  8
TEAM-NET
 10
-60.377761
 20
0.0
 30
415.0
 70
    64
  0
VERTEX
  5
11A
  8
TEAM-NET
 10
-80.503682
 20
0.0
 30
415.0
 70
    64
  0
VERTEX
  5
11B
  8
TEAM-NET
 10
-100.629602
 20
0.0
 30
415.0
 70
    64
  0
VERTEX
  5
11C
  8
TEAM-NET
 10
-120.755523
 20
0.0
 30
415.0
 70
    64
  0
VERTEX
  5
11D
  8
TEAM-NET
 10
-140.881443
 20
0.0
 30
415.0
 70
    64
  0
VERTEX
  5
11E
  8
TEAM-NET
 10
-161.007364
 20
0.0
 30
415.0
 70
    64
  0
VERTEX
  5
11F
  8
TEAM-NET
 10
-179.74138
 20
-1.595455
 30
415.0
 70
    64
  0
VERTEX
  5
120
  8
TEAM-NET
 10
-182.348828
 20
-21.551645
 30
415.0
 70
    64
  0
VERTEX
  5
121
  8
TEAM-NET
 10
-184.729113
 20
-41.536203
 30
415.0
 70
    64
  0
VERTEX
  5
122
  8
TEAM-NET
 10
-186.881928
 20
-61.546543
 30
415.0
 70
    64
  0
VERTEX
  5
123
  8
TEAM-NET
 10
-188.806995
 20
-81.580075
 30
415.0
 70
    64
  0
VERTEX
  5
124
  8
TEAM-NET
 10
-190.504065
 20
-101.634209
 30
415.0
 70
    64
  0
VERTEX
  5
125
  8
TEAM-NET
 10
-191.972917
 20
-121.706348
 30
415.0
 70
    64
  0
VERTEX
  5
126
  8
TEAM-NET
 10
-193.213362
 20
-141.793896
 30
415.0
 70
    64
  0
VERTEX
  5
127
  8
TEAM-NET
 10
-194.225239
 20
-161.894255
 30
415.0
 70
    64
  0
VERTEX
  5
128
  8
TEAM-NET
 10
-195.008418
 20
-182.004823
 30
415.0
 70
    64
  0
VERTEX
  5
129
  8
TEAM-NET
 10
-195.562797
 20
-202.122998
 30
415.0
 70
    64
  0
VERTEX
  5
12A
  8
TEAM-NET
 10
-195.888305
 20
-222.246177
 30
415.0
 70
    64
  0
VERTEX
  5
12B
  8
TEAM-NET
 10
-195.984898
 20
-242.371757
 30
415.0
 70
    64
  0
VERTEX
  5
12C
  8
TEAM-NET
 10
-195.852566
 20
-262.497134
 30
415.0
 70
    64
  0
VERTEX
  5
12D
  8
TEAM-NET
 10
-195.491324
 20
-282.619704
 30
415.0
 70
    64
  0
VERTEX
  5
12E
  8
TEAM-NET
 10
-194.90122
 20
-302.736863
 30
415.0
 70
    64
  0
SEQEND
  5
12F
  8
TEAM-NET
  0
POLYLINE
  5
130
  8
TEAM-NET
 66
     1
 10
0.0
 20
0.0
 30
0.0
 70
    16
 71
     2
 72
    25
  0
VERTEX
  5
131
  8
TEAM-NET
 10
0.0
 20
0.0
 30
415.0
 70
    64
  0
VERTEX
  5
132
  8
TEAM-NET
 10
20.12592
 20
0.0
 30
415.0
 70
    64
  0
VERTEX
  5
133
  8
TEAM-NET
 10
40.251841
 20
0.0
 30
415.0
 70
    64
  0
VERTEX
  5
134
  8
TEAM-NET
 10
60.377761
 20
0.0
 30
415.0
 70
    64
  0
VERTEX
  5
135
  8
TEAM-NET
 10
80.503682
 20
0.0
 30
415.0
 70
    64
  0
VERTEX
  5
136
  8
TEAM-NET
 10
100.629602
 20
0.0
 30
415.0
 70
    64
  0
VERTEX
  5
137
  8
TEAM-NET
 10
120.755523
 20
0.0
 30
415.0
 70
    64
  0
VERTEX
  5
138
  8
TEAM-NET
 10
140.881443
 20
0.0
 30
415.0
 70
    64
  0
VERTEX
  5
139
  8
TEAM-NET
 10
161.007364
 20
0.0
 30
415.0
 70
    64
  0
VERTEX
  5
13A
  8
TEAM-NET
 10
179.74138
 20
-1.595455
 30
415.0
 70
    64
  0
VERTEX
  5
13B
  8
TEAM-NET
 10
182.348828
 20
-21.551645
 30
415.0
 70
    64
  0
VERTEX
  5
13C
  8
TEAM-NET
 10
184.729113
 20
-41.536203
 30
415.0
 70
    64
  0
VERTEX
  5
13D
  8
TEAM-NET
 10
186.881928
 20
-61.546543
 30
415.0
 70
    64
  0
VERTEX
  5
13E
  8
TEAM-NET
 10
188.806995
 20
-81.580075
 30
415.0
 70
    64
  0
VERTEX
  5
13F
  8
TEAM-NET
 10
190.504065
 20
-101.634209
 30
415.0
 70
    64
  0
VERTEX
  5
140
  8
TEAM-NET
 10
191.972917
 20
-121.706348
 30
415.0
 70
    64
  0
VERTEX
  5
141
  8
TEAM-NET
 10
193.213362
 20
-141.793896
 30
415.0
 70
    64
  0
VERTEX
  5
142
  8
TEAM-NET
 10
194.225239
 20
-161.894255
 30
415.0
 70
    64
  0
VERTEX
  5
143
  8
TEAM-NET
 10
195.008418
 20
-182.004823
 30
415.0
 70
    64
  0
VERTEX
  5
144
  8
TEAM-NET
 10
195.562797
 20
-202.122998
 30
415.0
 70
    64
  0
VERTEX
  5
145
  8
TEAM-NET
 10
195.888305
 20
-222.246177
 30
415.0
 70
    64
  0
VERTEX
  5
146
  8
TEAM-NET
 10
195.984898
 20
-242.371757
 30
415.0
 70
    64
  0
VERTEX
  5
147
  8
TEAM-NET
 10
195.852566
 20
-262.497134
 30
415.0
 70
    64
  0
VERTEX
  5
148
  8
TEAM-NET
 10
195.491324
 20
-282.619704
 30
415.0
 70
    64
  0
VERTEX
  5
149
  8
TEAM-NET
 10
194.90122
 20
-302.736863
 30
415.0
 70
    64
  0
VERTEX
  5
14A
  8
TEAM-NET
 10
0.0
 20
0.0
 30
60.0
 70
    64
  0
VERTEX
  5
14B
  8
TEAM-NET
 10
8.02648
 20
0.0
 30
60.0
 70
    64
  0
VERTEX
  5
14C
  8
TEAM-NET
 10
16.05296
 20
0.0
 30
60.0
 70
    64
  0
VERTEX
  5
14D
  8
TEAM-NET
 10
24.07944
 20
0.0
 30
60.0
 70
    64
  0
VERTEX
  5
14E
  8
TEAM-NET
 10
32.10592
 20
0.0
 30
60.0
 70
    64
  0
VERTEX
  5
14F
  8
TEAM-NET
 10
40.132399
 20
0.0
 30
60.0
 70
    64
  0
VERTEX
  5
150
  8
TEAM-NET
 10
48.158879
 20
0.0
 30
60.0
 70
    64
  0
VERTEX
  5
151
  8
TEAM-NET
 10
56.185359
 20
0.0
 30
60.0
 70
    64
  0
VERTEX
  5
152
  8
TEAM-NET
 10
64.211839
 20
0.0
 30
60.0
 70
    64
  0
VERTEX
  5
153
  8
TEAM-NET
 10
72.238319
 20
0.0
 30
60.0
 70
    64
  0
VERTEX
  5
154
  8
TEAM-NET
 10
80.264799
 20
0.0
 30
60.0
 70
    64
  0
VERTEX
  5
155
  8
TEAM-NET
 10
88.291279
 20
0.0
 30
60.0
 70
    64
  0
VERTEX
  5
156
  8
TEAM-NET
 10
93.112307
 20
-3.273184
 30
60.0
 70
    64
  0
VERTEX
  5
157
  8
TEAM-NET
 10
93.068874
 20
-11.299079
 30
60.0
 70
    64
  0
VERTEX
  5
158
  8
TEAM-NET
 10
92.725346
 20
-19.317736
 30
60.0
 70
    64
  0
VERTEX
  5
159
  8
TEAM-NET
 10
92.082203
 20
-27.317938
 30
60.0
 70
    64
  0
VERTEX
  5
15A
  8
TEAM-NET
 10
91.140345
 20
-35.288495
 30
60.0
 70
    64
  0
VERTEX
  5
15B
  8
TEAM-NET
 10
89.901088
 20
-43.218256
 30
60.0
 70
    64
  0
VERTEX
  5
15C
  8
TEAM-NET
 10
88.366167
 20
-51.096129
 30
60.0
 70
    64
  0
VERTEX
  5
15D
  8
TEAM-NET
 10
86.537729
 20
-58.911094
 30
60.0
 70
    64
  0
VERTEX
  5
15E
  8
TEAM-NET
 10
84.418331
 20
-66.65222
 30
60.0
 70
    64
  0
VERTEX
  5
15F
  8
TEAM-NET
 10
82.010938
 20
-74.308676
 30
60.0
 70
    64
  0
VERTEX
  5
160
  8
TEAM-NET
 10
79.318918
 20
-81.869754
 30
60.0
 70
    64
  0
VERTEX
  5
161
  8
TEAM-NET
 10
76.346037
 20
-89.324876
 30
60.0
 70
    64
  0
VERTEX
  5
162
  8
TEAM-NET
 10
73.096452
 20
-96.663614
 30
60.0
 70
    64
  0
SEQEND
  5
163
  8
TEAM-NET
  0
CIRCLE
  5
164
  8
TEAM-INSP
 10
0.0
 20
0.0
 30
0.0
 40
10.0
  0
POLYLINE
  5
166
  8
TEAM-BODY
 66
     1
 10
0.0
 20
0.0
 30
-60.0
 70
   128
210
0.0
220
0.0
230
-1.0
  0
VERTEX
  5
9F5
  8
TEAM-BODY
 10
-93.043826
 20
0.0
 30
-60.0
  0
VERTEX
  5
9F6
  8
TEAM-BODY
 10
-92.247824
 20
-20.392381
 30
-60.0
  0
VERTEX
  5
9F7
  8
TEAM-BODY
 10
-89.873435
 20
-40.435842
 30
-60.0
  0
VERTEX
  5
9F8
  8
TEAM-BODY
 10
-85.961287
 20
-59.787434
 30
-60.0
  0
VERTEX
  5
9F9
  8
TEAM-BODY
 10
-80.578317
 20
-78.116048
 30
-60.0
  0
VERTEX
  5
9FA
  8
TEAM-BODY
 10
-73.81663
 20
-95.108074
 30
-60.0
  0
VERTEX
  5
9FB
  8
TEAM-BODY
 10
-65.791921
 20
-110.472774
 30
-60.0
  0
VERTEX
  5
9FC
  8
TEAM-BODY
 10
-56.641493
 20
-123.947255
 30
-60.0
  0
VERTEX
  5
9FD
  8
TEAM-BODY
 10
-46.521913
 20
-135.300963
 30
-60.0
  0
VERTEX
  5
9FE
  8
TEAM-BODY
 10
-35.606331
 20
-144.339635
 30
-60.0
  0
VERTEX
  5
9FF
  8
TEAM-BODY
 10
-24.081514
 20
-150.908616
 30
-60.0
  0
VERTEX
  5
A00
  8
TEAM-BODY
 10
-12.144656
 20
-154.895508
 30
-60.0
  0
VERTEX
  5
A01
  8
TEAM-BODY
 10
0.0
 20
-156.232095
 30
-60.0
  0
SEQEND
  5
A02
  8
TEAM-BODY
  0
POLYLINE
  5
168
  8
TEAM-BODY
 66
     1
 10
0.0
 20
0.0
 30
60.0
  0
VERTEX
  5
A03
  8
TEAM-BODY
 10
0.0
 20
0.0
 30
60.0
  0
VERTEX
  5
A04
  8
TEAM-BODY
 10
93.043826
 20
0.0
 30
60.0
 42
-0.116548
  0
VERTEX
  5
A05
  8
TEAM-BODY
 10
73.096452
 20
-96.663614
 30
60.0
  0
SEQEND
  5
A06
  8
TEAM-BODY
  0
POLYLINE
  5
169
  8
TEAM-NET
 66
     1
 10
0.0
 20
0.0
 30
0.0
 70
    16
 71
     2
 72
    25
  0
VERTEX
  5
16A
  8
TEAM-NET
 10
0.0
 20
-156.232095
 30
60.0
 70
    64
  0
VERTEX
  5
16B
  8
TEAM-NET
 10
8.258496
 20
-155.615465
 30
60.0
 70
    64
  0
VERTEX
  5
16C
  8
TEAM-NET
 10
16.340065
 20
-153.804028
 30
60.0
 70
    64
  0
VERTEX
  5
16D
  8
TEAM-NET
 10
24.097866
 20
-150.901256
 30
60.0
 70
    64
  0
VERTEX
  5
16E
  8
TEAM-NET
 10
31.43127
 20
-147.047804
 30
60.0
 70
    64
  0
VERTEX
  5
16F
  8
TEAM-NET
 10
38.285359
 20
-142.393106
 30
60.0
 70
    64
  0
VERTEX
  5
170
  8
TEAM-NET
 10
44.640635
 20
-137.076232
 30
60.0
 70
    64
  0
VERTEX
  5
171
  8
TEAM-NET
 10
50.500731
 20
-131.21715
 30
60.0
 70
    64
  0
VERTEX
  5
172
  8
TEAM-NET
 10
55.882323
 20
-124.915063
 30
60.0
 70
    64
  0
VERTEX
  5
173
  8
TEAM-NET
 10
60.808238
 20
-118.250275
 30
60.0
 70
    64
  0
VERTEX
  5
174
  8
TEAM-NET
 10
65.303251
 20
-111.287261
 30
60.0
 70
    64
  0
VERTEX
  5
175
  8
TEAM-NET
 10
69.391733
 20
-104.077786
 30
60.0
 70
    64
  0
VERTEX
  5
176
  8
TEAM-NET
 10
73.096452
 20
-96.663614
 30
60.0
 70
    64
  0
VERTEX
  5
177
  8
TEAM-NET
 10
76.438048
 20
-89.078715
 30
60.0
 70
    64
  0
VERTEX
  5
178
  8
TEAM-NET
 10
79.434867
 20
-81.350998
 30
60.0
 70
    64
  0
VERTEX
  5
179
  8
TEAM-NET
 10
82.102999
 20
-73.50365
 30
60.0
 70
    64
  0
VERTEX
  5
17A
  8
TEAM-NET
 10
84.456401
 20
-65.556181
 30
60.0
 70
    64
  0
VERTEX
  5
17B
  8
TEAM-NET
 10
86.50705
 20
-57.525218
 30
60.0
 70
    64
  0
VERTEX
  5
17C
  8
TEAM-NET
 10
88.265112
 20
-49.425133
 30
60.0
 70
    64
  0
VERTEX
  5
17D
  8
TEAM-NET
 10
89.739087
 20
-41.268539
 30
60.0
 70
    64
  0
VERTEX
  5
17E
  8
TEAM-NET
 10
90.935947
 20
-33.066679
 30
60.0
 70
    64
  0
VERTEX
  5
17F
  8
TEAM-NET
 10
91.861247
 20
-24.829744
 30
60.0
 70
    64
  0
VERTEX
  5
180
  8
TEAM-NET
 10
92.519214
 20
-16.567145
 30
60.0
 70
    64
  0
VERTEX
  5
181
  8
TEAM-NET
 10
92.912819
 20
-8.287732
 30
60.0
 70
    64
  0
VERTEX
  5
182
  8
TEAM-NET
 10
93.043826
 20
0.0
 30
60.0
 70
    64
  0
VERTEX
  5
183
  8
TEAM-NET
 10
0.0
 20
-156.232095
 30
60.0
 70
    64
  0
VERTEX
  5
184
  8
TEAM-NET
 10
-8.258496
 20
-155.615465
 30
60.0
 70
    64
  0
VERTEX
  5
185
  8
TEAM-NET
 10
-16.340065
 20
-153.804028
 30
60.0
 70
    64
  0
VERTEX
  5
186
  8
TEAM-NET
 10
-24.097866
 20
-150.901256
 30
60.0
 70
    64
  0
VERTEX
  5
187
  8
TEAM-NET
 10
-31.43127
 20
-147.047804
 30
60.0
 70
    64
  0
VERTEX
  5
188
  8
TEAM-NET
 10
-38.285359
 20
-142.393106
 30
60.0
 70
    64
  0
VERTEX
  5
189
  8
TEAM-NET
 10
-44.640635
 20
-137.076232
 30
60.0
 70
    64
  0
VERTEX
  5
18A
  8
TEAM-NET
 10
-50.500731
 20
-131.21715
 30
60.0
 70
    64
  0
VERTEX
  5
18B
  8
TEAM-NET
 10
-55.882323
 20
-124.915063
 30
60.0
 70
    64
  0
VERTEX
  5
18C
  8
TEAM-NET
 10
-60.808238
 20
-118.250275
 30
60.0
 70
    64
  0
VERTEX
  5
18D
  8
TEAM-NET
 10
-65.303251
 20
-111.287261
 30
60.0
 70
    64
  0
VERTEX
  5
18E
  8
TEAM-NET
 10
-69.391733
 20
-104.077786
 30
60.0
 70
    64
  0
VERTEX
  5
18F
  8
TEAM-NET
 10
-73.096452
 20
-96.663614
 30
60.0
 70
    64
  0
VERTEX
  5
190
  8
TEAM-NET
 10
-76.438048
 20
-89.078715
 30
60.0
 70
    64
  0
VERTEX
  5
191
  8
TEAM-NET
 10
-79.434867
 20
-81.350998
 30
60.0
 70
    64
  0
VERTEX
  5
192
  8
TEAM-NET
 10
-82.102999
 20
-73.50365
 30
60.0
 70
    64
  0
VERTEX
  5
193
  8
TEAM-NET
 10
-84.456401
 20
-65.556181
 30
60.0
 70
    64
  0
VERTEX
  5
194
  8
TEAM-NET
 10
-86.50705
 20
-57.525218
 30
60.0
 70
    64
  0
VERTEX
  5
195
  8
TEAM-NET
 10
-88.265112
 20
-49.425133
 30
60.0
 70
    64
  0
VERTEX
  5
196
  8
TEAM-NET
 10
-89.739087
 20
-41.268539
 30
60.0
 70
    64
  0
VERTEX
  5
197
  8
TEAM-NET
 10
-90.935947
 20
-33.066679
 30
60.0
 70
    64
  0
VERTEX
  5
198
  8
TEAM-NET
 10
-91.861247
 20
-24.829744
 30
60.0
 70
    64
  0
VERTEX
  5
199
  8
TEAM-NET
 10
-92.519214
 20
-16.567145
 30
60.0
 70
    64
  0
VERTEX
  5
19A
  8
TEAM-NET
 10
-92.912819
 20
-8.287732
 30
60.0
 70
    64
  0
VERTEX
  5
19B
  8
TEAM-NET
 10
-93.043826
 20
0.0
 30
60.0
 70
    64
  0
SEQEND
  5
19C
  8
TEAM-NET
  0
POLYLINE
  5
19D
  8
TEAM-BODY
 66
     1
 10
0.0
 20
0.0
 30
60.0
 70
   128
  0
VERTEX
  5
A07
  8
TEAM-BODY
 10
-93.043826
 20
0.0
 30
60.0
  0
VERTEX
  5
A08
  8
TEAM-BODY
 10
-92.247824
 20
-20.392381
 30
60.0
  0
VERTEX
  5
A09
  8
TEAM-BODY
 10
-89.873435
 20
-40.435842
 30
60.0
  0
VERTEX
  5
A0A
  8
TEAM-BODY
 10
-85.961287
 20
-59.787434
 30
60.0
  0
VERTEX
  5
A0B
  8
TEAM-BODY
 10
-80.578317
 20
-78.116048
 30
60.0
  0
VERTEX
  5
A0C
  8
TEAM-BODY
 10
-73.81663
 20
-95.108074
 30
60.0
  0
VERTEX
  5
A0D
  8
TEAM-BODY
 10
-65.791921
 20
-110.472774
 30
60.0
  0
VERTEX
  5
A0E
  8
TEAM-BODY
 10
-56.641493
 20
-123.947255
 30
60.0
  0
VERTEX
  5
A0F
  8
TEAM-BODY
 10
-46.521913
 20
-135.300963
 30
60.0
  0
VERTEX
  5
A10
  8
TEAM-BODY
 10
-35.606331
 20
-144.339635
 30
60.0
  0
VERTEX
  5
A11
  8
TEAM-BODY
 10
-24.081514
 20
-150.908616
 30
60.0
  0
VERTEX
  5
A12
  8
TEAM-BODY
 10
-12.144656
 20
-154.895508
 30
60.0
  0
VERTEX
  5
A13
  8
TEAM-BODY
 10
0.0
 20
-156.232095
 30
60.0
  0
SEQEND
  5
A14
  8
TEAM-BODY
  0
POLYLINE
  5
19E
  8
TEAM-BODY
 66
     1
 10
0.0
 20
0.0
 30
60.0
  0
VERTEX
  5
A15
  8
TEAM-BODY
 10
0.0
 20
0.0
 30
60.0
  0
VERTEX
  5
A16
  8
TEAM-BODY
 10
-93.043826
 20
0.0
 30
60.0
 42
0.116548
  0
VERTEX
  5
A17
  8
TEAM-BODY
 10
-73.096452
 20
-96.663614
 30
60.0
  0
SEQEND
  5
A18
  8
TEAM-BODY
  0
POLYLINE
  5
19F
  8
TEAM-NET
 66
     1
 10
0.0
 20
0.0
 30
0.0
 70
    16
 71
    13
 72
    13
  0
VERTEX
  5
1A0
  8
TEAM-NET
 10
0.0
 20
-546.978484
 30
415.0
 70
    64
  0
VERTEX
  5
1A1
  8
TEAM-NET
 10
-44.004061
 20
-536.629064
 30
415.0
 70
    64
  0
VERTEX
  5
1A2
  8
TEAM-NET
 10
-80.5699
 20
-509.784292
 30
415.0
 70
    64
  0
VERTEX
  5
1A3
  8
TEAM-NET
 10
-107.706227
 20
-473.29992
 30
415.0
 70
    64
  0
VERTEX
  5
1A4
  8
TEAM-NET
 10
-126.124819
 20
-431.674761
 30
415.0
 70
    64
  0
VERTEX
  5
1A5
  8
TEAM-NET
 10
-136.776948
 20
-387.399292
 30
415.0
 70
    64
  0
VERTEX
  5
1A6
  8
TEAM-NET
 10
-140.262151
 20
-341.986133
 30
415.0
 70
    64
  0
VERTEX
  5
1A7
  8
TEAM-NET
 10
-136.776948
 20
-296.572975
 30
415.0
 70
    64
  0
VERTEX
  5
1A8
  8
TEAM-NET
 10
-126.124819
 20
-252.297505
 30
415.0
 70
    64
  0
VERTEX
  5
1A9
  8
TEAM-NET
 10
-107.706227
 20
-210.672346
 30
415.0
 70
    64
  0
VERTEX
  5
1AA
  8
TEAM-NET
 10
-80.5699
 20
-174.187974
 30
415.0
 70
    64
  0
VERTEX
  5
1AB
  8
TEAM-NET
 10
-44.004061
 20
-147.343202
 30
415.0
 70
    64
  0
VERTEX
  5
1AC
  8
TEAM-NET
 10
0.0
 20
-136.993782
 30
415.0
 70
    64
  0
VERTEX
  5
1AD
  8
TEAM-NET
 10
0.0
 20
-546.978484
 30
415.0
 70
    64
  0
VERTEX
  5
1AE
  8
TEAM-NET
 10
-42.504659
 20
-536.629064
 30
403.610911
 70
    64
  0
VERTEX
  5
1AF
  8
TEAM-NET
 10
-77.824547
 20
-509.784292
 30
394.146975
 70
    64
  0
VERTEX
  5
1B0
  8
TEAM-NET
 10
-104.036226
 20
-473.29992
 30
387.123577
 70
    64
  0
VERTEX
  5
1B1
  8
TEAM-NET
 10
-121.82722
 20
-431.674761
 30
382.356495
 70
    64
  0
VERTEX
  5
1B2
  8
TEAM-NET
 10
-132.116387
 20
-387.399292
 30
379.599521
 70
    64
  0
VERTEX
  5
1B3
  8
TEAM-NET
 10
-135.482834
 20
-341.986133
 30
378.697484
 70
    64
  0
VERTEX
  5
1B4
  8
TEAM-NET
 10
-132.116387
 20
-296.572975
 30
379.599521
 70
    64
  0
VERTEX
  5
1B5
  8
TEAM-NET
 10
-121.82722
 20
-252.297505
 30
382.356495
 70
    64
  0
VERTEX
  5
1B6
  8
TEAM-NET
 10
-104.036226
 20
-210.672346
 30
387.123577
 70
    64
  0
VERTEX
  5
1B7
  8
TEAM-NET
 10
-77.824547
 20
-174.187974
 30
394.146975
 70
    64
  0
VERTEX
  5
1B8
  8
TEAM-NET
 10
-42.504659
 20
-147.343202
 30
403.610911
 70
    64
  0
VERTEX
  5
1B9
  8
TEAM-NET
 10
0.0
 20
-136.993782
 30
415.0
 70
    64
  0
VERTEX
  5
1BA
  8
TEAM-NET
 10
0.0
 20
-546.978484
 30
415.0
 70
    64
  0
VERTEX
  5
1BB
  8
TEAM-NET
 10
-38.108634
 20
-536.629064
 30
392.99797
 70
    64
  0
VERTEX
  5
1BC
  8
TEAM-NET
 10
-69.77558
 20
-509.784292
 30
374.71505
 70
    64
  0
VERTEX
  5
1BD
  8
TEAM-NET
 10
-93.276329
 20
-473.29992
 30
361.146887
 70
    64
  0
VERTEX
  5
1BE
  8
TEAM-NET
 10
-109.227297
 20
-431.674761
 30
351.937591
 70
    64
  0
VERTEX
  5
1BF
  8
TEAM-NET
 10
-118.452312
 20
-387.399292
 30
346.611526
 70
    64
  0
VERTEX
  5
1C0
  8
TEAM-NET
 10
-121.470586
 20
-341.986133
 30
344.868925
 70
    64
  0
VERTEX
  5
1C1
  8
TEAM-NET
 10
-118.452312
 20
-296.572975
 30
346.611526
 70
    64
  0
VERTEX
  5
1C2
  8
TEAM-NET
 10
-109.227297
 20
-252.297505
 30
351.937591
 70
    64
  0
VERTEX
  5
1C3
  8
TEAM-NET
 10
-93.276329
 20
-210.672346
 30
361.146887
 70
    64
  0
VERTEX
  5
1C4
  8
TEAM-NET
 10
-69.77558
 20
-174.187974
 30
374.71505
 70
    64
  0
VERTEX
  5
1C5
  8
TEAM-NET
 10
-38.108634
 20
-147.343202
 30
392.99797
 70
    64
  0
VERTEX
  5
1C6
  8
TEAM-NET
 10
0.0
 20
-136.993782
 30
415.0
 70
    64
  0
VERTEX
  5
1C7
  8
TEAM-NET
 10
0.0
 20
-546.978484
 30
415.0
 70
    64
  0
VERTEX
  5
1C8
  8
TEAM-NET
 10
-31.11557
 20
-536.629064
 30
383.88443
 70
    64
  0
VERTEX
  5
1C9
  8
TEAM-NET
 10
-56.971523
 20
-509.784292
 30
358.028477
 70
    64
  0
VERTEX
  5
1CA
  8
TEAM-NET
 10
-76.159803
 20
-473.29992
 30
338.840197
 70
    64
  0
VERTEX
  5
1CB
  8
TEAM-NET
 10
-89.183715
 20
-431.674761
 30
325.816285
 70
    64
  0
VERTEX
  5
1CC
  8
TEAM-NET
 10
-96.715908
 20
-387.399292
 30
318.284092
 70
    64
  0
VERTEX
  5
1CD
  8
TEAM-NET
 10
-99.180318
 20
-341.986133
 30
315.819682
 70
    64
  0
VERTEX
  5
1CE
  8
TEAM-NET
 10
-96.715908
 20
-296.572975
 30
318.284092
 70
    64
  0
VERTEX
  5
1CF
  8
TEAM-NET
 10
-89.183715
 20
-252.297505
 30
325.816285
 70
    64
  0
VERTEX
  5
1D0
  8
TEAM-NET
 10
-76.159803
 20
-210.672346
 30
338.840197
 70
    64
  0
VERTEX
  5
1D1
  8
TEAM-NET
 10
-56.971523
 20
-174.187974
 30
358.028477
 70
    64
  0
VERTEX
  5
1D2
  8
TEAM-NET
 10
-31.11557
 20
-147.343202
 30
383.88443
 70
    64
  0
VERTEX
  5
1D3
  8
TEAM-NET
 10
0.0
 20
-136.993782
 30
415.0
 70
    64
  0
VERTEX
  5
1D4
  8
TEAM-NET
 10
0.0
 20
-546.978484
 30
415.0
 70
    64
  0
VERTEX
  5
1D5
  8
TEAM-NET
 10
-22.00203
 20
-536.629064
 30
376.891366
 70
    64
  0
VERTEX
  5
1D6
  8
TEAM-NET
 10
-40.28495
 20
-509.784292
 30
345.22442
 70
    64
  0
VERTEX
  5
1D7
  8
TEAM-NET
 10
-53.853113
 20
-473.29992
 30
321.723671
 70
    64
  0
VERTEX
  5
1D8
  8
TEAM-NET
 10
-63.062409
 20
-431.674761
 30
305.772703
 70
    64
  0
VERTEX
  5
1D9
  8
TEAM-NET
 10
-68.388474
 20
-387.399292
 30
296.547688
 70
    64
  0
VERTEX
  5
1DA
  8
TEAM-NET
 10
-70.131075
 20
-341.986133
 30
293.529414
 70
    64
  0
VERTEX
  5
1DB
  8
TEAM-NET
 10
-68.388474
 20
-296.572975
 30
296.547688
 70
    64
  0
VERTEX
  5
1DC
  8
TEAM-NET
 10
-63.062409
 20
-252.297505
 30
305.772703
 70
    64
  0
VERTEX
  5
1DD
  8
TEAM-NET
 10
-53.853113
 20
-210.672346
 30
321.723671
 70
    64
  0
VERTEX
  5
1DE
  8
TEAM-NET
 10
-40.28495
 20
-174.187974
 30
345.22442
 70
    64
  0
VERTEX
  5
1DF
  8
TEAM-NET
 10
-22.00203
 20
-147.343202
 30
376.891366
 70
    64
  0
VERTEX
  5
1E0
  8
TEAM-NET
 10
0.0
 20
-136.993782
 30
415.0
 70
    64
  0
VERTEX
  5
1E1
  8
TEAM-NET
 10
0.0
 20
-546.978484
 30
415.0
 70
    64
  0
VERTEX
  5
1E2
  8
TEAM-NET
 10
-11.389089
 20
-536.629064
 30
372.495341
 70
    64
  0
VERTEX
  5
1E3
  8
TEAM-NET
 10
-20.853025
 20
-509.784292
 30
337.175453
 70
    64
  0
VERTEX
  5
1E4
  8
TEAM-NET
 10
-27.876423
 20
-473.29992
 30
310.963774
 70
    64
  0
VERTEX
  5
1E5
  8
TEAM-NET
 10
-32.643505
 20
-431.674761
 30
293.17278
 70
    64
  0
VERTEX
  5
1E6
  8
TEAM-NET
 10
-35.400479
 20
-387.399292
 30
282.883613
 70
    64
  0
VERTEX
  5
1E7
  8
TEAM-NET
 10
-36.302516
 20
-341.986133
 30
279.517166
 70
    64
  0
VERTEX
  5
1E8
  8
TEAM-NET
 10
-35.400479
 20
-296.572975
 30
282.883613
 70
    64
  0
VERTEX
  5
1E9
  8
TEAM-NET
 10
-32.643505
 20
-252.297505
 30
293.17278
 70
    64
  0
VERTEX
  5
1EA
  8
TEAM-NET
 10
-27.876423
 20
-210.672346
 30
310.963774
 70
    64
  0
VERTEX
  5
1EB
  8
TEAM-NET
 10
-20.853025
 20
-174.187974
 30
337.175453
 70
    64
  0
VERTEX
  5
1EC
  8
TEAM-NET
 10
-11.389089
 20
-147.343202
 30
372.495341
 70
    64
  0
VERTEX
  5
1ED
  8
TEAM-NET
 10
0.0
 20
-136.993782
 30
415.0
 70
    64
  0
VERTEX
  5
1EE
  8
TEAM-NET
 10
0.0
 20
-546.978484
 30
415.0
 70
    64
  0
VERTEX
  5
1EF
  8
TEAM-NET
 10
0.0
 20
-536.629064
 30
370.995939
 70
    64
  0
VERTEX
  5
1F0
  8
TEAM-NET
 10
0.0
 20
-509.784292
 30
334.4301
 70
    64
  0
VERTEX
  5
1F1
  8
TEAM-NET
 10
0.0
 20
-473.29992
 30
307.293773
 70
    64
  0
VERTEX
  5
1F2
  8
TEAM-NET
 10
0.0
 20
-431.674761
 30
288.875181
 70
    64
  0
VERTEX
  5
1F3
  8
TEAM-NET
 10
0.0
 20
-387.399292
 30
278.223052
 70
    64
  0
VERTEX
  5
1F4
  8
TEAM-NET
 10
0.0
 20
-341.986133
 30
274.737849
 70
    64
  0
VERTEX
  5
1F5
  8
TEAM-NET
 10
0.0
 20
-296.572975
 30
278.223052
 70
    64
  0
VERTEX
  5
1F6
  8
TEAM-NET
 10
0.0
 20
-252.297505
 30
288.875181
 70
    64
  0
VERTEX
  5
1F7
  8
TEAM-NET
 10
0.0
 20
-210.672346
 30
307.293773
 70
    64
  0
VERTEX
  5
1F8
  8
TEAM-NET
 10
0.0
 20
-174.187974
 30
334.4301
 70
    64
  0
VERTEX
  5
1F9
  8
TEAM-NET
 10
0.0
 20
-147.343202
 30
370.995939
 70
    64
  0
VERTEX
  5
1FA
  8
TEAM-NET
 10
0.0
 20
-136.993782
 30
415.0
 70
    64
  0
VERTEX
  5
1FB
  8
TEAM-NET
 10
0.0
 20
-546.978484
 30
415.0
 70
    64
  0
VERTEX
  5
1FC
  8
TEAM-NET
 10
11.389089
 20
-536.629064
 30
372.495341
 70
    64
  0
VERTEX
  5
1FD
  8
TEAM-NET
 10
20.853025
 20
-509.784292
 30
337.175453
 70
    64
  0
VERTEX
  5
1FE
  8
TEAM-NET
 10
27.876423
 20
-473.29992
 30
310.963774
 70
    64
  0
VERTEX
  5
1FF
  8
TEAM-NET
 10
32.643505
 20
-431.674761
 30
293.17278
 70
    64
  0
VERTEX
  5
200
  8
TEAM-NET
 10
35.400479
 20
-387.399292
 30
282.883613
 70
    64
  0
VERTEX
  5
201
  8
TEAM-NET
 10
36.302516
 20
-341.986133
 30
279.517166
 70
    64
  0
VERTEX
  5
202
  8
TEAM-NET
 10
35.400479
 20
-296.572975
 30
282.883613
 70
    64
  0
VERTEX
  5
203
  8
TEAM-NET
 10
32.643505
 20
-252.297505
 30
293.17278
 70
    64
  0
VERTEX
  5
204
  8
TEAM-NET
 10
27.876423
 20
-210.672346
 30
310.963774
 70
    64
  0
VERTEX
  5
205
  8
TEAM-NET
 10
20.853025
 20
-174.187974
 30
337.175453
 70
    64
  0
VERTEX
  5
206
  8
TEAM-NET
 10
11.389089
 20
-147.343202
 30
372.495341
 70
    64
  0
VERTEX
  5
207
  8
TEAM-NET
 10
0.0
 20
-136.993782
 30
415.0
 70
    64
  0
VERTEX
  5
208
  8
TEAM-NET
 10
0.0
 20
-546.978484
 30
415.0
 70
    64
  0
VERTEX
  5
209
  8
TEAM-NET
 10
22.00203
 20
-536.629064
 30
376.891366
 70
    64
  0
VERTEX
  5
20A
  8
TEAM-NET
 10
40.28495
 20
-509.784292
 30
345.22442
 70
    64
  0
VERTEX
  5
20B
  8
TEAM-NET
 10
53.853113
 20
-473.29992
 30
321.723671
 70
    64
  0
VERTEX
  5
20C
  8
TEAM-NET
 10
63.062409
 20
-431.674761
 30
305.772703
 70
    64
  0
VERTEX
  5
20D
  8
TEAM-NET
 10
68.388474
 20
-387.399292
 30
296.547688
 70
    64
  0
VERTEX
  5
20E
  8
TEAM-NET
 10
70.131075
 20
-341.986133
 30
293.529414
 70
    64
  0
VERTEX
  5
20F
  8
TEAM-NET
 10
68.388474
 20
-296.572975
 30
296.547688
 70
    64
  0
VERTEX
  5
210
  8
TEAM-NET
 10
63.062409
 20
-252.297505
 30
305.772703
 70
    64
  0
VERTEX
  5
211
  8
TEAM-NET
 10
53.853113
 20
-210.672346
 30
321.723671
 70
    64
  0
VERTEX
  5
212
  8
TEAM-NET
 10
40.28495
 20
-174.187974
 30
345.22442
 70
    64
  0
VERTEX
  5
213
  8
TEAM-NET
 10
22.00203
 20
-147.343202
 30
376.891366
 70
    64
  0
VERTEX
  5
214
  8
TEAM-NET
 10
0.0
 20
-136.993782
 30
415.0
 70
    64
  0
VERTEX
  5
215
  8
TEAM-NET
 10
0.0
 20
-546.978484
 30
415.0
 70
    64
  0
VERTEX
  5
216
  8
TEAM-NET
 10
31.11557
 20
-536.629064
 30
383.88443
 70
    64
  0
VERTEX
  5
217
  8
TEAM-NET
 10
56.971523
 20
-509.784292
 30
358.028477
 70
    64
  0
VERTEX
  5
218
  8
TEAM-NET
 10
76.159803
 20
-473.29992
 30
338.840197
 70
    64
  0
VERTEX
  5
219
  8
TEAM-NET
 10
89.183715
 20
-431.674761
 30
325.816285
 70
    64
  0
VERTEX
  5
21A
  8
TEAM-NET
 10
96.715908
 20
-387.399292
 30
318.284092
 70
    64
  0
VERTEX
  5
21B
  8
TEAM-NET
 10
99.180318
 20
-341.986133
 30
315.819682
 70
    64
  0
VERTEX
  5
21C
  8
TEAM-NET
 10
96.715908
 20
-296.572975
 30
318.284092
 70
    64
  0
VERTEX
  5
21D
  8
TEAM-NET
 10
89.183715
 20
-252.297505
 30
325.816285
 70
    64
  0
VERTEX
  5
21E
  8
TEAM-NET
 10
76.159803
 20
-210.672346
 30
338.840197
 70
    64
  0
VERTEX
  5
21F
  8
TEAM-NET
 10
56.971523
 20
-174.187974
 30
358.028477
 70
    64
  0
VERTEX
  5
220
  8
TEAM-NET
 10
31.11557
 20
-147.343202
 30
383.88443
 70
    64
  0
VERTEX
  5
221
  8
TEAM-NET
 10
0.0
 20
-136.993782
 30
415.0
 70
    64
  0
VERTEX
  5
222
  8
TEAM-NET
 10
0.0
 20
-546.978484
 30
415.0
 70
    64
  0
VERTEX
  5
223
  8
TEAM-NET
 10
38.108634
 20
-536.629064
 30
392.99797
 70
    64
  0
VERTEX
  5
224
  8
TEAM-NET
 10
69.77558
 20
-509.784292
 30
374.71505
 70
    64
  0
VERTEX
  5
225
  8
TEAM-NET
 10
93.276329
 20
-473.29992
 30
361.146887
 70
    64
  0
VERTEX
  5
226
  8
TEAM-NET
 10
109.227297
 20
-431.674761
 30
351.937591
 70
    64
  0
VERTEX
  5
227
  8
TEAM-NET
 10
118.452312
 20
-387.399292
 30
346.611526
 70
    64
  0
VERTEX
  5
228
  8
TEAM-NET
 10
121.470586
 20
-341.986133
 30
344.868925
 70
    64
  0
VERTEX
  5
229
  8
TEAM-NET
 10
118.452312
 20
-296.572975
 30
346.611526
 70
    64
  0
VERTEX
  5
22A
  8
TEAM-NET
 10
109.227297
 20
-252.297505
 30
351.937591
 70
    64
  0
VERTEX
  5
22B
  8
TEAM-NET
 10
93.276329
 20
-210.672346
 30
361.146887
 70
    64
  0
VERTEX
  5
22C
  8
TEAM-NET
 10
69.77558
 20
-174.187974
 30
374.71505
 70
    64
  0
VERTEX
  5
22D
  8
TEAM-NET
 10
38.108634
 20
-147.343202
 30
392.99797
 70
    64
  0
VERTEX
  5
22E
  8
TEAM-NET
 10
0.0
 20
-136.993782
 30
415.0
 70
    64
  0
VERTEX
  5
22F
  8
TEAM-NET
 10
0.0
 20
-546.978484
 30
415.0
 70
    64
  0
VERTEX
  5
230
  8
TEAM-NET
 10
42.504659
 20
-536.629064
 30
403.610911
 70
    64
  0
VERTEX
  5
231
  8
TEAM-NET
 10
77.824547
 20
-509.784292
 30
394.146975
 70
    64
  0
VERTEX
  5
232
  8
TEAM-NET
 10
104.036226
 20
-473.29992
 30
387.123577
 70
    64
  0
VERTEX
  5
233
  8
TEAM-NET
 10
121.82722
 20
-431.674761
 30
382.356495
 70
    64
  0
VERTEX
  5
234
  8
TEAM-NET
 10
132.116387
 20
-387.399292
 30
379.599521
 70
    64
  0
VERTEX
  5
235
  8
TEAM-NET
 10
135.482834
 20
-341.986133
 30
378.697484
 70
    64
  0
VERTEX
  5
236
  8
TEAM-NET
 10
132.116387
 20
-296.572975
 30
379.599521
 70
    64
  0
VERTEX
  5
237
  8
TEAM-NET
 10
121.82722
 20
-252.297505
 30
382.356495
 70
    64
  0
VERTEX
  5
238
  8
TEAM-NET
 10
104.036226
 20
-210.672346
 30
387.123577
 70
    64
  0
VERTEX
  5
239
  8
TEAM-NET
 10
77.824547
 20
-174.187974
 30
394.146975
 70
    64
  0
VERTEX
  5
23A
  8
TEAM-NET
 10
42.504659
 20
-147.343202
 30
403.610911
 70
    64
  0
VERTEX
  5
23B
  8
TEAM-NET
 10
0.0
 20
-136.993782
 30
415.0
 70
    64
  0
VERTEX
  5
23C
  8
TEAM-NET
 10
0.0
 20
-546.978484
 30
415.0
 70
    64
  0
VERTEX
  5
23D
  8
TEAM-NET
 10
44.004061
 20
-536.629064
 30
415.0
 70
    64
  0
VERTEX
  5
23E
  8
TEAM-NET
 10
80.5699
 20
-509.784292
 30
415.0
 70
    64
  0
VERTEX
  5
23F
  8
TEAM-NET
 10
107.706227
 20
-473.29992
 30
415.0
 70
    64
  0
VERTEX
  5
240
  8
TEAM-NET
 10
126.124819
 20
-431.674761
 30
415.0
 70
    64
  0
VERTEX
  5
241
  8
TEAM-NET
 10
136.776948
 20
-387.399292
 30
415.0
 70
    64
  0
VERTEX
  5
242
  8
TEAM-NET
 10
140.262151
 20
-341.986133
 30
415.0
 70
    64
  0
VERTEX
  5
243
  8
TEAM-NET
 10
136.776948
 20
-296.572975
 30
415.0
 70
    64
  0
VERTEX
  5
244
  8
TEAM-NET
 10
126.124819
 20
-252.297505
 30
415.0
 70
    64
  0
VERTEX
  5
245
  8
TEAM-NET
 10
107.706227
 20
-210.672346
 30
415.0
 70
    64
  0
VERTEX
  5
246
  8
TEAM-NET
 10
80.5699
 20
-174.187974
 30
415.0
 70
    64
  0
VERTEX
  5
247
  8
TEAM-NET
 10
44.004061
 20
-147.343202
 30
415.0
 70
    64
  0
VERTEX
  5
248
  8
TEAM-NET
 10
0.0
 20
-136.993782
 30
415.0
 70
    64
  0
SEQEND
  5
249
  8
TEAM-NET
  0
POLYLINE
  5
24A
  8
TEAM-DET1
 66
     1
 10
0.0
 20
0.0
 30
315.0
 70
     1
  0
VERTEX
  5
A19
  8
TEAM-DET1
 10
37.5
 20
-231.6
 30
315.0
  0
VERTEX
  5
A1A
  8
TEAM-DET1
 10
37.357513
 20
-228.329996
 30
315.0
  0
VERTEX
  5
A1B
  8
TEAM-DET1
 10
36.929992
 20
-225.090005
 30
315.0
  0
VERTEX
  5
A1C
  8
TEAM-DET1
 10
36.221252
 20
-221.894998
 30
315.0
  0
VERTEX
  5
A1D
  8
TEAM-DET1
 10
35.238739
 20
-218.775003
 30
315.0
  0
VERTEX
  5
A1E
  8
TEAM-DET1
 10
33.986236
 20
-215.752496
 30
315.0
  0
VERTEX
  5
A1F
  8
TEAM-DET1
 10
32.475006
 20
-212.85
 30
315.0
  0
VERTEX
  5
A20
  8
TEAM-DET1
 10
30.720001
 20
-210.090005
 30
315.0
  0
VERTEX
  5
A21
  8
TEAM-DET1
 10
28.725006
 20
-207.495004
 30
315.0
  0
VERTEX
  5
A22
  8
TEAM-DET1
 10
26.516235
 20
-205.083749
 30
315.0
  0
VERTEX
  5
A23
  8
TEAM-DET1
 10
24.10501
 20
-202.874994
 30
315.0
  0
VERTEX
  5
A24
  8
TEAM-DET1
 10
21.510009
 20
-200.879999
 30
315.0
  0
VERTEX
  5
A25
  8
TEAM-DET1
 10
18.75
 20
-199.124994
 30
315.0
  0
VERTEX
  5
A26
  8
TEAM-DET1
 10
15.847503
 20
-197.613748
 30
315.0
  0
VERTEX
  5
A27
  8
TEAM-DET1
 10
12.825012
 20
-196.361246
 30
315.0
  0
VERTEX
  5
A28
  8
TEAM-DET1
 10
9.704986
 20
-195.378747
 30
315.0
  0
VERTEX
  5
A29
  8
TEAM-DET1
 10
6.510009
 20
-194.670007
 30
315.0
  0
VERTEX
  5
A2A
  8
TEAM-DET1
 10
3.269989
 20
-194.242502
 30
315.0
  0
VERTEX
  5
A2B
  8
TEAM-DET1
 10
0.0
 20
-194.1
 30
315.0
  0
VERTEX
  5
A2C
  8
TEAM-DET1
 10
-3.26999
 20
-194.242502
 30
315.0
  0
VERTEX
  5
A2D
  8
TEAM-DET1
 10
-6.51001
 20
-194.670007
 30
315.0
  0
VERTEX
  5
A2E
  8
TEAM-DET1
 10
-9.704987
 20
-195.378747
 30
315.0
  0
VERTEX
  5
A2F
  8
TEAM-DET1
 10
-12.825013
 20
-196.361246
 30
315.0
  0
VERTEX
  5
A30
  8
TEAM-DET1
 10
-15.847504
 20
-197.613748
 30
315.0
  0
VERTEX
  5
A31
  8
TEAM-DET1
 10
-18.75
 20
-199.124994
 30
315.0
  0
VERTEX
  5
A32
  8
TEAM-DET1
 10
-21.51001
 20
-200.879999
 30
315.0
  0
VERTEX
  5
A33
  8
TEAM-DET1
 10
-24.105011
 20
-202.874994
 30
315.0
  0
VERTEX
  5
A34
  8
TEAM-DET1
 10
-26.516236
 20
-205.083749
 30
315.0
  0
VERTEX
  5
A35
  8
TEAM-DET1
 10
-28.725007
 20
-207.495004
 30
315.0
  0
VERTEX
  5
A36
  8
TEAM-DET1
 10
-30.720002
 20
-210.090005
 30
315.0
  0
VERTEX
  5
A37
  8
TEAM-DET1
 10
-32.475007
 20
-212.85
 30
315.0
  0
VERTEX
  5
A38
  8
TEAM-DET1
 10
-33.986237
 20
-215.752496
 30
315.0
  0
VERTEX
  5
A39
  8
TEAM-DET1
 10
-35.23874
 20
-218.775003
 30
315.0
  0
VERTEX
  5
A3A
  8
TEAM-DET1
 10
-36.221253
 20
-221.894998
 30
315.0
  0
VERTEX
  5
A3B
  8
TEAM-DET1
 10
-36.929993
 20
-225.090005
 30
315.0
  0
VERTEX
  5
A3C
  8
TEAM-DET1
 10
-37.357514
 20
-228.329996
 30
315.0
  0
VERTEX
  5
A3D
  8
TEAM-DET1
 10
-37.5
 20
-231.6
 30
315.0
  0
VERTEX
  5
A3E
  8
TEAM-DET1
 10
-37.357514
 20
-234.870004
 30
315.0
  0
VERTEX
  5
A3F
  8
TEAM-DET1
 10
-36.929993
 20
-238.109994
 30
315.0
  0
VERTEX
  5
A40
  8
TEAM-DET1
 10
-36.221253
 20
-241.305002
 30
315.0
  0
VERTEX
  5
A41
  8
TEAM-DET1
 10
-35.23874
 20
-244.424997
 30
315.0
  0
VERTEX
  5
A42
  8
TEAM-DET1
 10
-33.986237
 20
-247.447504
 30
315.0
  0
VERTEX
  5
A43
  8
TEAM-DET1
 10
-32.475007
 20
-250.35
 30
315.0
  0
VERTEX
  5
A44
  8
TEAM-DET1
 10
-30.720002
 20
-253.109994
 30
315.0
  0
VERTEX
  5
A45
  8
TEAM-DET1
 10
-28.725007
 20
-255.704996
 30
315.0
  0
VERTEX
  5
A46
  8
TEAM-DET1
 10
-26.516236
 20
-258.11625
 30
315.0
  0
VERTEX
  5
A47
  8
TEAM-DET1
 10
-24.105011
 20
-260.325006
 30
315.0
  0
VERTEX
  5
A48
  8
TEAM-DET1
 10
-21.51001
 20
-262.320001
 30
315.0
  0
VERTEX
  5
A49
  8
TEAM-DET1
 10
-18.75
 20
-264.075006
 30
315.0
  0
VERTEX
  5
A4A
  8
TEAM-DET1
 10
-15.847504
 20
-265.586252
 30
315.0
  0
VERTEX
  5
A4B
  8
TEAM-DET1
 10
-12.825013
 20
-266.838754
 30
315.0
  0
VERTEX
  5
A4C
  8
TEAM-DET1
 10
-9.704987
 20
-267.821252
 30
315.0
  0
VERTEX
  5
A4D
  8
TEAM-DET1
 10
-6.51001
 20
-268.529993
 30
315.0
  0
VERTEX
  5
A4E
  8
TEAM-DET1
 10
-3.26999
 20
-268.957498
 30
315.0
  0
VERTEX
  5
A4F
  8
TEAM-DET1
 10
0.0
 20
-269.1
 30
315.0
  0
VERTEX
  5
A50
  8
TEAM-DET1
 10
3.269989
 20
-268.957498
 30
315.0
  0
VERTEX
  5
A51
  8
TEAM-DET1
 10
6.510009
 20
-268.529993
 30
315.0
  0
VERTEX
  5
A52
  8
TEAM-DET1
 10
9.704986
 20
-267.821252
 30
315.0
  0
VERTEX
  5
A53
  8
TEAM-DET1
 10
12.825012
 20
-266.838754
 30
315.0
  0
VERTEX
  5
A54
  8
TEAM-DET1
 10
15.847503
 20
-265.586252
 30
315.0
  0
VERTEX
  5
A55
  8
TEAM-DET1
 10
18.75
 20
-264.075006
 30
315.0
  0
VERTEX
  5
A56
  8
TEAM-DET1
 10
21.510009
 20
-262.320001
 30
315.0
  0
VERTEX
  5
A57
  8
TEAM-DET1
 10
24.10501
 20
-260.325006
 30
315.0
  0
VERTEX
  5
A58
  8
TEAM-DET1
 10
26.516235
 20
-258.11625
 30
315.0
  0
VERTEX
  5
A59
  8
TEAM-DET1
 10
28.725006
 20
-255.704996
 30
315.0
  0
VERTEX
  5
A5A
  8
TEAM-DET1
 10
30.720001
 20
-253.109994
 30
315.0
  0
VERTEX
  5
A5B
  8
TEAM-DET1
 10
32.475006
 20
-250.35
 30
315.0
  0
VERTEX
  5
A5C
  8
TEAM-DET1
 10
33.986236
 20
-247.447504
 30
315.0
  0
VERTEX
  5
A5D
  8
TEAM-DET1
 10
35.238739
 20
-244.424997
 30
315.0
  0
VERTEX
  5
A5E
  8
TEAM-DET1
 10
36.221252
 20
-241.305002
 30
315.0
  0
VERTEX
  5
A5F
  8
TEAM-DET1
 10
36.929992
 20
-238.109994
 30
315.0
  0
VERTEX
  5
A60
  8
TEAM-DET1
 10
37.357513
 20
-234.870004
 30
315.0
  0
VERTEX
  5
A61
  8
TEAM-DET1
 10
37.5
 20
-231.6
 30
315.0
  0
SEQEND
  5
A62
  8
TEAM-DET1
  0
POLYLINE
  5
24B
  8
TEAM-KAN
 66
     1
 10
0.0
 20
0.0
 30
315.0
 70
     1
  0
VERTEX
  5
A63
  8
TEAM-KAN
 10
22.999877
 20
-231.6
 30
315.0
  0
VERTEX
  5
A64
  8
TEAM-KAN
 10
22.912475
 20
-229.594415
 30
315.0
  0
VERTEX
  5
A65
  8
TEAM-KAN
 10
22.650268
 20
-227.607217
 30
315.0
  0
VERTEX
  5
A66
  8
TEAM-KAN
 10
22.215576
 20
-225.647638
 30
315.0
  0
VERTEX
  5
A67
  8
TEAM-KAN
 10
21.612976
 20
-223.734048
 30
315.0
  0
VERTEX
  5
A68
  8
TEAM-KAN
 10
20.844787
 20
-221.880258
 30
315.0
  0
VERTEX
  5
A69
  8
TEAM-KAN
 10
19.917907
 20
-220.100061
 30
315.0
  0
VERTEX
  5
A6A
  8
TEAM-KAN
 10
18.841491
 20
-218.407266
 30
315.0
  0
VERTEX
  5
A6B
  8
TEAM-KAN
 10
17.617919
 20
-216.815683
 30
315.0
  0
VERTEX
  5
A6C
  8
TEAM-KAN
 10
16.263214
 20
-215.336786
 30
315.0
  0
VERTEX
  5
A6D
  8
TEAM-KAN
 10
14.784332
 20
-213.982095
 30
315.0
  0
VERTEX
  5
A6E
  8
TEAM-KAN
 10
13.192718
 20
-212.758493
 30
315.0
  0
VERTEX
  5
A6F
  8
TEAM-KAN
 10
11.499938
 20
-211.682107
 30
315.0
  0
VERTEX
  5
A70
  8
TEAM-KAN
 10
9.719757
 20
-210.755212
 30
315.0
  0
VERTEX
  5
A71
  8
TEAM-KAN
 10
7.865966
 20
-209.987009
 30
315.0
  0
VERTEX
  5
A72
  8
TEAM-KAN
 10
5.952362
 20
-209.384424
 30
315.0
  0
VERTEX
  5
A73
  8
TEAM-KAN
 10
3.992767
 20
-208.949716
 30
315.0
  0
VERTEX
  5
A74
  8
TEAM-KAN
 10
2.005584
 20
-208.687524
 30
315.0
  0
VERTEX
  5
A75
  8
TEAM-KAN
 10
0.0
 20
-208.600122
 30
315.0
  0
VERTEX
  5
A76
  8
TEAM-KAN
 10
-2.005585
 20
-208.687524
 30
315.0
  0
VERTEX
  5
A77
  8
TEAM-KAN
 10
-3.992768
 20
-208.949716
 30
315.0
  0
VERTEX
  5
A78
  8
TEAM-KAN
 10
-5.952363
 20
-209.384424
 30
315.0
  0
VERTEX
  5
A79
  8
TEAM-KAN
 10
-7.865967
 20
-209.987009
 30
315.0
  0
VERTEX
  5
A7A
  8
TEAM-KAN
 10
-9.719758
 20
-210.755212
 30
315.0
  0
VERTEX
  5
A7B
  8
TEAM-KAN
 10
-11.499939
 20
-211.682107
 30
315.0
  0
VERTEX
  5
A7C
  8
TEAM-KAN
 10
-13.192719
 20
-212.758493
 30
315.0
  0
VERTEX
  5
A7D
  8
TEAM-KAN
 10
-14.784333
 20
-213.982095
 30
315.0
  0
VERTEX
  5
A7E
  8
TEAM-KAN
 10
-16.263215
 20
-215.336786
 30
315.0
  0
VERTEX
  5
A7F
  8
TEAM-KAN
 10
-17.61792
 20
-216.815683
 30
315.0
  0
VERTEX
  5
A80
  8
TEAM-KAN
 10
-18.841492
 20
-218.407266
 30
315.0
  0
VERTEX
  5
A81
  8
TEAM-KAN
 10
-19.917908
 20
-220.100061
 30
315.0
  0
VERTEX
  5
A82
  8
TEAM-KAN
 10
-20.844788
 20
-221.880258
 30
315.0
  0
VERTEX
  5
A83
  8
TEAM-KAN
 10
-21.612977
 20
-223.734048
 30
315.0
  0
VERTEX
  5
A84
  8
TEAM-KAN
 10
-22.215577
 20
-225.647638
 30
315.0
  0
VERTEX
  5
A85
  8
TEAM-KAN
 10
-22.650269
 20
-227.607217
 30
315.0
  0
VERTEX
  5
A86
  8
TEAM-KAN
 10
-22.912476
 20
-229.594415
 30
315.0
  0
VERTEX
  5
A87
  8
TEAM-KAN
 10
-22.999878
 20
-231.6
 30
315.0
  0
VERTEX
  5
A88
  8
TEAM-KAN
 10
-22.912476
 20
-233.605585
 30
315.0
  0
VERTEX
  5
A89
  8
TEAM-KAN
 10
-22.650269
 20
-235.592782
 30
315.0
  0
VERTEX
  5
A8A
  8
TEAM-KAN
 10
-22.215577
 20
-237.552362
 30
315.0
  0
VERTEX
  5
A8B
  8
TEAM-KAN
 10
-21.612977
 20
-239.465951
 30
315.0
  0
VERTEX
  5
A8C
  8
TEAM-KAN
 10
-20.844788
 20
-241.319742
 30
315.0
  0
VERTEX
  5
A8D
  8
TEAM-KAN
 10
-19.917908
 20
-243.099939
 30
315.0
  0
VERTEX
  5
A8E
  8
TEAM-KAN
 10
-18.841492
 20
-244.792734
 30
315.0
  0
VERTEX
  5
A8F
  8
TEAM-KAN
 10
-17.61792
 20
-246.384317
 30
315.0
  0
VERTEX
  5
A90
  8
TEAM-KAN
 10
-16.263215
 20
-247.863214
 30
315.0
  0
VERTEX
  5
A91
  8
TEAM-KAN
 10
-14.784333
 20
-249.217905
 30
315.0
  0
VERTEX
  5
A92
  8
TEAM-KAN
 10
-13.192719
 20
-250.441507
 30
315.0
  0
VERTEX
  5
A93
  8
TEAM-KAN
 10
-11.499939
 20
-251.517892
 30
315.0
  0
VERTEX
  5
A94
  8
TEAM-KAN
 10
-9.719758
 20
-252.444787
 30
315.0
  0
VERTEX
  5
A95
  8
TEAM-KAN
 10
-7.865967
 20
-253.212991
 30
315.0
  0
VERTEX
  5
A96
  8
TEAM-KAN
 10
-5.952363
 20
-253.815576
 30
315.0
  0
VERTEX
  5
A97
  8
TEAM-KAN
 10
-3.992768
 20
-254.250284
 30
315.0
  0
VERTEX
  5
A98
  8
TEAM-KAN
 10
-2.005585
 20
-254.512475
 30
315.0
  0
VERTEX
  5
A99
  8
TEAM-KAN
 10
0.0
 20
-254.599878
 30
315.0
  0
VERTEX
  5
A9A
  8
TEAM-KAN
 10
2.005584
 20
-254.512475
 30
315.0
  0
VERTEX
  5
A9B
  8
TEAM-KAN
 10
3.992767
 20
-254.250284
 30
315.0
  0
VERTEX
  5
A9C
  8
TEAM-KAN
 10
5.952362
 20
-253.815576
 30
315.0
  0
VERTEX
  5
A9D
  8
TEAM-KAN
 10
7.865966
 20
-253.212991
 30
315.0
  0
VERTEX
  5
A9E
  8
TEAM-KAN
 10
9.719757
 20
-252.444787
 30
315.0
  0
VERTEX
  5
A9F
  8
TEAM-KAN
 10
11.499938
 20
-251.517892
 30
315.0
  0
VERTEX
  5
AA0
  8
TEAM-KAN
 10
13.192718
 20
-250.441507
 30
315.0
  0
VERTEX
  5
AA1
  8
TEAM-KAN
 10
14.784332
 20
-249.217905
 30
315.0
  0
VERTEX
  5
AA2
  8
TEAM-KAN
 10
16.263214
 20
-247.863214
 30
315.0
  0
VERTEX
  5
AA3
  8
TEAM-KAN
 10
17.617919
 20
-246.384317
 30
315.0
  0
VERTEX
  5
AA4
  8
TEAM-KAN
 10
18.841491
 20
-244.792734
 30
315.0
  0
VERTEX
  5
AA5
  8
TEAM-KAN
 10
19.917907
 20
-243.099939
 30
315.0
  0
VERTEX
  5
AA6
  8
TEAM-KAN
 10
20.844787
 20
-241.319742
 30
315.0
  0
VERTEX
  5
AA7
  8
TEAM-KAN
 10
21.612976
 20
-239.465951
 30
315.0
  0
VERTEX
  5
AA8
  8
TEAM-KAN
 10
22.215576
 20
-237.552362
 30
315.0
  0
VERTEX
  5
AA9
  8
TEAM-KAN
 10
22.650268
 20
-235.592782
 30
315.0
  0
VERTEX
  5
AAA
  8
TEAM-KAN
 10
22.912475
 20
-233.605585
 30
315.0
  0
VERTEX
  5
AAB
  8
TEAM-KAN
 10
22.999877
 20
-231.6
 30
315.0
  0
SEQEND
  5
AAC
  8
TEAM-KAN
  0
LINE
  5
24D
  8
TEAM-DET1
 10
12.000122
 20
-152.503931
 30
365.0
 11
11.951293
 21
-152.311975
 31
365.0
  0
LINE
  5
24E
  8
TEAM-DET1
 10
11.951293
 20
-152.311975
 30
365.0
 11
11.799316
 21
-152.115137
 31
365.0
  0
LINE
  5
24F
  8
TEAM-DET1
 10
11.799316
 20
-152.115137
 30
365.0
 11
11.536254
 21
-151.915857
 31
365.0
  0
LINE
  5
250
  8
TEAM-DET1
 10
11.536254
 20
-151.915857
 30
365.0
 11
11.157226
 21
-151.717187
 31
365.0
  0
LINE
  5
251
  8
TEAM-DET1
 10
11.157226
 20
-151.717187
 30
365.0
 11
10.043945
 21
-151.334497
 31
365.0
  0
LINE
  5
252
  8
TEAM-DET1
 10
10.043945
 20
-151.334497
 30
365.0
 11
8.485107
 21
-150.9927
 31
365.0
  0
LINE
  5
253
  8
TEAM-DET1
 10
8.485107
 20
-150.9927
 30
365.0
 11
6.566772
 21
-150.71499
 31
365.0
  0
LINE
  5
254
  8
TEAM-DET1
 10
6.566772
 20
-150.71499
 30
365.0
 11
4.417114
 21
-150.516931
 31
365.0
  0
LINE
  5
255
  8
TEAM-DET1
 10
4.417114
 20
-150.516931
 30
365.0
 11
2.183837
 21
-150.40249
 31
365.0
  0
LINE
  5
256
  8
TEAM-DET1
 10
2.183837
 20
-150.40249
 30
365.0
 11
0.0
 21
-150.366785
 31
365.0
  0
LINE
  5
257
  8
TEAM-DET1
 10
0.0
 20
-150.366785
 30
365.0
 11
-2.183228
 21
-150.40249
 31
365.0
  0
LINE
  5
258
  8
TEAM-DET1
 10
-2.183228
 20
-150.40249
 30
365.0
 11
-4.417115
 21
-150.516931
 31
365.0
  0
LINE
  5
259
  8
TEAM-DET1
 10
-4.417115
 20
-150.516931
 30
365.0
 11
-6.566773
 21
-150.71499
 31
365.0
  0
LINE
  5
25A
  8
TEAM-DET1
 10
-6.566773
 20
-150.71499
 30
365.0
 11
-8.485108
 21
-150.9927
 31
365.0
  0
LINE
  5
25B
  8
TEAM-DET1
 10
-8.485108
 20
-150.9927
 30
365.0
 11
-10.043335
 21
-151.334497
 31
365.0
  0
LINE
  5
25C
  8
TEAM-DET1
 10
-10.043335
 20
-151.334497
 30
365.0
 11
-11.156617
 21
-151.717187
 31
365.0
  0
LINE
  5
25D
  8
TEAM-DET1
 10
-11.156617
 20
-151.717187
 30
365.0
 11
-11.536255
 21
-151.915857
 31
365.0
  0
LINE
  5
25E
  8
TEAM-DET1
 10
-11.536255
 20
-151.915857
 30
365.0
 11
-11.798707
 21
-152.115137
 31
365.0
  0
LINE
  5
25F
  8
TEAM-DET1
 10
-11.798707
 20
-152.115137
 30
365.0
 11
-11.951294
 21
-152.311975
 31
365.0
  0
LINE
  5
260
  8
TEAM-DET1
 10
-11.951294
 20
-152.311975
 30
365.0
 11
-12.000123
 21
-152.503931
 31
365.0
  0
LINE
  5
261
  8
TEAM-DET1
 10
-12.000123
 20
-152.503931
 30
365.0
 11
-11.951294
 21
-152.695886
 31
365.0
  0
LINE
  5
262
  8
TEAM-DET1
 10
-11.951294
 20
-152.695886
 30
365.0
 11
-11.798707
 21
-152.892724
 31
365.0
  0
LINE
  5
263
  8
TEAM-DET1
 10
-11.798707
 20
-152.892724
 30
365.0
 11
-11.536255
 21
-153.092004
 31
365.0
  0
LINE
  5
264
  8
TEAM-DET1
 10
-11.536255
 20
-153.092004
 30
365.0
 11
-11.156617
 21
-153.290674
 31
365.0
  0
LINE
  5
265
  8
TEAM-DET1
 10
-11.156617
 20
-153.290674
 30
365.0
 11
-10.043335
 21
-153.673364
 31
365.0
  0
LINE
  5
266
  8
TEAM-DET1
 10
-10.043335
 20
-153.673364
 30
365.0
 11
-8.485108
 21
-154.015161
 31
365.0
  0
LINE
  5
267
  8
TEAM-DET1
 10
-8.485108
 20
-154.015161
 30
365.0
 11
-6.566773
 21
-154.292566
 31
365.0
  0
LINE
  5
268
  8
TEAM-DET1
 10
-6.566773
 20
-154.292566
 30
365.0
 11
-4.417115
 21
-154.49093
 31
365.0
  0
LINE
  5
269
  8
TEAM-DET1
 10
-4.417115
 20
-154.49093
 30
365.0
 11
-2.183228
 21
-154.605371
 31
365.0
  0
LINE
  5
26A
  8
TEAM-DET1
 10
-2.183228
 20
-154.605371
 30
365.0
 11
0.0
 21
-154.641077
 31
365.0
  0
LINE
  5
26B
  8
TEAM-DET1
 10
0.0
 20
-154.641077
 30
365.0
 11
2.183837
 21
-154.605371
 31
365.0
  0
LINE
  5
26C
  8
TEAM-DET1
 10
2.183837
 20
-154.605371
 30
365.0
 11
4.417114
 21
-154.49093
 31
365.0
  0
LINE
  5
26D
  8
TEAM-DET1
 10
4.417114
 20
-154.49093
 30
365.0
 11
6.566772
 21
-154.292566
 31
365.0
  0
LINE
  5
26E
  8
TEAM-DET1
 10
6.566772
 20
-154.292566
 30
365.0
 11
8.485107
 21
-154.015161
 31
365.0
  0
LINE
  5
26F
  8
TEAM-DET1
 10
8.485107
 20
-154.015161
 30
365.0
 11
10.043945
 21
-153.673364
 31
365.0
  0
LINE
  5
270
  8
TEAM-DET1
 10
10.043945
 20
-153.673364
 30
365.0
 11
11.157226
 21
-153.290674
 31
365.0
  0
LINE
  5
271
  8
TEAM-DET1
 10
11.157226
 20
-153.290674
 30
365.0
 11
11.536254
 21
-153.092004
 31
365.0
  0
LINE
  5
272
  8
TEAM-DET1
 10
11.536254
 20
-153.092004
 30
365.0
 11
11.799316
 21
-152.892724
 31
365.0
  0
LINE
  5
273
  8
TEAM-DET1
 10
11.799316
 20
-152.892724
 30
365.0
 11
11.951293
 21
-152.695886
 31
365.0
  0
LINE
  5
274
  8
TEAM-DET1
 10
11.951293
 20
-152.695886
 30
365.0
 11
12.000122
 21
-152.503931
 31
365.0
  0
POLYLINE
  5
275
  8
TEAM-DET1
 66
     1
 10
0.0
 20
0.0
 30
-415.0
 70
   128
210
0.0
220
0.0
230
-1.0
  0
VERTEX
  5
AAD
  8
TEAM-DET1
 10
0.0
 20
-18.517255
 30
-415.0
  0
VERTEX
  5
AAE
  8
TEAM-DET1
 10
-18.032706
 20
-19.710062
 30
-415.0
  0
VERTEX
  5
AAF
  8
TEAM-DET1
 10
-35.908209
 20
-23.277608
 30
-415.0
  0
VERTEX
  5
AB0
  8
TEAM-DET1
 10
-53.472404
 20
-29.185052
 30
-415.0
  0
VERTEX
  5
AB1
  8
TEAM-DET1
 10
-70.57521
 20
-37.379794
 30
-415.0
  0
VERTEX
  5
AB2
  8
TEAM-DET1
 10
-87.073633
 20
-47.786884
 30
-415.0
  0
VERTEX
  5
AB3
  8
TEAM-DET1
 10
-102.831115
 20
-60.315463
 30
-415.0
  0
VERTEX
  5
AB4
  8
TEAM-DET1
 10
-117.718777
 20
-74.857508
 30
-415.0
  0
VERTEX
  5
AB5
  8
TEAM-DET1
 10
-131.616171
 20
-91.288807
 30
-415.0
  0
VERTEX
  5
AB6
  8
TEAM-DET1
 10
-144.41025
 20
-109.472175
 30
-415.0
  0
VERTEX
  5
AB7
  8
TEAM-DET1
 10
-155.998489
 20
-129.254623
 30
-415.0
  0
VERTEX
  5
AB8
  8
TEAM-DET1
 10
-166.286503
 20
-150.472633
 30
-415.0
  0
VERTEX
  5
AB9
  8
TEAM-DET1
 10
-175.191641
 20
-172.949613
 30
-415.0
  0
VERTEX
  5
ABA
  8
TEAM-DET1
 10
-182.641627
 20
-196.49972
 30
-415.0
  0
VERTEX
  5
ABB
  8
TEAM-DET1
 10
-188.575739
 20
-220.928225
 30
-415.0
  0
VERTEX
  5
ABC
  8
TEAM-DET1
 10
-192.946523
 20
-246.032845
 30
-415.0
  0
VERTEX
  5
ABD
  8
TEAM-DET1
 10
-195.7174
 20
-271.606378
 30
-415.0
  0
SEQEND
  5
ABE
  8
TEAM-DET1
  0
POLYLINE
  5
276
  8
TEAM-BODY
 66
     1
 10
0.0
 20
0.0
 30
-415.0
 70
   128
210
0.0
220
0.0
230
-1.0
  0
VERTEX
  5
ABF
  8
TEAM-BODY
 10
0.0
 20
-136.993782
 30
-415.0
  0
VERTEX
  5
AC0
  8
TEAM-BODY
 10
-16.906734
 20
-138.488407
 30
-415.0
  0
VERTEX
  5
AC1
  8
TEAM-BODY
 10
-33.56693
 20
-142.950487
 30
-415.0
  0
VERTEX
  5
AC2
  8
TEAM-BODY
 10
-49.737644
 20
-150.314955
 30
-415.0
  0
VERTEX
  5
AC3
  8
TEAM-BODY
 10
-65.183072
 20
-160.474421
 30
-415.0
  0
VERTEX
  5
AC4
  8
TEAM-BODY
 10
-79.677983
 20
-173.280736
 30
-415.0
  0
VERTEX
  5
AC5
  8
TEAM-BODY
 10
-93.01101
 20
-188.547155
 30
-415.0
  0
VERTEX
  5
AC6
  8
TEAM-BODY
 10
-104.987728
 20
-206.05106
 30
-415.0
  0
VERTEX
  5
AC7
  8
TEAM-BODY
 10
-115.433487
 20
-225.537205
 30
-415.0
  0
VERTEX
  5
AC8
  8
TEAM-BODY
 10
-124.195967
 20
-246.721438
 30
-415.0
  0
VERTEX
  5
AC9
  8
TEAM-BODY
 10
-131.147389
 20
-269.294844
 30
-415.0
  0
VERTEX
  5
ACA
  8
TEAM-BODY
 10
-136.186388
 20
-292.928253
 30
-415.0
  0
VERTEX
  5
ACB
  8
TEAM-BODY
 10
-139.239482
 20
-317.277036
 30
-415.0
  0
VERTEX
  5
ACC
  8
TEAM-BODY
 10
-140.262151
 20
-341.986133
 30
-415.0
  0
VERTEX
  5
ACD
  8
TEAM-BODY
 10
-139.239482
 20
-366.695231
 30
-415.0
  0
VERTEX
  5
ACE
  8
TEAM-BODY
 10
-136.186388
 20
-391.044014
 30
-415.0
  0
VERTEX
  5
ACF
  8
TEAM-BODY
 10
-131.147389
 20
-414.677423
 30
-415.0
  0
VERTEX
  5
AD0
  8
TEAM-BODY
 10
-124.195967
 20
-437.250829
 30
-415.0
  0
VERTEX
  5
AD1
  8
TEAM-BODY
 10
-115.433487
 20
-458.435061
 30
-415.0
  0
VERTEX
  5
AD2
  8
TEAM-BODY
 10
-104.987728
 20
-477.921206
 30
-415.0
  0
VERTEX
  5
AD3
  8
TEAM-BODY
 10
-93.01101
 20
-495.425111
 30
-415.0
  0
VERTEX
  5
AD4
  8
TEAM-BODY
 10
-79.677983
 20
-510.691531
 30
-415.0
  0
VERTEX
  5
AD5
  8
TEAM-BODY
 10
-65.183072
 20
-523.497846
 30
-415.0
  0
VERTEX
  5
AD6
  8
TEAM-BODY
 10
-49.737644
 20
-533.657311
 30
-415.0
  0
VERTEX
  5
AD7
  8
TEAM-BODY
 10
-33.56693
 20
-541.021779
 30
-415.0
  0
VERTEX
  5
AD8
  8
TEAM-BODY
 10
-16.906734
 20
-545.483859
 30
-415.0
  0
VERTEX
  5
AD9
  8
TEAM-BODY
 10
0.0
 20
-546.978484
 30
-415.0
  0
SEQEND
  5
ADA
  8
TEAM-BODY
  0
POLYLINE
  5
277
  8
TEAM-BODY
 66
     1
 10
0.0
 20
0.0
 30
-415.0
 70
   128
210
0.0
220
0.0
230
-1.0
  0
VERTEX
  5
ADB
  8
TEAM-BODY
 10
0.0
 20
-20.517255
 30
-415.0
  0
VERTEX
  5
ADC
  8
TEAM-BODY
 10
-19.717829
 20
-21.965232
 30
-415.0
  0
VERTEX
  5
ADD
  8
TEAM-BODY
 10
-39.233327
 20
-26.294306
 30
-415.0
  0
VERTEX
  5
ADE
  8
TEAM-BODY
 10
-58.346238
 20
-33.460056
 30
-415.0
  0
VERTEX
  5
ADF
  8
TEAM-BODY
 10
-76.860437
 20
-43.388949
 30
-415.0
  0
VERTEX
  5
AE0
  8
TEAM-BODY
 10
-94.585945
 20
-55.979103
 30
-415.0
  0
VERTEX
  5
AE1
  8
TEAM-BODY
 10
-111.340872
 20
-71.101326
 30
-415.0
  0
VERTEX
  5
AE2
  8
TEAM-BODY
 10
-126.953292
 20
-88.600443
 30
-415.0
  0
VERTEX
  5
AE3
  8
TEAM-BODY
 10
-141.262998
 20
-108.296889
 30
-415.0
  0
VERTEX
  5
AE4
  8
TEAM-BODY
 10
-154.123156
 20
-129.988552
 30
-415.0
  0
VERTEX
  5
AE5
  8
TEAM-BODY
 10
-165.401801
 20
-153.452847
 30
-415.0
  0
VERTEX
  5
AE6
  8
TEAM-BODY
 10
-174.9832
 20
-178.448998
 30
-415.0
  0
VERTEX
  5
AE7
  8
TEAM-BODY
 10
-182.769035
 20
-204.720511
 30
-415.0
  0
VERTEX
  5
AE8
  8
TEAM-BODY
 10
-188.679412
 20
-231.997803
 30
-415.0
  0
VERTEX
  5
AE9
  8
TEAM-BODY
 10
-192.653682
 20
-260.000975
 30
-415.0
  0
VERTEX
  5
AEA
  8
TEAM-BODY
 10
-194.651066
 20
-288.442674
 30
-415.0
  0
VERTEX
  5
AEB
  8
TEAM-BODY
 10
-194.651066
 20
-317.031052
 30
-415.0
  0
VERTEX
  5
AEC
  8
TEAM-BODY
 10
-192.653682
 20
-345.472751
 30
-415.0
  0
VERTEX
  5
AED
  8
TEAM-BODY
 10
-188.679412
 20
-373.475923
 30
-415.0
  0
VERTEX
  5
AEE
  8
TEAM-BODY
 10
-182.769035
 20
-400.753215
 30
-415.0
  0
VERTEX
  5
AEF
  8
TEAM-BODY
 10
-174.9832
 20
-427.024728
 30
-415.0
  0
VERTEX
  5
AF0
  8
TEAM-BODY
 10
-165.401801
 20
-452.020879
 30
-415.0
  0
VERTEX
  5
AF1
  8
TEAM-BODY
 10
-154.123156
 20
-475.485174
 30
-415.0
  0
VERTEX
  5
AF2
  8
TEAM-BODY
 10
-141.262998
 20
-497.176837
 30
-415.0
  0
VERTEX
  5
AF3
  8
TEAM-BODY
 10
-126.953292
 20
-516.873283
 30
-415.0
  0
VERTEX
  5
AF4
  8
TEAM-BODY
 10
-111.340872
 20
-534.3724
 30
-415.0
  0
VERTEX
  5
AF5
  8
TEAM-BODY
 10
-94.585945
 20
-549.494623
 30
-415.0
  0
VERTEX
  5
AF6
  8
TEAM-BODY
 10
-76.860437
 20
-562.084777
 30
-415.0
  0
VERTEX
  5
AF7
  8
TEAM-BODY
 10
-58.346238
 20
-572.01367
 30
-415.0
  0
VERTEX
  5
AF8
  8
TEAM-BODY
 10
-39.233327
 20
-579.17942
 30
-415.0
  0
VERTEX
  5
AF9
  8
TEAM-BODY
 10
-19.717829
 20
-583.508494
 30
-415.0
  0
VERTEX
  5
AFA
  8
TEAM-BODY
 10
0.0
 20
-584.956471
 30
-415.0
  0
SEQEND
  5
AFB
  8
TEAM-BODY
  0
POLYLINE
  5
278
  8
TEAM-BODY
 66
     1
 10
0.0
 20
0.0
 30
415.0
  0
VERTEX
  5
AFC
  8
TEAM-BODY
 10
0.0
 20
0.0
 30
415.0
  0
VERTEX
  5
AFD
  8
TEAM-BODY
 10
179.522945
 20
0.0
 30
415.0
 42
-0.042909
  0
VERTEX
  5
AFE
  8
TEAM-BODY
 10
194.90122
 20
-302.736863
 30
415.0
 42
-0.042909
  0
SEQEND
  5
AFF
  8
TEAM-BODY
  0
POLYLINE
  5
279
  8
TEAM-NET
 66
     1
 10
0.0
 20
0.0
 30
0.0
 70
    16
 71
     2
 72
    25
  0
VERTEX
  5
27A
  8
TEAM-NET
 10
0.0
 20
-546.978484
 30
415.0
 70
    64
  0
VERTEX
  5
27B
  8
TEAM-NET
 10
22.585844
 20
-544.30337
 30
415.0
 70
    64
  0
VERTEX
  5
27C
  8
TEAM-NET
 10
44.004061
 20
-536.629064
 30
415.0
 70
    64
  0
VERTEX
  5
27D
  8
TEAM-NET
 10
63.452902
 20
-524.802672
 30
415.0
 70
    64
  0
VERTEX
  5
27E
  8
TEAM-NET
 10
80.5699
 20
-509.784292
 30
415.0
 70
    64
  0
VERTEX
  5
27F
  8
TEAM-NET
 10
95.293266
 20
-492.404119
 30
415.0
 70
    64
  0
VERTEX
  5
280
  8
TEAM-NET
 10
107.706227
 20
-473.29992
 30
415.0
 70
    64
  0
VERTEX
  5
281
  8
TEAM-NET
 10
117.93962
 20
-452.941543
 30
415.0
 70
    64
  0
VERTEX
  5
282
  8
TEAM-NET
 10
126.124819
 20
-431.674761
 30
415.0
 70
    64
  0
VERTEX
  5
283
  8
TEAM-NET
 10
132.374609
 20
-409.759678
 30
415.0
 70
    64
  0
VERTEX
  5
284
  8
TEAM-NET
 10
136.776948
 20
-387.399292
 30
415.0
 70
    64
  0
VERTEX
  5
285
  8
TEAM-NET
 10
139.393886
 20
-364.759925
 30
415.0
 70
    64
  0
VERTEX
  5
286
  8
TEAM-NET
 10
140.262151
 20
-341.986133
 30
415.0
 70
    64
  0
VERTEX
  5
287
  8
TEAM-NET
 10
139.393886
 20
-319.212341
 30
415.0
 70
    64
  0
VERTEX
  5
288
  8
TEAM-NET
 10
136.776948
 20
-296.572975
 30
415.0
 70
    64
  0
VERTEX
  5
289
  8
TEAM-NET
 10
132.374609
 20
-274.212589
 30
415.0
 70
    64
  0
VERTEX
  5
28A
  8
TEAM-NET
 10
126.124819
 20
-252.297505
 30
415.0
 70
    64
  0
VERTEX
  5
28B
  8
TEAM-NET
 10
117.93962
 20
-231.030723
 30
415.0
 70
    64
  0
VERTEX
  5
28C
  8
TEAM-NET
 10
107.706227
 20
-210.672346
 30
415.0
 70
    64
  0
VERTEX
  5
28D
  8
TEAM-NET
 10
95.293266
 20
-191.568148
 30
415.0
 70
    64
  0
VERTEX
  5
28E
  8
TEAM-NET
 10
80.5699
 20
-174.187974
 30
415.0
 70
    64
  0
VERTEX
  5
28F
  8
TEAM-NET
 10
63.452902
 20
-159.169595
 30
415.0
 70
    64
  0
VERTEX
  5
290
  8
TEAM-NET
 10
44.004061
 20
-147.343202
 30
415.0
 70
    64
  0
VERTEX
  5
291
  8
TEAM-NET
 10
22.585844
 20
-139.668896
 30
415.0
 70
    64
  0
VERTEX
  5
292
  8
TEAM-NET
 10
0.0
 20
-136.993782
 30
415.0
 70
    64
  0
VERTEX
  5
293
  8
TEAM-NET
 10
0.0
 20
-584.956471
 30
415.0
 70
    64
  0
VERTEX
  5
294
  8
TEAM-NET
 10
31.207815
 20
-581.315094
 30
415.0
 70
    64
  0
VERTEX
  5
295
  8
TEAM-NET
 10
60.84469
 20
-570.851771
 30
415.0
 70
    64
  0
VERTEX
  5
296
  8
TEAM-NET
 10
87.815113
 20
-554.687025
 30
415.0
 70
    64
  0
VERTEX
  5
297
  8
TEAM-NET
 10
111.604209
 20
-534.10653
 30
415.0
 70
    64
  0
VERTEX
  5
298
  8
TEAM-NET
 10
132.104863
 20
-510.236704
 30
415.0
 70
    64
  0
VERTEX
  5
299
  8
TEAM-NET
 10
149.413678
 20
-483.952959
 30
415.0
 70
    64
  0
VERTEX
  5
29A
  8
TEAM-NET
 10
163.698809
 20
-455.906211
 30
415.0
 70
    64
  0
VERTEX
  5
29B
  8
TEAM-NET
 10
175.133895
 20
-426.57889
 30
415.0
 70
    64
  0
VERTEX
  5
29C
  8
TEAM-NET
 10
183.870093
 20
-396.33584
 30
415.0
 70
    64
  0
VERTEX
  5
29D
  8
TEAM-NET
 10
190.026248
 20
-365.462943
 30
415.0
 70
    64
  0
VERTEX
  5
29E
  8
TEAM-NET
 10
193.686617
 20
-334.195101
 30
415.0
 70
    64
  0
VERTEX
  5
29F
  8
TEAM-NET
 10
194.90122
 20
-302.736863
 30
415.0
 70
    64
  0
VERTEX
  5
2A0
  8
TEAM-NET
 10
193.686617
 20
-271.278625
 30
415.0
 70
    64
  0
VERTEX
  5
2A1
  8
TEAM-NET
 10
190.026248
 20
-240.010783
 30
415.0
 70
    64
  0
VERTEX
  5
2A2
  8
TEAM-NET
 10
183.870093
 20
-209.137886
 30
415.0
 70
    64
  0
VERTEX
  5
2A3
  8
TEAM-NET
 10
175.133895
 20
-178.894836
 30
415.0
 70
    64
  0
VERTEX
  5
2A4
  8
TEAM-NET
 10
163.698809
 20
-149.567515
 30
415.0
 70
    64
  0
VERTEX
  5
2A5
  8
TEAM-NET
 10
149.413678
 20
-121.520767
 30
415.0
 70
    64
  0
VERTEX
  5
2A6
  8
TEAM-NET
 10
132.104863
 20
-95.237022
 30
415.0
 70
    64
  0
VERTEX
  5
2A7
  8
TEAM-NET
 10
111.604209
 20
-71.367196
 30
415.0
 70
    64
  0
VERTEX
  5
2A8
  8
TEAM-NET
 10
87.815113
 20
-50.786701
 30
415.0
 70
    64
  0
VERTEX
  5
2A9
  8
TEAM-NET
 10
60.84469
 20
-34.621955
 30
415.0
 70
    64
  0
VERTEX
  5
2AA
  8
TEAM-NET
 10
31.207815
 20
-24.158632
 30
415.0
 70
    64
  0
VERTEX
  5
2AB
  8
TEAM-NET
 10
0.0
 20
-20.517255
 30
415.0
 70
    64
  0
SEQEND
  5
2AC
  8
TEAM-NET
  0
POLYLINE
  5
2AD
  8
TEAM-NET
 66
     1
 10
0.0
 20
0.0
 30
0.0
 70
    16
 71
     2
 72
    25
  0
VERTEX
  5
2AE
  8
TEAM-NET
 10
195.7174
 20
-271.606378
 30
415.0
 70
    64
  0
VERTEX
  5
2AF
  8
TEAM-NET
 10
194.347994
 20
-257.094344
 30
415.0
 70
    64
  0
VERTEX
  5
2B0
  8
TEAM-NET
 10
192.453656
 20
-242.641483
 30
415.0
 70
    64
  0
VERTEX
  5
2B1
  8
TEAM-NET
 10
190.028576
 20
-228.268178
 30
415.0
 70
    64
  0
VERTEX
  5
2B2
  8
TEAM-NET
 10
187.066548
 20
-213.995887
 30
415.0
 70
    64
  0
VERTEX
  5
2B3
  8
TEAM-NET
 10
183.558631
 20
-199.84778
 30
415.0
 70
    64
  0
VERTEX
  5
2B4
  8
TEAM-NET
 10
179.494405
 20
-185.849602
 30
415.0
 70
    64
  0
VERTEX
  5
2B5
  8
TEAM-NET
 10
174.863065
 20
-172.028955
 30
415.0
 70
    64
  0
VERTEX
  5
2B6
  8
TEAM-NET
 10
169.650789
 20
-158.416312
 30
415.0
 70
    64
  0
VERTEX
  5
2B7
  8
TEAM-NET
 10
163.84292
 20
-145.047285
 30
415.0
 70
    64
  0
VERTEX
  5
2B8
  8
TEAM-NET
 10
157.424402
 20
-131.960678
 30
415.0
 70
    64
  0
VERTEX
  5
2B9
  8
TEAM-NET
 10
150.377821
 20
-119.201614
 30
415.0
 70
    64
  0
VERTEX
  5
2BA
  8
TEAM-NET
 10
142.685615
 20
-106.820876
 30
415.0
 70
    64
  0
VERTEX
  5
2BB
  8
TEAM-NET
 10
134.33152
 20
-94.877231
 30
415.0
 70
    64
  0
VERTEX
  5
2BC
  8
TEAM-NET
 10
125.298636
 20
-83.438734
 30
415.0
 70
    64
  0
VERTEX
  5
2BD
  8
TEAM-NET
 10
115.574374
 20
-72.582234
 30
415.0
 70
    64
  0
VERTEX
  5
2BE
  8
TEAM-NET
 10
105.150392
 20
-62.396279
 30
415.0
 70
    64
  0
VERTEX
  5
2BF
  8
TEAM-NET
 10
94.025644
 20
-52.981385
 30
415.0
 70
    64
  0
VERTEX
  5
2C0
  8
TEAM-NET
 10
82.211907
 20
-44.447883
 30
415.0
 70
    64
  0
VERTEX
  5
2C1
  8
TEAM-NET
 10
69.735215
 20
-36.91793
 30
415.0
 70
    64
  0
VERTEX
  5
2C2
  8
TEAM-NET
 10
56.644022
 20
-30.517055
 30
415.0
 70
    64
  0
VERTEX
  5
2C3
  8
TEAM-NET
 10
43.01085
 20
-25.372298
 30
415.0
 70
    64
  0
VERTEX
  5
2C4
  8
TEAM-NET
 10
28.936713
 20
-21.599357
 30
415.0
 70
    64
  0
VERTEX
  5
2C5
  8
TEAM-NET
 10
14.549732
 20
-19.293266
 30
415.0
 70
    64
  0
VERTEX
  5
2C6
  8
TEAM-NET
 10
0.0
 20
-18.517255
 30
415.0
 70
    64
  0
VERTEX
  5
2C7
  8
TEAM-NET
 10
194.90122
 20
-302.736863
 30
415.0
 70
    64
  0
VERTEX
  5
2C8
  8
TEAM-NET
 10
195.491324
 20
-282.619704
 30
415.0
 70
    64
  0
VERTEX
  5
2C9
  8
TEAM-NET
 10
195.852566
 20
-262.497134
 30
415.0
 70
    64
  0
VERTEX
  5
2CA
  8
TEAM-NET
 10
195.984898
 20
-242.371757
 30
415.0
 70
    64
  0
VERTEX
  5
2CB
  8
TEAM-NET
 10
195.888305
 20
-222.246177
 30
415.0
 70
    64
  0
VERTEX
  5
2CC
  8
TEAM-NET
 10
195.562797
 20
-202.122998
 30
415.0
 70
    64
  0
VERTEX
  5
2CD
  8
TEAM-NET
 10
195.008418
 20
-182.004823
 30
415.0
 70
    64
  0
VERTEX
  5
2CE
  8
TEAM-NET
 10
194.225239
 20
-161.894255
 30
415.0
 70
    64
  0
VERTEX
  5
2CF
  8
TEAM-NET
 10
193.213362
 20
-141.793896
 30
415.0
 70
    64
  0
VERTEX
  5
2D0
  8
TEAM-NET
 10
191.972917
 20
-121.706348
 30
415.0
 70
    64
  0
VERTEX
  5
2D1
  8
TEAM-NET
 10
190.504065
 20
-101.634209
 30
415.0
 70
    64
  0
VERTEX
  5
2D2
  8
TEAM-NET
 10
188.806995
 20
-81.580075
 30
415.0
 70
    64
  0
VERTEX
  5
2D3
  8
TEAM-NET
 10
186.881928
 20
-61.546543
 30
415.0
 70
    64
  0
VERTEX
  5
2D4
  8
TEAM-NET
 10
184.729113
 20
-41.536203
 30
415.0
 70
    64
  0
VERTEX
  5
2D5
  8
TEAM-NET
 10
182.348828
 20
-21.551645
 30
415.0
 70
    64
  0
VERTEX
  5
2D6
  8
TEAM-NET
 10
179.74138
 20
-1.595455
 30
415.0
 70
    64
  0
VERTEX
  5
2D7
  8
TEAM-NET
 10
161.007364
 20
0.0
 30
415.0
 70
    64
  0
VERTEX
  5
2D8
  8
TEAM-NET
 10
140.881443
 20
0.0
 30
415.0
 70
    64
  0
VERTEX
  5
2D9
  8
TEAM-NET
 10
120.755523
 20
0.0
 30
415.0
 70
    64
  0
VERTEX
  5
2DA
  8
TEAM-NET
 10
100.629602
 20
0.0
 30
415.0
 70
    64
  0
VERTEX
  5
2DB
  8
TEAM-NET
 10
80.503682
 20
0.0
 30
415.0
 70
    64
  0
VERTEX
  5
2DC
  8
TEAM-NET
 10
60.377761
 20
0.0
 30
415.0
 70
    64
  0
VERTEX
  5
2DD
  8
TEAM-NET
 10
40.251841
 20
0.0
 30
415.0
 70
    64
  0
VERTEX
  5
2DE
  8
TEAM-NET
 10
20.12592
 20
0.0
 30
415.0
 70
    64
  0
VERTEX
  5
2DF
  8
TEAM-NET
 10
0.0
 20
0.0
 30
415.0
 70
    64
  0
SEQEND
  5
2E0
  8
TEAM-NET
  0
TEXT
  5
2E1
  8
TEAM-TXT
 10
-144.033537
 20
-339.298176
 30
415.0
 40
30.0
  1
team 227029
 41
0.8
 51
15.0
  7
TEAM
  0
POLYLINE
  5
2E4
  8
TEAM-DET1
 66
     1
 10
0.0
 20
0.0
 30
415.0
 70
   128
  0
VERTEX
  5
B00
  8
TEAM-DET1
 10
0.0
 20
-18.517255
 30
415.0
  0
VERTEX
  5
B01
  8
TEAM-DET1
 10
-18.032706
 20
-19.710062
 30
415.0
  0
VERTEX
  5
B02
  8
TEAM-DET1
 10
-35.908209
 20
-23.277608
 30
415.0
  0
VERTEX
  5
B03
  8
TEAM-DET1
 10
-53.472404
 20
-29.185052
 30
415.0
  0
VERTEX
  5
B04
  8
TEAM-DET1
 10
-70.57521
 20
-37.379794
 30
415.0
  0
VERTEX
  5
B05
  8
TEAM-DET1
 10
-87.073633
 20
-47.786884
 30
415.0
  0
VERTEX
  5
B06
  8
TEAM-DET1
 10
-102.831115
 20
-60.315463
 30
415.0
  0
VERTEX
  5
B07
  8
TEAM-DET1
 10
-117.718777
 20
-74.857508
 30
415.0
  0
VERTEX
  5
B08
  8
TEAM-DET1
 10
-131.616171
 20
-91.288807
 30
415.0
  0
VERTEX
  5
B09
  8
TEAM-DET1
 10
-144.41025
 20
-109.472175
 30
415.0
  0
VERTEX
  5
B0A
  8
TEAM-DET1
 10
-155.998489
 20
-129.254623
 30
415.0
  0
VERTEX
  5
B0B
  8
TEAM-DET1
 10
-166.286503
 20
-150.472633
 30
415.0
  0
VERTEX
  5
B0C
  8
TEAM-DET1
 10
-175.191641
 20
-172.949613
 30
415.0
  0
VERTEX
  5
B0D
  8
TEAM-DET1
 10
-182.641627
 20
-196.49972
 30
415.0
  0
VERTEX
  5
B0E
  8
TEAM-DET1
 10
-188.575739
 20
-220.928225
 30
415.0
  0
VERTEX
  5
B0F
  8
TEAM-DET1
 10
-192.946523
 20
-246.032845
 30
415.0
  0
VERTEX
  5
B10
  8
TEAM-DET1
 10
-195.7174
 20
-271.606378
 30
415.0
  0
SEQEND
  5
B11
  8
TEAM-DET1
  0
POLYLINE
  5
2E5
  8
TEAM-BODY
 66
     1
 10
0.0
 20
0.0
 30
415.0
  0
VERTEX
  5
B12
  8
TEAM-BODY
 10
0.0
 20
0.0
 30
415.0
  0
VERTEX
  5
B13
  8
TEAM-BODY
 10
-179.522945
 20
0.0
 30
415.0
 42
0.042909
  0
VERTEX
  5
B14
  8
TEAM-BODY
 10
-194.90122
 20
-302.736863
 30
415.0
 42
0.042909
  0
SEQEND
  5
B15
  8
TEAM-BODY
  0
POLYLINE
  5
2E6
  8
TEAM-BODY
 66
     1
 10
0.0
 20
0.0
 30
415.0
 70
   128
  0
VERTEX
  5
B16
  8
TEAM-BODY
 10
0.0
 20
-20.517255
 30
415.0
  0
VERTEX
  5
B17
  8
TEAM-BODY
 10
-19.717829
 20
-21.965232
 30
415.0
  0
VERTEX
  5
B18
  8
TEAM-BODY
 10
-39.233327
 20
-26.294306
 30
415.0
  0
VERTEX
  5
B19
  8
TEAM-BODY
 10
-58.346238
 20
-33.460056
 30
415.0
  0
VERTEX
  5
B1A
  8
TEAM-BODY
 10
-76.860437
 20
-43.388949
 30
415.0
  0
VERTEX
  5
B1B
  8
TEAM-BODY
 10
-94.585945
 20
-55.979103
 30
415.0
  0
VERTEX
  5
B1C
  8
TEAM-BODY
 10
-111.340872
 20
-71.101326
 30
415.0
  0
VERTEX
  5
B1D
  8
TEAM-BODY
 10
-126.953292
 20
-88.600443
 30
415.0
  0
VERTEX
  5
B1E
  8
TEAM-BODY
 10
-141.262998
 20
-108.296889
 30
415.0
  0
VERTEX
  5
B1F
  8
TEAM-BODY
 10
-154.123156
 20
-129.988552
 30
415.0
  0
VERTEX
  5
B20
  8
TEAM-BODY
 10
-165.401801
 20
-153.452847
 30
415.0
  0
VERTEX
  5
B21
  8
TEAM-BODY
 10
-174.9832
 20
-178.448998
 30
415.0
  0
VERTEX
  5
B22
  8
TEAM-BODY
 10
-182.769035
 20
-204.720511
 30
415.0
  0
VERTEX
  5
B23
  8
TEAM-BODY
 10
-188.679412
 20
-231.997803
 30
415.0
  0
VERTEX
  5
B24
  8
TEAM-BODY
 10
-192.653682
 20
-260.000975
 30
415.0
  0
VERTEX
  5
B25
  8
TEAM-BODY
 10
-194.651066
 20
-288.442674
 30
415.0
  0
VERTEX
  5
B26
  8
TEAM-BODY
 10
-194.651066
 20
-317.031052
 30
415.0
  0
VERTEX
  5
B27
  8
TEAM-BODY
 10
-192.653682
 20
-345.472751
 30
415.0
  0
VERTEX
  5
B28
  8
TEAM-BODY
 10
-188.679412
 20
-373.475923
 30
415.0
  0
VERTEX
  5
B29
  8
TEAM-BODY
 10
-182.769035
 20
-400.753215
 30
415.0
  0
VERTEX
  5
B2A
  8
TEAM-BODY
 10
-174.9832
 20
-427.024728
 30
415.0
  0
VERTEX
  5
B2B
  8
TEAM-BODY
 10
-165.401801
 20
-452.020879
 30
415.0
  0
VERTEX
  5
B2C
  8
TEAM-BODY
 10
-154.123156
 20
-475.485174
 30
415.0
  0
VERTEX
  5
B2D
  8
TEAM-BODY
 10
-141.262998
 20
-497.176837
 30
415.0
  0
VERTEX
  5
B2E
  8
TEAM-BODY
 10
-126.953292
 20
-516.873283
 30
415.0
  0
VERTEX
  5
B2F
  8
TEAM-BODY
 10
-111.340872
 20
-534.3724
 30
415.0
  0
VERTEX
  5
B30
  8
TEAM-BODY
 10
-94.585945
 20
-549.494623
 30
415.0
  0
VERTEX
  5
B31
  8
TEAM-BODY
 10
-76.860437
 20
-562.084777
 30
415.0
  0
VERTEX
  5
B32
  8
TEAM-BODY
 10
-58.346238
 20
-572.01367
 30
415.0
  0
VERTEX
  5
B33
  8
TEAM-BODY
 10
-39.233327
 20
-579.17942
 30
415.0
  0
VERTEX
  5
B34
  8
TEAM-BODY
 10
-19.717829
 20
-583.508494
 30
415.0
  0
VERTEX
  5
B35
  8
TEAM-BODY
 10
0.0
 20
-584.956471
 30
415.0
  0
SEQEND
  5
B36
  8
TEAM-BODY
  0
POLYLINE
  5
2E7
  8
TEAM-BODY
 66
     1
 10
0.0
 20
0.0
 30
415.0
 70
   128
  0
VERTEX
  5
B37
  8
TEAM-BODY
 10
0.0
 20
-136.993782
 30
415.0
  0
VERTEX
  5
B38
  8
TEAM-BODY
 10
-16.906734
 20
-138.488407
 30
415.0
  0
VERTEX
  5
B39
  8
TEAM-BODY
 10
-33.56693
 20
-142.950487
 30
415.0
  0
VERTEX
  5
B3A
  8
TEAM-BODY
 10
-49.737644
 20
-150.314955
 30
415.0
  0
VERTEX
  5
B3B
  8
TEAM-BODY
 10
-65.183072
 20
-160.474421
 30
415.0
  0
VERTEX
  5
B3C
  8
TEAM-BODY
 10
-79.677983
 20
-173.280736
 30
415.0
  0
VERTEX
  5
B3D
  8
TEAM-BODY
 10
-93.01101
 20
-188.547155
 30
415.0
  0
VERTEX
  5
B3E
  8
TEAM-BODY
 10
-104.987728
 20
-206.05106
 30
415.0
  0
VERTEX
  5
B3F
  8
TEAM-BODY
 10
-115.433487
 20
-225.537205
 30
415.0
  0
VERTEX
  5
B40
  8
TEAM-BODY
 10
-124.195967
 20
-246.721438
 30
415.0
  0
VERTEX
  5
B41
  8
TEAM-BODY
 10
-131.147389
 20
-269.294844
 30
415.0
  0
VERTEX
  5
B42
  8
TEAM-BODY
 10
-136.186388
 20
-292.928253
 30
415.0
  0
VERTEX
  5
B43
  8
TEAM-BODY
 10
-139.239482
 20
-317.277036
 30
415.0
  0
VERTEX
  5
B44
  8
TEAM-BODY
 10
-140.262151
 20
-341.986133
 30
415.0
  0
VERTEX
  5
B45
  8
TEAM-BODY
 10
-139.239482
 20
-366.695231
 30
415.0
  0
VERTEX
  5
B46
  8
TEAM-BODY
 10
-136.186388
 20
-391.044014
 30
415.0
  0
VERTEX
  5
B47
  8
TEAM-BODY
 10
-131.147389
 20
-414.677423
 30
415.0
  0
VERTEX
  5
B48
  8
TEAM-BODY
 10
-124.195967
 20
-437.250829
 30
415.0
  0
VERTEX
  5
B49
  8
TEAM-BODY
 10
-115.433487
 20
-458.435061
 30
415.0
  0
VERTEX
  5
B4A
  8
TEAM-BODY
 10
-104.987728
 20
-477.921206
 30
415.0
  0
VERTEX
  5
B4B
  8
TEAM-BODY
 10
-93.01101
 20
-495.425111
 30
415.0
  0
VERTEX
  5
B4C
  8
TEAM-BODY
 10
-79.677983
 20
-510.691531
 30
415.0
  0
VERTEX
  5
B4D
  8
TEAM-BODY
 10
-65.183072
 20
-523.497846
 30
415.0
  0
VERTEX
  5
B4E
  8
TEAM-BODY
 10
-49.737644
 20
-533.657311
 30
415.0
  0
VERTEX
  5
B4F
  8
TEAM-BODY
 10
-33.56693
 20
-541.021779
 30
415.0
  0
VERTEX
  5
B50
  8
TEAM-BODY
 10
-16.906734
 20
-545.483859
 30
415.0
  0
VERTEX
  5
B51
  8
TEAM-BODY
 10
0.0
 20
-546.978484
 30
415.0
  0
SEQEND
  5
B52
  8
TEAM-BODY
  0
LINE
  5
2E8
  8
TEAM-AXE
 10
0.0
 20
-66.534387
 30
415.0
 11
25.499877
 21
-66.534387
 31
415.0
  0
LINE
  5
2EB
  8
TEAM-AXE
 10
0.0
 20
-66.534387
 30
415.0
 11
0.0
 21
-41.034509
 31
415.0
  0
LINE
  5
2EC
  8
TEAM-AXE
 10
0.0
 20
-66.534387
 30
415.0
 11
0.0
 21
-92.03457
 31
415.0
  0
LINE
  5
2ED
  8
TEAM-AXE
 10
0.0
 20
-66.534387
 30
415.0
 11
-25.499878
 21
-66.534387
 31
415.0
  0
POLYLINE
  5
2EE
  8
TEAM-DET1
 66
     1
 10
0.0
 20
0.0
 30
415.0
 70
     1
  0
VERTEX
  5
B53
  8
TEAM-DET1
 10
17.5
 20
-66.534387
 30
415.0
  0
VERTEX
  5
B54
  8
TEAM-DET1
 10
17.234008
 20
-63.496393
 30
415.0
  0
VERTEX
  5
B55
  8
TEAM-DET1
 10
16.444763
 20
-60.549402
 30
415.0
  0
VERTEX
  5
B56
  8
TEAM-DET1
 10
15.154998
 20
-57.784387
 30
415.0
  0
VERTEX
  5
B57
  8
TEAM-DET1
 10
13.404998
 20
-55.285394
 30
415.0
  0
VERTEX
  5
B58
  8
TEAM-DET1
 10
11.248992
 20
-53.129388
 30
415.0
  0
VERTEX
  5
B59
  8
TEAM-DET1
 10
8.75
 20
-51.379388
 30
415.0
  0
VERTEX
  5
B5A
  8
TEAM-DET1
 10
5.984985
 20
-50.089624
 30
415.0
  0
VERTEX
  5
B5B
  8
TEAM-DET1
 10
3.037994
 20
-49.300378
 30
415.0
  0
VERTEX
  5
B5C
  8
TEAM-DET1
 10
0.0
 20
-49.034387
 30
415.0
  0
VERTEX
  5
B5D
  8
TEAM-DET1
 10
-3.037995
 20
-49.300378
 30
415.0
  0
VERTEX
  5
B5E
  8
TEAM-DET1
 10
-5.984986
 20
-50.089624
 30
415.0
  0
VERTEX
  5
B5F
  8
TEAM-DET1
 10
-8.75
 20
-51.379388
 30
415.0
  0
VERTEX
  5
B60
  8
TEAM-DET1
 10
-11.248993
 20
-53.129388
 30
415.0
  0
VERTEX
  5
B61
  8
TEAM-DET1
 10
-13.404999
 20
-55.285394
 30
415.0
  0
VERTEX
  5
B62
  8
TEAM-DET1
 10
-15.154999
 20
-57.784387
 30
415.0
  0
VERTEX
  5
B63
  8
TEAM-DET1
 10
-16.444764
 20
-60.549402
 30
415.0
  0
VERTEX
  5
B64
  8
TEAM-DET1
 10
-17.234009
 20
-63.496393
 30
415.0
  0
VERTEX
  5
B65
  8
TEAM-DET1
 10
-17.5
 20
-66.534387
 30
415.0
  0
VERTEX
  5
B66
  8
TEAM-DET1
 10
-17.234009
 20
-69.572381
 30
415.0
  0
VERTEX
  5
B67
  8
TEAM-DET1
 10
-16.444764
 20
-72.519372
 30
415.0
  0
VERTEX
  5
B68
  8
TEAM-DET1
 10
-15.154999
 20
-75.284387
 30
415.0
  0
VERTEX
  5
B69
  8
TEAM-DET1
 10
-13.404999
 20
-77.78338
 30
415.0
  0
VERTEX
  5
B6A
  8
TEAM-DET1
 10
-11.248993
 20
-79.939386
 30
415.0
  0
VERTEX
  5
B6B
  8
TEAM-DET1
 10
-8.75
 20
-81.689386
 30
415.0
  0
VERTEX
  5
B6C
  8
TEAM-DET1
 10
-5.984986
 20
-82.97915
 30
415.0
  0
VERTEX
  5
B6D
  8
TEAM-DET1
 10
-3.037995
 20
-83.768396
 30
415.0
  0
VERTEX
  5
B6E
  8
TEAM-DET1
 10
0.0
 20
-84.034387
 30
415.0
  0
VERTEX
  5
B6F
  8
TEAM-DET1
 10
3.037994
 20
-83.768396
 30
415.0
  0
VERTEX
  5
B70
  8
TEAM-DET1
 10
5.984985
 20
-82.97915
 30
415.0
  0
VERTEX
  5
B71
  8
TEAM-DET1
 10
8.75
 20
-81.689386
 30
415.0
  0
VERTEX
  5
B72
  8
TEAM-DET1
 10
11.248992
 20
-79.939386
 30
415.0
  0
VERTEX
  5
B73
  8
TEAM-DET1
 10
13.404998
 20
-77.78338
 30
415.0
  0
VERTEX
  5
B74
  8
TEAM-DET1
 10
15.154998
 20
-75.284387
 30
415.0
  0
VERTEX
  5
B75
  8
TEAM-DET1
 10
16.444763
 20
-72.519372
 30
415.0
  0
VERTEX
  5
B76
  8
TEAM-DET1
 10
17.234008
 20
-69.572381
 30
415.0
  0
VERTEX
  5
B77
  8
TEAM-DET1
 10
17.5
 20
-66.534387
 30
415.0
  0
SEQEND
  5
B78
  8
TEAM-DET1
  0
POLYLINE
  5
2EF
  8
TEAM-NET
 66
     1
 10
0.0
 20
0.0
 30
0.0
 70
    16
 71
     2
 72
    25
  0
VERTEX
  5
2F0
  8
TEAM-NET
 10
0.0
 20
-546.978484
 30
415.0
 70
    64
  0
VERTEX
  5
2F1
  8
TEAM-NET
 10
-22.585844
 20
-544.30337
 30
415.0
 70
    64
  0
VERTEX
  5
2F2
  8
TEAM-NET
 10
-44.004061
 20
-536.629064
 30
415.0
 70
    64
  0
VERTEX
  5
2F3
  8
TEAM-NET
 10
-63.452902
 20
-524.802672
 30
415.0
 70
    64
  0
VERTEX
  5
2F4
  8
TEAM-NET
 10
-80.5699
 20
-509.784292
 30
415.0
 70
    64
  0
VERTEX
  5
2F5
  8
TEAM-NET
 10
-95.293266
 20
-492.404119
 30
415.0
 70
    64
  0
VERTEX
  5
2F6
  8
TEAM-NET
 10
-107.706227
 20
-473.29992
 30
415.0
 70
    64
  0
VERTEX
  5
2F7
  8
TEAM-NET
 10
-117.93962
 20
-452.941543
 30
415.0
 70
    64
  0
VERTEX
  5
2F8
  8
TEAM-NET
 10
-126.124819
 20
-431.674761
 30
415.0
 70
    64
  0
VERTEX
  5
2F9
  8
TEAM-NET
 10
-132.374609
 20
-409.759678
 30
415.0
 70
    64
  0
VERTEX
  5
2FA
  8
TEAM-NET
 10
-136.776948
 20
-387.399292
 30
415.0
 70
    64
  0
VERTEX
  5
2FB
  8
TEAM-NET
 10
-139.393886
 20
-364.759925
 30
415.0
 70
    64
  0
VERTEX
  5
2FC
  8
TEAM-NET
 10
-140.262151
 20
-341.986133
 30
415.0
 70
    64
  0
VERTEX
  5
2FD
  8
TEAM-NET
 10
-139.393886
 20
-319.212341
 30
415.0
 70
    64
  0
VERTEX
  5
2FE
  8
TEAM-NET
 10
-136.776948
 20
-296.572975
 30
415.0
 70
    64
  0
VERTEX
  5
2FF
  8
TEAM-NET
 10
-132.374609
 20
-274.212589
 30
415.0
 70
    64
  0
VERTEX
  5
300
  8
TEAM-NET
 10
-126.124819
 20
-252.297505
 30
415.0
 70
    64
  0
VERTEX
  5
301
  8
TEAM-NET
 10
-117.93962
 20
-231.030723
 30
415.0
 70
    64
  0
VERTEX
  5
302
  8
TEAM-NET
 10
-107.706227
 20
-210.672346
 30
415.0
 70
    64
  0
VERTEX
  5
303
  8
TEAM-NET
 10
-95.293266
 20
-191.568148
 30
415.0
 70
    64
  0
VERTEX
  5
304
  8
TEAM-NET
 10
-80.5699
 20
-174.187974
 30
415.0
 70
    64
  0
VERTEX
  5
305
  8
TEAM-NET
 10
-63.452902
 20
-159.169595
 30
415.0
 70
    64
  0
VERTEX
  5
306
  8
TEAM-NET
 10
-44.004061
 20
-147.343202
 30
415.0
 70
    64
  0
VERTEX
  5
307
  8
TEAM-NET
 10
-22.585844
 20
-139.668896
 30
415.0
 70
    64
  0
VERTEX
  5
308
  8
TEAM-NET
 10
0.0
 20
-136.993782
 30
415.0
 70
    64
  0
VERTEX
  5
309
  8
TEAM-NET
 10
0.0
 20
-584.956471
 30
415.0
 70
    64
  0
VERTEX
  5
30A
  8
TEAM-NET
 10
-31.207815
 20
-581.315094
 30
415.0
 70
    64
  0
VERTEX
  5
30B
  8
TEAM-NET
 10
-60.84469
 20
-570.851771
 30
415.0
 70
    64
  0
VERTEX
  5
30C
  8
TEAM-NET
 10
-87.815113
 20
-554.687025
 30
415.0
 70
    64
  0
VERTEX
  5
30D
  8
TEAM-NET
 10
-111.604209
 20
-534.10653
 30
415.0
 70
    64
  0
VERTEX
  5
30E
  8
TEAM-NET
 10
-132.104863
 20
-510.236704
 30
415.0
 70
    64
  0
VERTEX
  5
30F
  8
TEAM-NET
 10
-149.413678
 20
-483.952959
 30
415.0
 70
    64
  0
VERTEX
  5
310
  8
TEAM-NET
 10
-163.698809
 20
-455.906211
 30
415.0
 70
    64
  0
VERTEX
  5
311
  8
TEAM-NET
 10
-175.133895
 20
-426.57889
 30
415.0
 70
    64
  0
VERTEX
  5
312
  8
TEAM-NET
 10
-183.870093
 20
-396.33584
 30
415.0
 70
    64
  0
VERTEX
  5
313
  8
TEAM-NET
 10
-190.026248
 20
-365.462943
 30
415.0
 70
    64
  0
VERTEX
  5
314
  8
TEAM-NET
 10
-193.686617
 20
-334.195101
 30
415.0
 70
    64
  0
VERTEX
  5
315
  8
TEAM-NET
 10
-194.90122
 20
-302.736863
 30
415.0
 70
    64
  0
VERTEX
  5
316
  8
TEAM-NET
 10
-193.686617
 20
-271.278625
 30
415.0
 70
    64
  0
VERTEX
  5
317
  8
TEAM-NET
 10
-190.026248
 20
-240.010783
 30
415.0
 70
    64
  0
VERTEX
  5
318
  8
TEAM-NET
 10
-183.870093
 20
-209.137886
 30
415.0
 70
    64
  0
VERTEX
  5
319
  8
TEAM-NET
 10
-175.133895
 20
-178.894836
 30
415.0
 70
    64
  0
VERTEX
  5
31A
  8
TEAM-NET
 10
-163.698809
 20
-149.567515
 30
415.0
 70
    64
  0
VERTEX
  5
31B
  8
TEAM-NET
 10
-149.413678
 20
-121.520767
 30
415.0
 70
    64
  0
VERTEX
  5
31C
  8
TEAM-NET
 10
-132.104863
 20
-95.237022
 30
415.0
 70
    64
  0
VERTEX
  5
31D
  8
TEAM-NET
 10
-111.604209
 20
-71.367196
 30
415.0
 70
    64
  0
VERTEX
  5
31E
  8
TEAM-NET
 10
-87.815113
 20
-50.786701
 30
415.0
 70
    64
  0
VERTEX
  5
31F
  8
TEAM-NET
 10
-60.84469
 20
-34.621955
 30
415.0
 70
    64
  0
VERTEX
  5
320
  8
TEAM-NET
 10
-31.207815
 20
-24.158632
 30
415.0
 70
    64
  0
VERTEX
  5
321
  8
TEAM-NET
 10
0.0
 20
-20.517255
 30
415.0
 70
    64
  0
SEQEND
  5
322
  8
TEAM-NET
  0
POLYLINE
  5
323
  8
TEAM-NET
 66
     1
 10
0.0
 20
0.0
 30
0.0
 70
    16
 71
     2
 72
    25
  0
VERTEX
  5
324
  8
TEAM-NET
 10
-195.7174
 20
-271.606378
 30
415.0
 70
    64
  0
VERTEX
  5
325
  8
TEAM-NET
 10
-194.347994
 20
-257.094344
 30
415.0
 70
    64
  0
VERTEX
  5
326
  8
TEAM-NET
 10
-192.453656
 20
-242.641483
 30
415.0
 70
    64
  0
VERTEX
  5
327
  8
TEAM-NET
 10
-190.028576
 20
-228.268178
 30
415.0
 70
    64
  0
VERTEX
  5
328
  8
TEAM-NET
 10
-187.066548
 20
-213.995887
 30
415.0
 70
    64
  0
VERTEX
  5
329
  8
TEAM-NET
 10
-183.558631
 20
-199.84778
 30
415.0
 70
    64
  0
VERTEX
  5
32A
  8
TEAM-NET
 10
-179.494405
 20
-185.849602
 30
415.0
 70
    64
  0
VERTEX
  5
32B
  8
TEAM-NET
 10
-174.863065
 20
-172.028955
 30
415.0
 70
    64
  0
VERTEX
  5
32C
  8
TEAM-NET
 10
-169.650789
 20
-158.416312
 30
415.0
 70
    64
  0
VERTEX
  5
32D
  8
TEAM-NET
 10
-163.84292
 20
-145.047285
 30
415.0
 70
    64
  0
VERTEX
  5
32E
  8
TEAM-NET
 10
-157.424402
 20
-131.960678
 30
415.0
 70
    64
  0
VERTEX
  5
32F
  8
TEAM-NET
 10
-150.377821
 20
-119.201614
 30
415.0
 70
    64
  0
VERTEX
  5
330
  8
TEAM-NET
 10
-142.685615
 20
-106.820876
 30
415.0
 70
    64
  0
VERTEX
  5
331
  8
TEAM-NET
 10
-134.33152
 20
-94.877231
 30
415.0
 70
    64
  0
VERTEX
  5
332
  8
TEAM-NET
 10
-125.298636
 20
-83.438734
 30
415.0
 70
    64
  0
VERTEX
  5
333
  8
TEAM-NET
 10
-115.574374
 20
-72.582234
 30
415.0
 70
    64
  0
VERTEX
  5
334
  8
TEAM-NET
 10
-105.150392
 20
-62.396279
 30
415.0
 70
    64
  0
VERTEX
  5
335
  8
TEAM-NET
 10
-94.025644
 20
-52.981385
 30
415.0
 70
    64
  0
VERTEX
  5
336
  8
TEAM-NET
 10
-82.211907
 20
-44.447883
 30
415.0
 70
    64
  0
VERTEX
  5
337
  8
TEAM-NET
 10
-69.735215
 20
-36.91793
 30
415.0
 70
    64
  0
VERTEX
  5
338
  8
TEAM-NET
 10
-56.644022
 20
-30.517055
 30
415.0
 70
    64
  0
VERTEX
  5
339
  8
TEAM-NET
 10
-43.01085
 20
-25.372298
 30
415.0
 70
    64
  0
VERTEX
  5
33A
  8
TEAM-NET
 10
-28.936713
 20
-21.599357
 30
415.0
 70
    64
  0
VERTEX
  5
33B
  8
TEAM-NET
 10
-14.549732
 20
-19.293266
 30
415.0
 70
    64
  0
VERTEX
  5
33C
  8
TEAM-NET
 10
0.0
 20
-18.517255
 30
415.0
 70
    64
  0
VERTEX
  5
33D
  8
TEAM-NET
 10
-194.90122
 20
-302.736863
 30
415.0
 70
    64
  0
VERTEX
  5
33E
  8
TEAM-NET
 10
-195.491324
 20
-282.619704
 30
415.0
 70
    64
  0
VERTEX
  5
33F
  8
TEAM-NET
 10
-195.852566
 20
-262.497134
 30
415.0
 70
    64
  0
VERTEX
  5
340
  8
TEAM-NET
 10
-195.984898
 20
-242.371757
 30
415.0
 70
    64
  0
VERTEX
  5
341
  8
TEAM-NET
 10
-195.888305
 20
-222.246177
 30
415.0
 70
    64
  0
VERTEX
  5
342
  8
TEAM-NET
 10
-195.562797
 20
-202.122998
 30
415.0
 70
    64
  0
VERTEX
  5
343
  8
TEAM-NET
 10
-195.008418
 20
-182.004823
 30
415.0
 70
    64
  0
VERTEX
  5
344
  8
TEAM-NET
 10
-194.225239
 20
-161.894255
 30
415.0
 70
    64
  0
VERTEX
  5
345
  8
TEAM-NET
 10
-193.213362
 20
-141.793896
 30
415.0
 70
    64
  0
VERTEX
  5
346
  8
TEAM-NET
 10
-191.972917
 20
-121.706348
 30
415.0
 70
    64
  0
VERTEX
  5
347
  8
TEAM-NET
 10
-190.504065
 20
-101.634209
 30
415.0
 70
    64
  0
VERTEX
  5
348
  8
TEAM-NET
 10
-188.806995
 20
-81.580075
 30
415.0
 70
    64
  0
VERTEX
  5
349
  8
TEAM-NET
 10
-186.881928
 20
-61.546543
 30
415.0
 70
    64
  0
VERTEX
  5
34A
  8
TEAM-NET
 10
-184.729113
 20
-41.536203
 30
415.0
 70
    64
  0
VERTEX
  5
34B
  8
TEAM-NET
 10
-182.348828
 20
-21.551645
 30
415.0
 70
    64
  0
VERTEX
  5
34C
  8
TEAM-NET
 10
-179.74138
 20
-1.595455
 30
415.0
 70
    64
  0
VERTEX
  5
34D
  8
TEAM-NET
 10
-161.007364
 20
0.0
 30
415.0
 70
    64
  0
VERTEX
  5
34E
  8
TEAM-NET
 10
-140.881443
 20
0.0
 30
415.0
 70
    64
  0
VERTEX
  5
34F
  8
TEAM-NET
 10
-120.755523
 20
0.0
 30
415.0
 70
    64
  0
VERTEX
  5
350
  8
TEAM-NET
 10
-100.629602
 20
0.0
 30
415.0
 70
    64
  0
VERTEX
  5
351
  8
TEAM-NET
 10
-80.503682
 20
0.0
 30
415.0
 70
    64
  0
VERTEX
  5
352
  8
TEAM-NET
 10
-60.377761
 20
0.0
 30
415.0
 70
    64
  0
VERTEX
  5
353
  8
TEAM-NET
 10
-40.251841
 20
0.0
 30
415.0
 70
    64
  0
VERTEX
  5
354
  8
TEAM-NET
 10
-20.12592
 20
0.0
 30
415.0
 70
    64
  0
VERTEX
  5
355
  8
TEAM-NET
 10
0.0
 20
0.0
 30
415.0
 70
    64
  0
SEQEND
  5
356
  8
TEAM-NET
  0
ENDSEC
  0
EOF
