  0
SECTION
  2
HEADER
  9
$ACADVER
  1
AC1009
  9
$INSBASE
 10
0.0
 20
0.0
 30
0.0
  9
$EXTMIN
 10
-217.282104
 20
-607.320861
 30
-10.01419
  9
$EXTMAX
 10
217.282105
 20
10.017702
 30
455.014192
  9
$LIMMIN
 10
-217.282104
 20
-607.320861
  9
$LIMMAX
 10
217.282105
 20
10.017702
  9
$ORTHOMODE
 70
     1
  9
$REGENMODE
 70
     1
  9
$FILLMODE
 70
     1
  9
$QTEXTMODE
 70
     0
  9
$MIRRTEXT
 70
     0
  9
$DRAGMODE
 70
     2
  9
$LTSCALE
 40
25.0
  9
$OSMODE
 70
     0
  9
$ATTMODE
 70
     1
  9
$TEXTSIZE
 40
200.0
  9
$TRACEWID
 40
1.0
  9
$TEXTSTYLE
  7
STANDARD
  9
$CLAYER
  8
TEAM-MAS
  9
$CELTYPE
  6
BYLAYER
  9
$CECOLOR
 62
   256
  9
$DIMSCALE
 40
1.0
  9
$DIMASZ
 40
20.0
  9
$DIMEXO
 40
10.0
  9
$DIMDLI
 40
1.0
  9
$DIMRND
 40
0.0
  9
$DIMDLE
 40
0.0
  9
$DIMEXE
 40
1.0
  9
$DIMTP
 40
0.0
  9
$DIMTM
 40
0.0
  9
$DIMTXT
 40
35.0
  9
$DIMCEN
 40
1.0
  9
$DIMTSZ
 40
0.0
  9
$DIMTOL
 70
     0
  9
$DIMLIM
 70
     0
  9
$DIMTIH
 70
     0
  9
$DIMTOH
 70
     0
  9
$DIMSE1
 70
     0
  9
$DIMSE2
 70
     0
  9
$DIMTAD
 70
     0
  9
$DIMZIN
 70
     0
  9
$DIMBLK
  1

  9
$DIMASO
 70
     1
  9
$DIMSHO
 70
     0
  9
$DIMPOST
  1

  9
$DIMAPOST
  1

  9
$DIMALT
 70
     0
  9
$DIMALTD
 70
     2
  9
$DIMALTF
 40
25.4
  9
$DIMLFAC
 40
1.0
  9
$DIMTOFL
 70
     0
  9
$DIMTVP
 40
0.0
  9
$DIMTIX
 70
     0
  9
$DIMSOXD
 70
     0
  9
$DIMSAH
 70
     0
  9
$DIMBLK1
  1

  9
$DIMBLK2
  1

  9
$DIMSTYLE
  2
TEAM
  9
$DIMCLRD
 70
     9
  9
$DIMCLRE
 70
     9
  9
$DIMCLRT
 70
    11
  9
$DIMTFAC
 40
1.0
  9
$DIMGAP
 40
15.0
  9
$LUNITS
 70
     2
  9
$LUPREC
 70
     1
  9
$SKETCHINC
 40
1.0
  9
$FILLETRAD
 40
30.0
  9
$AUNITS
 70
     0
  9
$AUPREC
 70
     0
  9
$MENU
  1
ROPLANS
  9
$ELEVATION
 40
0.0
  9
$PELEVATION
 40
0.0
  9
$THICKNESS
 40
0.0
  9
$LIMCHECK
 70
     0
  9
$BLIPMODE
 70
     1
  9
$CHAMFERA
 40
0.0
  9
$CHAMFERB
 40
0.0
  9
$SKPOLY
 70
     0
  9
$TDCREATE
 40
2450392.957851
  9
$TDUPDATE
 40
2455538.898483
  9
$TDINDWG
 40
2.647184
  9
$TDUSRTIMER
 40
2.647184
  9
$USRTIMER
 70
     1
  9
$ANGBASE
 50
0.0
  9
$ANGDIR
 70
     0
  9
$PDMODE
 70
     0
  9
$PDSIZE
 40
0.0
  9
$PLINEWID
 40
0.0
  9
$COORDS
 70
     2
  9
$SPLFRAME
 70
     0
  9
$SPLINETYPE
 70
     6
  9
$SPLINESEGS
 70
     8
  9
$ATTDIA
 70
     0
  9
$ATTREQ
 70
     0
  9
$HANDLING
 70
     1
  9
$HANDSEED
  5
2E0
  9
$SURFTAB1
 70
    24
  9
$SURFTAB2
 70
    24
  9
$SURFTYPE
 70
     6
  9
$SURFU
 70
     6
  9
$SURFV
 70
     6
  9
$UCSNAME
  2

  9
$UCSORG
 10
0.0
 20
0.0
 30
0.0
  9
$UCSXDIR
 10
1.0
 20
0.0
 30
0.0
  9
$UCSYDIR
 10
0.0
 20
1.0
 30
0.0
  9
$PUCSNAME
  2

  9
$PUCSORG
 10
0.0
 20
0.0
 30
0.0
  9
$PUCSXDIR
 10
1.0
 20
0.0
 30
0.0
  9
$PUCSYDIR
 10
0.0
 20
1.0
 30
0.0
  9
$USERI1
 70
     0
  9
$USERI2
 70
     0
  9
$USERI3
 70
     0
  9
$USERI4
 70
     0
  9
$USERI5
 70
     0
  9
$USERR1
 40
0.0
  9
$USERR2
 40
0.0
  9
$USERR3
 40
0.0
  9
$USERR4
 40
0.0
  9
$USERR5
 40
0.0
  9
$WORLDVIEW
 70
     1
  9
$SHADEDGE
 70
     0
  9
$SHADEDIF
 70
    70
  9
$TILEMODE
 70
     1
  9
$MAXACTVP
 70
    16
  9
$PLIMCHECK
 70
     0
  9
$PEXTMIN
 10
-0.805942
 20
0.005011
 30
0.0
  9
$PEXTMAX
 10
20.250094
 20
11.356329
 30
0.0
  9
$PLIMMIN
 10
0.0
 20
0.0
  9
$PLIMMAX
 10
12.0
 20
9.0
  9
$UNITMODE
 70
     0
  9
$VISRETAIN
 70
     0
  9
$PLINEGEN
 70
     0
  9
$PSLTSCALE
 70
     0
  0
ENDSEC
  0
SECTION
  2
TABLES
  0
TABLE
  2
VPORT
 70
     2
  0
VPORT
  2
*ACTIVE
 70
     0
 10
0.0
 20
0.0
 11
1.0
 21
1.0
 12
0.000001
 22
-298.651579
 13
0.0
 23
0.0
 14
1.0
 24
1.0
 15
50.0
 25
50.0
 16
0.0
 26
0.0
 36
1.0
 17
0.0
 27
0.0
 37
0.0
 40
621.129792
 41
1.865779
 42
50.0
 43
0.0
 44
0.0
 50
0.0
 51
0.0
 71
     0
 72
   100
 73
     1
 74
     1
 75
     0
 76
     0
 77
     0
 78
     0
  0
ENDTAB
  0
TABLE
  2
LTYPE
 70
     1
  0
LTYPE
  2
CONTINUOUS
 70
     0
  3
Solid Line
 72
    65
 73
     0
 40
0.0
  0
ENDTAB
  0
TABLE
  2
LAYER
 70
     9
  0
LAYER
  2
0
 70
     0
 62
     7
  6
CONTINUOUS
  0
LAYER
  2
TEAM-NET1
 70
     0
 62
    12
  6
CONTINUOUS
  0
LAYER
  2
TEAM-BODY
 70
     0
 62
     2
  6
CONTINUOUS
  0
LAYER
  2
TEAM-MAS
 70
     0
 62
     9
  6
CONTINUOUS
  0
LAYER
  2
TEAM-TXT
 70
     0
 62
    11
  6
CONTINUOUS
  0
LAYER
  2
TEAM-DET1
 70
     0
 62
     4
  6
CONTINUOUS
  0
LAYER
  2
TEAM-DET2
 70
     0
 62
     5
  6
CONTINUOUS
  0
LAYER
  2
TEAM-DET3
 70
     0
 62
    14
  6
CONTINUOUS
  0
LAYER
  2
TEAM-INSP
 70
     0
 62
     5
  6
CONTINUOUS
  0
ENDTAB
  0
TABLE
  2
STYLE
 70
     2
  0
STYLE
  2
STANDARD
 70
     0
 40
0.0
 41
1.0
 50
0.0
 71
     0
 42
200.0
  3
txt
  4

  0
STYLE
  2
TEAM
 70
     0
 40
0.0
 41
0.8
 50
15.0
 71
     0
 42
7.0
  3
ROMANS.shx
  4

  0
ENDTAB
  0
TABLE
  2
VIEW
 70
     0
  0
ENDTAB
  0
TABLE
  2
UCS
 70
     0
  0
ENDTAB
  0
TABLE
  2
APPID
 70
     1
  0
APPID
  2
ACAD
 70
     0
  0
ENDTAB
  0
TABLE
  2
DIMSTYLE
 70
     1
  0
DIMSTYLE
  2
TEAM
 70
     0
  3

  4

  5

  6

  7

 40
1.0
 41
20.0
 42
10.0
 43
1.0
 44
1.0
 45
0.0
 46
0.0
 47
0.0
 48
0.0
140
35.0
141
1.0
142
0.0
143
25.4
144
1.0
145
0.0
146
1.0
147
15.0
 71
     0
 72
     0
 73
     0
 74
     0
 75
     0
 76
     0
 77
     0
 78
     0
170
     0
171
     2
172
     0
173
     0
174
     0
175
     0
176
     9
177
     9
178
    11
  0
ENDTAB
  0
ENDSEC
  0
SECTION
  2
BLOCKS
  0
BLOCK
  8
0
  2
$MODEL_SPACE
 70
     0
 10
0.0
 20
0.0
 30
0.0
  3
$MODEL_SPACE
  1

  0
ENDBLK
  5
2BC
  8
0
  0
BLOCK
 67
     1
  8
0
  2
$PAPER_SPACE
 70
     0
 10
0.0
 20
0.0
 30
0.0
  3
$PAPER_SPACE
  1

  0
ENDBLK
  5
2BA
 67
     1
  8
0
  0
ENDSEC
  0
SECTION
  2
ENTITIES
  0
POLYLINE
  5
20
  8
TEAM-NET1
 66
     1
 10
0.0
 20
0.0
 30
0.0
 70
    16
 71
     2
 72
    37
  0
VERTEX
  5
21
  8
TEAM-NET1
 10
180.0
 20
0.0
 30
450.0
 70
    64
  0
VERTEX
  5
22
  8
TEAM-NET1
 10
180.0
 20
-18.687315
 30
450.0
 70
    64
  0
VERTEX
  5
23
  8
TEAM-NET1
 10
180.0
 20
-37.37463
 30
450.0
 70
    64
  0
VERTEX
  5
24
  8
TEAM-NET1
 10
180.0
 20
-56.061945
 30
450.0
 70
    64
  0
VERTEX
  5
25
  8
TEAM-NET1
 10
180.0
 20
-74.74926
 30
450.0
 70
    64
  0
VERTEX
  5
26
  8
TEAM-NET1
 10
180.0
 20
-93.436575
 30
450.0
 70
    64
  0
VERTEX
  5
27
  8
TEAM-NET1
 10
180.0
 20
-112.12389
 30
450.0
 70
    64
  0
VERTEX
  5
28
  8
TEAM-NET1
 10
180.0
 20
-130.811205
 30
450.0
 70
    64
  0
VERTEX
  5
29
  8
TEAM-NET1
 10
180.0
 20
-149.49852
 30
450.0
 70
    64
  0
VERTEX
  5
2A
  8
TEAM-NET1
 10
180.0
 20
-168.185835
 30
450.0
 70
    64
  0
VERTEX
  5
2B
  8
TEAM-NET1
 10
180.0
 20
-186.87315
 30
450.0
 70
    64
  0
VERTEX
  5
2C
  8
TEAM-NET1
 10
180.0
 20
-205.560465
 30
450.0
 70
    64
  0
VERTEX
  5
2D
  8
TEAM-NET1
 10
180.0
 20
-224.24778
 30
450.0
 70
    64
  0
VERTEX
  5
2E
  8
TEAM-NET1
 10
180.0
 20
-242.935095
 30
450.0
 70
    64
  0
VERTEX
  5
2F
  8
TEAM-NET1
 10
180.0
 20
-261.62241
 30
450.0
 70
    64
  0
VERTEX
  5
30
  8
TEAM-NET1
 10
180.0
 20
-280.309725
 30
450.0
 70
    64
  0
VERTEX
  5
31
  8
TEAM-NET1
 10
180.0
 20
-298.997039
 30
450.0
 70
    64
  0
VERTEX
  5
32
  8
TEAM-NET1
 10
180.0
 20
-317.684354
 30
450.0
 70
    64
  0
VERTEX
  5
33
  8
TEAM-NET1
 10
180.0
 20
-336.371669
 30
450.0
 70
    64
  0
VERTEX
  5
34
  8
TEAM-NET1
 10
180.0
 20
-355.058984
 30
450.0
 70
    64
  0
VERTEX
  5
35
  8
TEAM-NET1
 10
180.0
 20
-373.746299
 30
450.0
 70
    64
  0
VERTEX
  5
36
  8
TEAM-NET1
 10
179.983549
 20
-392.43354
 30
450.0
 70
    64
  0
VERTEX
  5
37
  8
TEAM-NET1
 10
178.762272
 20
-411.072496
 30
450.0
 70
    64
  0
VERTEX
  5
38
  8
TEAM-NET1
 10
175.615978
 20
-429.484531
 30
450.0
 70
    64
  0
VERTEX
  5
39
  8
TEAM-NET1
 10
170.578549
 20
-447.471373
 30
450.0
 70
    64
  0
VERTEX
  5
3A
  8
TEAM-NET1
 10
163.704229
 20
-464.83933
 30
450.0
 70
    64
  0
VERTEX
  5
3B
  8
TEAM-NET1
 10
155.067047
 20
-481.401373
 30
450.0
 70
    64
  0
VERTEX
  5
3C
  8
TEAM-NET1
 10
144.760011
 20
-496.979153
 30
450.0
 70
    64
  0
VERTEX
  5
3D
  8
TEAM-NET1
 10
132.894115
 20
-511.404918
 30
450.0
 70
    64
  0
VERTEX
  5
3E
  8
TEAM-NET1
 10
119.597138
 20
-524.523324
 30
450.0
 70
    64
  0
VERTEX
  5
3F
  8
TEAM-NET1
 10
105.012268
 20
-536.193104
 30
450.0
 70
    64
  0
VERTEX
  5
40
  8
TEAM-NET1
 10
89.296564
 20
-546.288591
 30
450.0
 70
    64
  0
VERTEX
  5
41
  8
TEAM-NET1
 10
72.619263
 20
-554.70107
 30
450.0
 70
    64
  0
VERTEX
  5
42
  8
TEAM-NET1
 10
55.159955
 20
-561.339953
 30
450.0
 70
    64
  0
VERTEX
  5
43
  8
TEAM-NET1
 10
37.106653
 20
-566.133746
 30
450.0
 70
    64
  0
VERTEX
  5
44
  8
TEAM-NET1
 10
18.653764
 20
-569.030827
 30
450.0
 70
    64
  0
VERTEX
  5
45
  8
TEAM-NET1
 10
0.0
 20
-570.0
 30
450.0
 70
    64
  0
VERTEX
  5
46
  8
TEAM-NET1
 10
45.16476
 20
0.0
 30
260.0
 70
    64
  0
VERTEX
  5
47
  8
TEAM-NET1
 10
45.326128
 20
-13.488951
 30
260.0
 70
    64
  0
VERTEX
  5
48
  8
TEAM-NET1
 10
45.500323
 20
-26.977743
 30
260.0
 70
    64
  0
VERTEX
  5
49
  8
TEAM-NET1
 10
45.687346
 20
-40.466363
 30
260.0
 70
    64
  0
VERTEX
  5
4A
  8
TEAM-NET1
 10
45.887196
 20
-53.954799
 30
260.0
 70
    64
  0
VERTEX
  5
4B
  8
TEAM-NET1
 10
46.099873
 20
-67.443039
 30
260.0
 70
    64
  0
VERTEX
  5
4C
  8
TEAM-NET1
 10
46.325376
 20
-80.93107
 30
260.0
 70
    64
  0
VERTEX
  5
4D
  8
TEAM-NET1
 10
46.563707
 20
-94.418881
 30
260.0
 70
    64
  0
VERTEX
  5
4E
  8
TEAM-NET1
 10
46.814864
 20
-107.906459
 30
260.0
 70
    64
  0
VERTEX
  5
4F
  8
TEAM-NET1
 10
47.078848
 20
-121.393792
 30
260.0
 70
    64
  0
VERTEX
  5
50
  8
TEAM-NET1
 10
47.355657
 20
-134.880869
 30
260.0
 70
    64
  0
VERTEX
  5
51
  8
TEAM-NET1
 10
47.645292
 20
-148.367675
 30
260.0
 70
    64
  0
VERTEX
  5
52
  8
TEAM-NET1
 10
47.947753
 20
-161.854201
 30
260.0
 70
    64
  0
VERTEX
  5
53
  8
TEAM-NET1
 10
48.263038
 20
-175.340432
 30
260.0
 70
    64
  0
VERTEX
  5
54
  8
TEAM-NET1
 10
48.591149
 20
-188.826358
 30
260.0
 70
    64
  0
VERTEX
  5
55
  8
TEAM-NET1
 10
48.932084
 20
-202.311965
 30
260.0
 70
    64
  0
VERTEX
  5
56
  8
TEAM-NET1
 10
49.285844
 20
-215.797242
 30
260.0
 70
    64
  0
VERTEX
  5
57
  8
TEAM-NET1
 10
49.652428
 20
-229.282177
 30
260.0
 70
    64
  0
VERTEX
  5
58
  8
TEAM-NET1
 10
50.031835
 20
-242.766757
 30
260.0
 70
    64
  0
VERTEX
  5
59
  8
TEAM-NET1
 10
50.424066
 20
-256.25097
 30
260.0
 70
    64
  0
VERTEX
  5
5A
  8
TEAM-NET1
 10
50.829119
 20
-269.734804
 30
260.0
 70
    64
  0
VERTEX
  5
5B
  8
TEAM-NET1
 10
51.246996
 20
-283.218246
 30
260.0
 70
    64
  0
VERTEX
  5
5C
  8
TEAM-NET1
 10
51.677694
 20
-296.701285
 30
260.0
 70
    64
  0
VERTEX
  5
5D
  8
TEAM-NET1
 10
52.121215
 20
-310.183909
 30
260.0
 70
    64
  0
VERTEX
  5
5E
  8
TEAM-NET1
 10
52.577556
 20
-323.666104
 30
260.0
 70
    64
  0
VERTEX
  5
5F
  8
TEAM-NET1
 10
53.046719
 20
-337.14786
 30
260.0
 70
    64
  0
VERTEX
  5
60
  8
TEAM-NET1
 10
53.528703
 20
-350.629163
 30
260.0
 70
    64
  0
VERTEX
  5
61
  8
TEAM-NET1
 10
54.023506
 20
-364.110002
 30
260.0
 70
    64
  0
VERTEX
  5
62
  8
TEAM-NET1
 10
54.53113
 20
-377.590364
 30
260.0
 70
    64
  0
VERTEX
  5
63
  8
TEAM-NET1
 10
55.025293
 20
-391.070972
 30
260.0
 70
    64
  0
VERTEX
  5
64
  8
TEAM-NET1
 10
53.814679
 20
-404.484363
 30
260.0
 70
    64
  0
VERTEX
  5
65
  8
TEAM-NET1
 10
49.990336
 20
-417.397884
 30
260.0
 70
    64
  0
VERTEX
  5
66
  8
TEAM-NET1
 10
43.70157
 20
-429.307379
 30
260.0
 70
    64
  0
VERTEX
  5
67
  8
TEAM-NET1
 10
35.193901
 20
-439.747888
 30
260.0
 70
    64
  0
VERTEX
  5
68
  8
TEAM-NET1
 10
24.799477
 20
-448.311801
 30
260.0
 70
    64
  0
VERTEX
  5
69
  8
TEAM-NET1
 10
12.924109
 20
-454.664775
 30
260.0
 70
    64
  0
VERTEX
  5
6A
  8
TEAM-NET1
 10
0.0
 20
-458.324217
 30
260.0
 70
    64
  0
SEQEND
  5
6C
  8
TEAM-NET1
  0
POLYLINE
  5
6D
  8
TEAM-NET1
 66
     1
 10
0.0
 20
0.0
 30
0.0
 70
    16
 71
     2
 72
    37
  0
VERTEX
  5
6E
  8
TEAM-NET1
 10
-180.0
 20
0.0
 30
450.0
 70
    64
  0
VERTEX
  5
6F
  8
TEAM-NET1
 10
-180.0
 20
-18.687315
 30
450.0
 70
    64
  0
VERTEX
  5
70
  8
TEAM-NET1
 10
-180.0
 20
-37.37463
 30
450.0
 70
    64
  0
VERTEX
  5
71
  8
TEAM-NET1
 10
-180.0
 20
-56.061945
 30
450.0
 70
    64
  0
VERTEX
  5
72
  8
TEAM-NET1
 10
-180.0
 20
-74.74926
 30
450.0
 70
    64
  0
VERTEX
  5
73
  8
TEAM-NET1
 10
-180.0
 20
-93.436575
 30
450.0
 70
    64
  0
VERTEX
  5
74
  8
TEAM-NET1
 10
-180.0
 20
-112.12389
 30
450.0
 70
    64
  0
VERTEX
  5
75
  8
TEAM-NET1
 10
-180.0
 20
-130.811205
 30
450.0
 70
    64
  0
VERTEX
  5
76
  8
TEAM-NET1
 10
-180.0
 20
-149.49852
 30
450.0
 70
    64
  0
VERTEX
  5
77
  8
TEAM-NET1
 10
-180.0
 20
-168.185835
 30
450.0
 70
    64
  0
VERTEX
  5
78
  8
TEAM-NET1
 10
-180.0
 20
-186.87315
 30
450.0
 70
    64
  0
VERTEX
  5
79
  8
TEAM-NET1
 10
-180.0
 20
-205.560465
 30
450.0
 70
    64
  0
VERTEX
  5
7A
  8
TEAM-NET1
 10
-180.0
 20
-224.24778
 30
450.0
 70
    64
  0
VERTEX
  5
7B
  8
TEAM-NET1
 10
-180.0
 20
-242.935095
 30
450.0
 70
    64
  0
VERTEX
  5
7C
  8
TEAM-NET1
 10
-180.0
 20
-261.62241
 30
450.0
 70
    64
  0
VERTEX
  5
7D
  8
TEAM-NET1
 10
-180.0
 20
-280.309725
 30
450.0
 70
    64
  0
VERTEX
  5
7E
  8
TEAM-NET1
 10
-180.0
 20
-298.997039
 30
450.0
 70
    64
  0
VERTEX
  5
7F
  8
TEAM-NET1
 10
-180.0
 20
-317.684354
 30
450.0
 70
    64
  0
VERTEX
  5
80
  8
TEAM-NET1
 10
-180.0
 20
-336.371669
 30
450.0
 70
    64
  0
VERTEX
  5
81
  8
TEAM-NET1
 10
-180.0
 20
-355.058984
 30
450.0
 70
    64
  0
VERTEX
  5
82
  8
TEAM-NET1
 10
-180.0
 20
-373.746299
 30
450.0
 70
    64
  0
VERTEX
  5
83
  8
TEAM-NET1
 10
-179.983549
 20
-392.43354
 30
450.0
 70
    64
  0
VERTEX
  5
84
  8
TEAM-NET1
 10
-178.762272
 20
-411.072496
 30
450.0
 70
    64
  0
VERTEX
  5
85
  8
TEAM-NET1
 10
-175.615978
 20
-429.484531
 30
450.0
 70
    64
  0
VERTEX
  5
86
  8
TEAM-NET1
 10
-170.578549
 20
-447.471373
 30
450.0
 70
    64
  0
VERTEX
  5
87
  8
TEAM-NET1
 10
-163.704229
 20
-464.83933
 30
450.0
 70
    64
  0
VERTEX
  5
88
  8
TEAM-NET1
 10
-155.067047
 20
-481.401373
 30
450.0
 70
    64
  0
VERTEX
  5
89
  8
TEAM-NET1
 10
-144.760011
 20
-496.979153
 30
450.0
 70
    64
  0
VERTEX
  5
8A
  8
TEAM-NET1
 10
-132.894115
 20
-511.404918
 30
450.0
 70
    64
  0
VERTEX
  5
8B
  8
TEAM-NET1
 10
-119.597138
 20
-524.523324
 30
450.0
 70
    64
  0
VERTEX
  5
8C
  8
TEAM-NET1
 10
-105.012268
 20
-536.193104
 30
450.0
 70
    64
  0
VERTEX
  5
8D
  8
TEAM-NET1
 10
-89.296564
 20
-546.288591
 30
450.0
 70
    64
  0
VERTEX
  5
8E
  8
TEAM-NET1
 10
-72.619263
 20
-554.70107
 30
450.0
 70
    64
  0
VERTEX
  5
8F
  8
TEAM-NET1
 10
-55.159955
 20
-561.339953
 30
450.0
 70
    64
  0
VERTEX
  5
90
  8
TEAM-NET1
 10
-37.106653
 20
-566.133746
 30
450.0
 70
    64
  0
VERTEX
  5
91
  8
TEAM-NET1
 10
-18.653764
 20
-569.030827
 30
450.0
 70
    64
  0
VERTEX
  5
92
  8
TEAM-NET1
 10
0.0
 20
-570.0
 30
450.0
 70
    64
  0
VERTEX
  5
93
  8
TEAM-NET1
 10
-45.16476
 20
0.0
 30
260.0
 70
    64
  0
VERTEX
  5
94
  8
TEAM-NET1
 10
-45.326128
 20
-13.488951
 30
260.0
 70
    64
  0
VERTEX
  5
95
  8
TEAM-NET1
 10
-45.500323
 20
-26.977743
 30
260.0
 70
    64
  0
VERTEX
  5
96
  8
TEAM-NET1
 10
-45.687346
 20
-40.466363
 30
260.0
 70
    64
  0
VERTEX
  5
97
  8
TEAM-NET1
 10
-45.887196
 20
-53.954799
 30
260.0
 70
    64
  0
VERTEX
  5
98
  8
TEAM-NET1
 10
-46.099873
 20
-67.443039
 30
260.0
 70
    64
  0
VERTEX
  5
99
  8
TEAM-NET1
 10
-46.325376
 20
-80.93107
 30
260.0
 70
    64
  0
VERTEX
  5
9A
  8
TEAM-NET1
 10
-46.563707
 20
-94.418881
 30
260.0
 70
    64
  0
VERTEX
  5
9B
  8
TEAM-NET1
 10
-46.814864
 20
-107.906459
 30
260.0
 70
    64
  0
VERTEX
  5
9C
  8
TEAM-NET1
 10
-47.078848
 20
-121.393792
 30
260.0
 70
    64
  0
VERTEX
  5
9D
  8
TEAM-NET1
 10
-47.355657
 20
-134.880869
 30
260.0
 70
    64
  0
VERTEX
  5
9E
  8
TEAM-NET1
 10
-47.645292
 20
-148.367675
 30
260.0
 70
    64
  0
VERTEX
  5
9F
  8
TEAM-NET1
 10
-47.947753
 20
-161.854201
 30
260.0
 70
    64
  0
VERTEX
  5
A0
  8
TEAM-NET1
 10
-48.263038
 20
-175.340432
 30
260.0
 70
    64
  0
VERTEX
  5
A1
  8
TEAM-NET1
 10
-48.591149
 20
-188.826358
 30
260.0
 70
    64
  0
VERTEX
  5
A2
  8
TEAM-NET1
 10
-48.932084
 20
-202.311965
 30
260.0
 70
    64
  0
VERTEX
  5
A3
  8
TEAM-NET1
 10
-49.285844
 20
-215.797242
 30
260.0
 70
    64
  0
VERTEX
  5
A4
  8
TEAM-NET1
 10
-49.652428
 20
-229.282177
 30
260.0
 70
    64
  0
VERTEX
  5
A5
  8
TEAM-NET1
 10
-50.031835
 20
-242.766757
 30
260.0
 70
    64
  0
VERTEX
  5
A6
  8
TEAM-NET1
 10
-50.424066
 20
-256.25097
 30
260.0
 70
    64
  0
VERTEX
  5
A7
  8
TEAM-NET1
 10
-50.829119
 20
-269.734804
 30
260.0
 70
    64
  0
VERTEX
  5
A8
  8
TEAM-NET1
 10
-51.246996
 20
-283.218246
 30
260.0
 70
    64
  0
VERTEX
  5
A9
  8
TEAM-NET1
 10
-51.677694
 20
-296.701285
 30
260.0
 70
    64
  0
VERTEX
  5
AA
  8
TEAM-NET1
 10
-52.121215
 20
-310.183909
 30
260.0
 70
    64
  0
VERTEX
  5
AB
  8
TEAM-NET1
 10
-52.577556
 20
-323.666104
 30
260.0
 70
    64
  0
VERTEX
  5
AC
  8
TEAM-NET1
 10
-53.046719
 20
-337.14786
 30
260.0
 70
    64
  0
VERTEX
  5
AD
  8
TEAM-NET1
 10
-53.528703
 20
-350.629163
 30
260.0
 70
    64
  0
VERTEX
  5
AE
  8
TEAM-NET1
 10
-54.023506
 20
-364.110002
 30
260.0
 70
    64
  0
VERTEX
  5
AF
  8
TEAM-NET1
 10
-54.53113
 20
-377.590364
 30
260.0
 70
    64
  0
VERTEX
  5
B0
  8
TEAM-NET1
 10
-55.025293
 20
-391.070972
 30
260.0
 70
    64
  0
VERTEX
  5
B1
  8
TEAM-NET1
 10
-53.814679
 20
-404.484363
 30
260.0
 70
    64
  0
VERTEX
  5
B2
  8
TEAM-NET1
 10
-49.990336
 20
-417.397884
 30
260.0
 70
    64
  0
VERTEX
  5
B3
  8
TEAM-NET1
 10
-43.70157
 20
-429.307379
 30
260.0
 70
    64
  0
VERTEX
  5
B4
  8
TEAM-NET1
 10
-35.193901
 20
-439.747888
 30
260.0
 70
    64
  0
VERTEX
  5
B5
  8
TEAM-NET1
 10
-24.799477
 20
-448.311801
 30
260.0
 70
    64
  0
VERTEX
  5
B6
  8
TEAM-NET1
 10
-12.924109
 20
-454.664775
 30
260.0
 70
    64
  0
VERTEX
  5
B7
  8
TEAM-NET1
 10
0.0
 20
-458.324217
 30
260.0
 70
    64
  0
SEQEND
  5
B8
  8
TEAM-NET1
  0
POLYLINE
  5
B9
  8
TEAM-NET1
 66
     1
 10
0.0
 20
0.0
 30
0.0
 70
    16
 71
     2
 72
    37
  0
VERTEX
  5
BA
  8
TEAM-NET1
 10
180.0
 20
0.0
 30
450.0
 70
    64
  0
VERTEX
  5
BB
  8
TEAM-NET1
 10
175.0
 20
0.0
 30
450.0
 70
    64
  0
VERTEX
  5
BC
  8
TEAM-NET1
 10
170.0
 20
0.0
 30
450.0
 70
    64
  0
VERTEX
  5
BD
  8
TEAM-NET1
 10
165.0
 20
0.0
 30
450.0
 70
    64
  0
VERTEX
  5
BE
  8
TEAM-NET1
 10
160.0
 20
0.0
 30
450.0
 70
    64
  0
VERTEX
  5
BF
  8
TEAM-NET1
 10
155.0
 20
0.0
 30
450.0
 70
    64
  0
VERTEX
  5
C0
  8
TEAM-NET1
 10
150.0
 20
0.0
 30
450.0
 70
    64
  0
VERTEX
  5
C1
  8
TEAM-NET1
 10
145.0
 20
0.0
 30
450.0
 70
    64
  0
VERTEX
  5
C2
  8
TEAM-NET1
 10
140.0
 20
0.0
 30
450.0
 70
    64
  0
VERTEX
  5
C3
  8
TEAM-NET1
 10
135.0
 20
0.0
 30
450.0
 70
    64
  0
VERTEX
  5
C4
  8
TEAM-NET1
 10
130.0
 20
0.0
 30
450.0
 70
    64
  0
VERTEX
  5
C5
  8
TEAM-NET1
 10
125.0
 20
0.0
 30
450.0
 70
    64
  0
VERTEX
  5
C6
  8
TEAM-NET1
 10
120.0
 20
0.0
 30
450.0
 70
    64
  0
VERTEX
  5
C7
  8
TEAM-NET1
 10
115.0
 20
0.0
 30
450.0
 70
    64
  0
VERTEX
  5
C8
  8
TEAM-NET1
 10
110.0
 20
0.0
 30
450.0
 70
    64
  0
VERTEX
  5
C9
  8
TEAM-NET1
 10
105.0
 20
0.0
 30
450.0
 70
    64
  0
VERTEX
  5
CA
  8
TEAM-NET1
 10
100.0
 20
0.0
 30
450.0
 70
    64
  0
VERTEX
  5
CB
  8
TEAM-NET1
 10
95.0
 20
0.0
 30
450.0
 70
    64
  0
VERTEX
  5
CC
  8
TEAM-NET1
 10
90.0
 20
0.0
 30
450.0
 70
    64
  0
VERTEX
  5
CD
  8
TEAM-NET1
 10
85.0
 20
0.0
 30
450.0
 70
    64
  0
VERTEX
  5
CE
  8
TEAM-NET1
 10
80.0
 20
0.0
 30
450.0
 70
    64
  0
VERTEX
  5
CF
  8
TEAM-NET1
 10
75.0
 20
0.0
 30
450.0
 70
    64
  0
VERTEX
  5
D0
  8
TEAM-NET1
 10
70.0
 20
0.0
 30
450.0
 70
    64
  0
VERTEX
  5
D1
  8
TEAM-NET1
 10
65.0
 20
0.0
 30
450.0
 70
    64
  0
VERTEX
  5
D2
  8
TEAM-NET1
 10
60.0
 20
0.0
 30
450.0
 70
    64
  0
VERTEX
  5
D3
  8
TEAM-NET1
 10
55.0
 20
0.0
 30
450.0
 70
    64
  0
VERTEX
  5
D4
  8
TEAM-NET1
 10
50.0
 20
0.0
 30
450.0
 70
    64
  0
VERTEX
  5
D5
  8
TEAM-NET1
 10
45.0
 20
0.0
 30
450.0
 70
    64
  0
VERTEX
  5
D6
  8
TEAM-NET1
 10
40.0
 20
0.0
 30
450.0
 70
    64
  0
VERTEX
  5
D7
  8
TEAM-NET1
 10
35.0
 20
0.0
 30
450.0
 70
    64
  0
VERTEX
  5
D8
  8
TEAM-NET1
 10
30.0
 20
0.0
 30
450.0
 70
    64
  0
VERTEX
  5
D9
  8
TEAM-NET1
 10
25.0
 20
0.0
 30
450.0
 70
    64
  0
VERTEX
  5
DA
  8
TEAM-NET1
 10
20.0
 20
0.0
 30
450.0
 70
    64
  0
VERTEX
  5
DB
  8
TEAM-NET1
 10
15.0
 20
0.0
 30
450.0
 70
    64
  0
VERTEX
  5
DC
  8
TEAM-NET1
 10
10.0
 20
0.0
 30
450.0
 70
    64
  0
VERTEX
  5
DD
  8
TEAM-NET1
 10
5.0
 20
0.0
 30
450.0
 70
    64
  0
VERTEX
  5
DE
  8
TEAM-NET1
 10
0.0
 20
0.0
 30
450.0
 70
    64
  0
VERTEX
  5
DF
  8
TEAM-NET1
 10
45.16476
 20
0.0
 30
260.0
 70
    64
  0
VERTEX
  5
E0
  8
TEAM-NET1
 10
44.584669
 20
0.0
 30
255.36768
 70
    64
  0
VERTEX
  5
E1
  8
TEAM-NET1
 10
44.004579
 20
0.0
 30
250.73536
 70
    64
  0
VERTEX
  5
E2
  8
TEAM-NET1
 10
43.424488
 20
0.0
 30
246.10304
 70
    64
  0
VERTEX
  5
E3
  8
TEAM-NET1
 10
42.844398
 20
0.0
 30
241.47072
 70
    64
  0
VERTEX
  5
E4
  8
TEAM-NET1
 10
42.264307
 20
0.0
 30
236.8384
 70
    64
  0
VERTEX
  5
E5
  8
TEAM-NET1
 10
41.684217
 20
0.0
 30
232.20608
 70
    64
  0
VERTEX
  5
E6
  8
TEAM-NET1
 10
41.104126
 20
0.0
 30
227.57376
 70
    64
  0
VERTEX
  5
E7
  8
TEAM-NET1
 10
40.524036
 20
0.0
 30
222.94144
 70
    64
  0
VERTEX
  5
E8
  8
TEAM-NET1
 10
39.943945
 20
0.0
 30
218.30912
 70
    64
  0
VERTEX
  5
E9
  8
TEAM-NET1
 10
39.363855
 20
0.0
 30
213.6768
 70
    64
  0
VERTEX
  5
EA
  8
TEAM-NET1
 10
38.783764
 20
0.0
 30
209.04448
 70
    64
  0
VERTEX
  5
EB
  8
TEAM-NET1
 10
38.203674
 20
0.0
 30
204.41216
 70
    64
  0
VERTEX
  5
EC
  8
TEAM-NET1
 10
37.623583
 20
0.0
 30
199.77984
 70
    64
  0
VERTEX
  5
ED
  8
TEAM-NET1
 10
37.043493
 20
0.0
 30
195.14752
 70
    64
  0
VERTEX
  5
EE
  8
TEAM-NET1
 10
36.463402
 20
0.0
 30
190.5152
 70
    64
  0
VERTEX
  5
EF
  8
TEAM-NET1
 10
35.883312
 20
0.0
 30
185.88288
 70
    64
  0
VERTEX
  5
F0
  8
TEAM-NET1
 10
35.303221
 20
0.0
 30
181.25056
 70
    64
  0
VERTEX
  5
F1
  8
TEAM-NET1
 10
34.723131
 20
0.0
 30
176.618241
 70
    64
  0
VERTEX
  5
F2
  8
TEAM-NET1
 10
34.14304
 20
0.0
 30
171.985921
 70
    64
  0
VERTEX
  5
F3
  8
TEAM-NET1
 10
33.56295
 20
0.0
 30
167.353601
 70
    64
  0
VERTEX
  5
F4
  8
TEAM-NET1
 10
32.982859
 20
0.0
 30
162.721281
 70
    64
  0
VERTEX
  5
F5
  8
TEAM-NET1
 10
32.402769
 20
0.0
 30
158.088961
 70
    64
  0
VERTEX
  5
F6
  8
TEAM-NET1
 10
31.822678
 20
0.0
 30
153.456641
 70
    64
  0
VERTEX
  5
F7
  8
TEAM-NET1
 10
31.242588
 20
0.0
 30
148.824321
 70
    64
  0
VERTEX
  5
F8
  8
TEAM-NET1
 10
30.662497
 20
0.0
 30
144.192001
 70
    64
  0
VERTEX
  5
F9
  8
TEAM-NET1
 10
30.082407
 20
0.0
 30
139.559681
 70
    64
  0
VERTEX
  5
FA
  8
TEAM-NET1
 10
29.502316
 20
0.0
 30
134.927361
 70
    64
  0
VERTEX
  5
FB
  8
TEAM-NET1
 10
28.421245
 20
0.0
 30
130.396206
 70
    64
  0
VERTEX
  5
FC
  8
TEAM-NET1
 10
26.589321
 20
0.0
 30
126.107267
 70
    64
  0
VERTEX
  5
FD
  8
TEAM-NET1
 10
24.114793
 20
0.0
 30
122.154083
 70
    64
  0
VERTEX
  5
FE
  8
TEAM-NET1
 10
21.057467
 20
0.0
 30
118.632195
 70
    64
  0
VERTEX
  5
FF
  8
TEAM-NET1
 10
17.491229
 20
0.0
 30
115.626717
 70
    64
  0
VERTEX
  5
100
  8
TEAM-NET1
 10
13.502268
 20
0.0
 30
113.210287
 70
    64
  0
VERTEX
  5
101
  8
TEAM-NET1
 10
9.186989
 20
0.0
 30
111.441302
 70
    64
  0
VERTEX
  5
102
  8
TEAM-NET1
 10
4.64968
 20
0.0
 30
110.362516
 70
    64
  0
VERTEX
  5
103
  8
TEAM-NET1
 10
0.0
 20
0.0
 30
110.0
 70
    64
  0
SEQEND
  5
104
  8
TEAM-NET1
  0
POLYLINE
  5
105
  8
TEAM-NET1
 66
     1
 10
0.0
 20
0.0
 30
0.0
 70
    16
 71
     2
 72
    37
  0
VERTEX
  5
106
  8
TEAM-NET1
 10
-180.0
 20
0.0
 30
450.0
 70
    64
  0
VERTEX
  5
107
  8
TEAM-NET1
 10
-175.0
 20
0.0
 30
450.0
 70
    64
  0
VERTEX
  5
108
  8
TEAM-NET1
 10
-170.0
 20
0.0
 30
450.0
 70
    64
  0
VERTEX
  5
109
  8
TEAM-NET1
 10
-165.0
 20
0.0
 30
450.0
 70
    64
  0
VERTEX
  5
10A
  8
TEAM-NET1
 10
-160.0
 20
0.0
 30
450.0
 70
    64
  0
VERTEX
  5
10B
  8
TEAM-NET1
 10
-155.0
 20
0.0
 30
450.0
 70
    64
  0
VERTEX
  5
10C
  8
TEAM-NET1
 10
-150.0
 20
0.0
 30
450.0
 70
    64
  0
VERTEX
  5
10D
  8
TEAM-NET1
 10
-145.0
 20
0.0
 30
450.0
 70
    64
  0
VERTEX
  5
10E
  8
TEAM-NET1
 10
-140.0
 20
0.0
 30
450.0
 70
    64
  0
VERTEX
  5
10F
  8
TEAM-NET1
 10
-135.0
 20
0.0
 30
450.0
 70
    64
  0
VERTEX
  5
110
  8
TEAM-NET1
 10
-130.0
 20
0.0
 30
450.0
 70
    64
  0
VERTEX
  5
111
  8
TEAM-NET1
 10
-125.0
 20
0.0
 30
450.0
 70
    64
  0
VERTEX
  5
112
  8
TEAM-NET1
 10
-120.0
 20
0.0
 30
450.0
 70
    64
  0
VERTEX
  5
113
  8
TEAM-NET1
 10
-115.0
 20
0.0
 30
450.0
 70
    64
  0
VERTEX
  5
114
  8
TEAM-NET1
 10
-110.0
 20
0.0
 30
450.0
 70
    64
  0
VERTEX
  5
115
  8
TEAM-NET1
 10
-105.0
 20
0.0
 30
450.0
 70
    64
  0
VERTEX
  5
116
  8
TEAM-NET1
 10
-100.0
 20
0.0
 30
450.0
 70
    64
  0
VERTEX
  5
117
  8
TEAM-NET1
 10
-95.0
 20
0.0
 30
450.0
 70
    64
  0
VERTEX
  5
118
  8
TEAM-NET1
 10
-90.0
 20
0.0
 30
450.0
 70
    64
  0
VERTEX
  5
119
  8
TEAM-NET1
 10
-85.0
 20
0.0
 30
450.0
 70
    64
  0
VERTEX
  5
11A
  8
TEAM-NET1
 10
-80.0
 20
0.0
 30
450.0
 70
    64
  0
VERTEX
  5
11B
  8
TEAM-NET1
 10
-75.0
 20
0.0
 30
450.0
 70
    64
  0
VERTEX
  5
11C
  8
TEAM-NET1
 10
-70.0
 20
0.0
 30
450.0
 70
    64
  0
VERTEX
  5
11D
  8
TEAM-NET1
 10
-65.0
 20
0.0
 30
450.0
 70
    64
  0
VERTEX
  5
11E
  8
TEAM-NET1
 10
-60.0
 20
0.0
 30
450.0
 70
    64
  0
VERTEX
  5
11F
  8
TEAM-NET1
 10
-55.0
 20
0.0
 30
450.0
 70
    64
  0
VERTEX
  5
120
  8
TEAM-NET1
 10
-50.0
 20
0.0
 30
450.0
 70
    64
  0
VERTEX
  5
121
  8
TEAM-NET1
 10
-45.0
 20
0.0
 30
450.0
 70
    64
  0
VERTEX
  5
122
  8
TEAM-NET1
 10
-40.0
 20
0.0
 30
450.0
 70
    64
  0
VERTEX
  5
123
  8
TEAM-NET1
 10
-35.0
 20
0.0
 30
450.0
 70
    64
  0
VERTEX
  5
124
  8
TEAM-NET1
 10
-30.0
 20
0.0
 30
450.0
 70
    64
  0
VERTEX
  5
125
  8
TEAM-NET1
 10
-25.0
 20
0.0
 30
450.0
 70
    64
  0
VERTEX
  5
126
  8
TEAM-NET1
 10
-20.0
 20
0.0
 30
450.0
 70
    64
  0
VERTEX
  5
127
  8
TEAM-NET1
 10
-15.0
 20
0.0
 30
450.0
 70
    64
  0
VERTEX
  5
128
  8
TEAM-NET1
 10
-10.0
 20
0.0
 30
450.0
 70
    64
  0
VERTEX
  5
129
  8
TEAM-NET1
 10
-5.0
 20
0.0
 30
450.0
 70
    64
  0
VERTEX
  5
12A
  8
TEAM-NET1
 10
0.0
 20
0.0
 30
450.0
 70
    64
  0
VERTEX
  5
12B
  8
TEAM-NET1
 10
-45.16476
 20
0.0
 30
260.0
 70
    64
  0
VERTEX
  5
12C
  8
TEAM-NET1
 10
-44.584669
 20
0.0
 30
255.36768
 70
    64
  0
VERTEX
  5
12D
  8
TEAM-NET1
 10
-44.004579
 20
0.0
 30
250.73536
 70
    64
  0
VERTEX
  5
12E
  8
TEAM-NET1
 10
-43.424488
 20
0.0
 30
246.10304
 70
    64
  0
VERTEX
  5
12F
  8
TEAM-NET1
 10
-42.844398
 20
0.0
 30
241.47072
 70
    64
  0
VERTEX
  5
130
  8
TEAM-NET1
 10
-42.264307
 20
0.0
 30
236.8384
 70
    64
  0
VERTEX
  5
131
  8
TEAM-NET1
 10
-41.684217
 20
0.0
 30
232.20608
 70
    64
  0
VERTEX
  5
132
  8
TEAM-NET1
 10
-41.104126
 20
0.0
 30
227.57376
 70
    64
  0
VERTEX
  5
133
  8
TEAM-NET1
 10
-40.524036
 20
0.0
 30
222.94144
 70
    64
  0
VERTEX
  5
134
  8
TEAM-NET1
 10
-39.943945
 20
0.0
 30
218.30912
 70
    64
  0
VERTEX
  5
135
  8
TEAM-NET1
 10
-39.363855
 20
0.0
 30
213.6768
 70
    64
  0
VERTEX
  5
136
  8
TEAM-NET1
 10
-38.783764
 20
0.0
 30
209.04448
 70
    64
  0
VERTEX
  5
137
  8
TEAM-NET1
 10
-38.203674
 20
0.0
 30
204.41216
 70
    64
  0
VERTEX
  5
138
  8
TEAM-NET1
 10
-37.623583
 20
0.0
 30
199.77984
 70
    64
  0
VERTEX
  5
139
  8
TEAM-NET1
 10
-37.043493
 20
0.0
 30
195.14752
 70
    64
  0
VERTEX
  5
13A
  8
TEAM-NET1
 10
-36.463402
 20
0.0
 30
190.5152
 70
    64
  0
VERTEX
  5
13B
  8
TEAM-NET1
 10
-35.883312
 20
0.0
 30
185.88288
 70
    64
  0
VERTEX
  5
13C
  8
TEAM-NET1
 10
-35.303221
 20
0.0
 30
181.25056
 70
    64
  0
VERTEX
  5
13D
  8
TEAM-NET1
 10
-34.723131
 20
0.0
 30
176.618241
 70
    64
  0
VERTEX
  5
13E
  8
TEAM-NET1
 10
-34.14304
 20
0.0
 30
171.985921
 70
    64
  0
VERTEX
  5
13F
  8
TEAM-NET1
 10
-33.56295
 20
0.0
 30
167.353601
 70
    64
  0
VERTEX
  5
140
  8
TEAM-NET1
 10
-32.982859
 20
0.0
 30
162.721281
 70
    64
  0
VERTEX
  5
141
  8
TEAM-NET1
 10
-32.402769
 20
0.0
 30
158.088961
 70
    64
  0
VERTEX
  5
142
  8
TEAM-NET1
 10
-31.822678
 20
0.0
 30
153.456641
 70
    64
  0
VERTEX
  5
143
  8
TEAM-NET1
 10
-31.242588
 20
0.0
 30
148.824321
 70
    64
  0
VERTEX
  5
144
  8
TEAM-NET1
 10
-30.662497
 20
0.0
 30
144.192001
 70
    64
  0
VERTEX
  5
145
  8
TEAM-NET1
 10
-30.082407
 20
0.0
 30
139.559681
 70
    64
  0
VERTEX
  5
146
  8
TEAM-NET1
 10
-29.502316
 20
0.0
 30
134.927361
 70
    64
  0
VERTEX
  5
147
  8
TEAM-NET1
 10
-28.421245
 20
0.0
 30
130.396206
 70
    64
  0
VERTEX
  5
148
  8
TEAM-NET1
 10
-26.589321
 20
0.0
 30
126.107267
 70
    64
  0
VERTEX
  5
149
  8
TEAM-NET1
 10
-24.114793
 20
0.0
 30
122.154083
 70
    64
  0
VERTEX
  5
14A
  8
TEAM-NET1
 10
-21.057467
 20
0.0
 30
118.632195
 70
    64
  0
VERTEX
  5
14B
  8
TEAM-NET1
 10
-17.491229
 20
0.0
 30
115.626717
 70
    64
  0
VERTEX
  5
14C
  8
TEAM-NET1
 10
-13.502268
 20
0.0
 30
113.210287
 70
    64
  0
VERTEX
  5
14D
  8
TEAM-NET1
 10
-9.186989
 20
0.0
 30
111.441302
 70
    64
  0
VERTEX
  5
14E
  8
TEAM-NET1
 10
-4.64968
 20
0.0
 30
110.362516
 70
    64
  0
VERTEX
  5
14F
  8
TEAM-NET1
 10
0.0
 20
0.0
 30
110.0
 70
    64
  0
SEQEND
  5
150
  8
TEAM-NET1
  0
POLYLINE
  5
151
  8
TEAM-NET1
 66
     1
 10
0.0
 20
0.0
 30
0.0
 70
    16
 71
     2
 72
    37
  0
VERTEX
  5
152
  8
TEAM-NET1
 10
-45.16476
 20
0.0
 30
260.0
 70
    64
  0
VERTEX
  5
153
  8
TEAM-NET1
 10
-44.584669
 20
0.0
 30
255.36768
 70
    64
  0
VERTEX
  5
154
  8
TEAM-NET1
 10
-44.004579
 20
0.0
 30
250.73536
 70
    64
  0
VERTEX
  5
155
  8
TEAM-NET1
 10
-43.424488
 20
0.0
 30
246.10304
 70
    64
  0
VERTEX
  5
156
  8
TEAM-NET1
 10
-42.844398
 20
0.0
 30
241.47072
 70
    64
  0
VERTEX
  5
157
  8
TEAM-NET1
 10
-42.264307
 20
0.0
 30
236.8384
 70
    64
  0
VERTEX
  5
158
  8
TEAM-NET1
 10
-41.684217
 20
0.0
 30
232.20608
 70
    64
  0
VERTEX
  5
159
  8
TEAM-NET1
 10
-41.104126
 20
0.0
 30
227.57376
 70
    64
  0
VERTEX
  5
15A
  8
TEAM-NET1
 10
-40.524036
 20
0.0
 30
222.94144
 70
    64
  0
VERTEX
  5
15B
  8
TEAM-NET1
 10
-39.943945
 20
0.0
 30
218.30912
 70
    64
  0
VERTEX
  5
15C
  8
TEAM-NET1
 10
-39.363855
 20
0.0
 30
213.6768
 70
    64
  0
VERTEX
  5
15D
  8
TEAM-NET1
 10
-38.783764
 20
0.0
 30
209.04448
 70
    64
  0
VERTEX
  5
15E
  8
TEAM-NET1
 10
-38.203674
 20
0.0
 30
204.41216
 70
    64
  0
VERTEX
  5
15F
  8
TEAM-NET1
 10
-37.623583
 20
0.0
 30
199.77984
 70
    64
  0
VERTEX
  5
160
  8
TEAM-NET1
 10
-37.043493
 20
0.0
 30
195.14752
 70
    64
  0
VERTEX
  5
161
  8
TEAM-NET1
 10
-36.463402
 20
0.0
 30
190.5152
 70
    64
  0
VERTEX
  5
162
  8
TEAM-NET1
 10
-35.883312
 20
0.0
 30
185.88288
 70
    64
  0
VERTEX
  5
163
  8
TEAM-NET1
 10
-35.303221
 20
0.0
 30
181.25056
 70
    64
  0
VERTEX
  5
164
  8
TEAM-NET1
 10
-34.723131
 20
0.0
 30
176.618241
 70
    64
  0
VERTEX
  5
165
  8
TEAM-NET1
 10
-34.14304
 20
0.0
 30
171.985921
 70
    64
  0
VERTEX
  5
166
  8
TEAM-NET1
 10
-33.56295
 20
0.0
 30
167.353601
 70
    64
  0
VERTEX
  5
167
  8
TEAM-NET1
 10
-32.982859
 20
0.0
 30
162.721281
 70
    64
  0
VERTEX
  5
168
  8
TEAM-NET1
 10
-32.402769
 20
0.0
 30
158.088961
 70
    64
  0
VERTEX
  5
169
  8
TEAM-NET1
 10
-31.822678
 20
0.0
 30
153.456641
 70
    64
  0
VERTEX
  5
16A
  8
TEAM-NET1
 10
-31.242588
 20
0.0
 30
148.824321
 70
    64
  0
VERTEX
  5
16B
  8
TEAM-NET1
 10
-30.662497
 20
0.0
 30
144.192001
 70
    64
  0
VERTEX
  5
16C
  8
TEAM-NET1
 10
-30.082407
 20
0.0
 30
139.559681
 70
    64
  0
VERTEX
  5
16D
  8
TEAM-NET1
 10
-29.502316
 20
0.0
 30
134.927361
 70
    64
  0
VERTEX
  5
16E
  8
TEAM-NET1
 10
-28.421245
 20
0.0
 30
130.396206
 70
    64
  0
VERTEX
  5
16F
  8
TEAM-NET1
 10
-26.589321
 20
0.0
 30
126.107267
 70
    64
  0
VERTEX
  5
170
  8
TEAM-NET1
 10
-24.114793
 20
0.0
 30
122.154083
 70
    64
  0
VERTEX
  5
171
  8
TEAM-NET1
 10
-21.057467
 20
0.0
 30
118.632195
 70
    64
  0
VERTEX
  5
172
  8
TEAM-NET1
 10
-17.491229
 20
0.0
 30
115.626717
 70
    64
  0
VERTEX
  5
173
  8
TEAM-NET1
 10
-13.502268
 20
0.0
 30
113.210287
 70
    64
  0
VERTEX
  5
174
  8
TEAM-NET1
 10
-9.186989
 20
0.0
 30
111.441302
 70
    64
  0
VERTEX
  5
175
  8
TEAM-NET1
 10
-4.64968
 20
0.0
 30
110.362516
 70
    64
  0
VERTEX
  5
176
  8
TEAM-NET1
 10
0.0
 20
0.0
 30
110.0
 70
    64
  0
VERTEX
  5
177
  8
TEAM-NET1
 10
-45.16476
 20
0.0
 30
260.0
 70
    64
  0
VERTEX
  5
178
  8
TEAM-NET1
 10
-45.326128
 20
-13.488951
 30
260.0
 70
    64
  0
VERTEX
  5
179
  8
TEAM-NET1
 10
-45.500323
 20
-26.977743
 30
260.0
 70
    64
  0
VERTEX
  5
17A
  8
TEAM-NET1
 10
-45.687346
 20
-40.466363
 30
260.0
 70
    64
  0
VERTEX
  5
17B
  8
TEAM-NET1
 10
-45.887196
 20
-53.954799
 30
260.0
 70
    64
  0
VERTEX
  5
17C
  8
TEAM-NET1
 10
-46.099873
 20
-67.443039
 30
260.0
 70
    64
  0
VERTEX
  5
17D
  8
TEAM-NET1
 10
-46.325376
 20
-80.93107
 30
260.0
 70
    64
  0
VERTEX
  5
17E
  8
TEAM-NET1
 10
-46.563707
 20
-94.418881
 30
260.0
 70
    64
  0
VERTEX
  5
17F
  8
TEAM-NET1
 10
-46.814864
 20
-107.906459
 30
260.0
 70
    64
  0
VERTEX
  5
180
  8
TEAM-NET1
 10
-47.078848
 20
-121.393792
 30
260.0
 70
    64
  0
VERTEX
  5
181
  8
TEAM-NET1
 10
-47.355657
 20
-134.880869
 30
260.0
 70
    64
  0
VERTEX
  5
182
  8
TEAM-NET1
 10
-47.645292
 20
-148.367675
 30
260.0
 70
    64
  0
VERTEX
  5
183
  8
TEAM-NET1
 10
-47.947753
 20
-161.854201
 30
260.0
 70
    64
  0
VERTEX
  5
184
  8
TEAM-NET1
 10
-48.263038
 20
-175.340432
 30
260.0
 70
    64
  0
VERTEX
  5
185
  8
TEAM-NET1
 10
-48.591149
 20
-188.826358
 30
260.0
 70
    64
  0
VERTEX
  5
186
  8
TEAM-NET1
 10
-48.932084
 20
-202.311965
 30
260.0
 70
    64
  0
VERTEX
  5
187
  8
TEAM-NET1
 10
-49.285844
 20
-215.797242
 30
260.0
 70
    64
  0
VERTEX
  5
188
  8
TEAM-NET1
 10
-49.652428
 20
-229.282177
 30
260.0
 70
    64
  0
VERTEX
  5
189
  8
TEAM-NET1
 10
-50.031835
 20
-242.766757
 30
260.0
 70
    64
  0
VERTEX
  5
18A
  8
TEAM-NET1
 10
-50.424066
 20
-256.25097
 30
260.0
 70
    64
  0
VERTEX
  5
18B
  8
TEAM-NET1
 10
-50.829119
 20
-269.734804
 30
260.0
 70
    64
  0
VERTEX
  5
18C
  8
TEAM-NET1
 10
-51.246996
 20
-283.218246
 30
260.0
 70
    64
  0
VERTEX
  5
18D
  8
TEAM-NET1
 10
-51.677694
 20
-296.701285
 30
260.0
 70
    64
  0
VERTEX
  5
18E
  8
TEAM-NET1
 10
-52.121215
 20
-310.183909
 30
260.0
 70
    64
  0
VERTEX
  5
18F
  8
TEAM-NET1
 10
-52.577556
 20
-323.666104
 30
260.0
 70
    64
  0
VERTEX
  5
190
  8
TEAM-NET1
 10
-53.046719
 20
-337.14786
 30
260.0
 70
    64
  0
VERTEX
  5
191
  8
TEAM-NET1
 10
-53.528703
 20
-350.629163
 30
260.0
 70
    64
  0
VERTEX
  5
192
  8
TEAM-NET1
 10
-54.023506
 20
-364.110002
 30
260.0
 70
    64
  0
VERTEX
  5
193
  8
TEAM-NET1
 10
-54.53113
 20
-377.590364
 30
260.0
 70
    64
  0
VERTEX
  5
194
  8
TEAM-NET1
 10
-55.025293
 20
-391.070972
 30
260.0
 70
    64
  0
VERTEX
  5
195
  8
TEAM-NET1
 10
-53.814679
 20
-404.484363
 30
260.0
 70
    64
  0
VERTEX
  5
196
  8
TEAM-NET1
 10
-49.990336
 20
-417.397884
 30
260.0
 70
    64
  0
VERTEX
  5
197
  8
TEAM-NET1
 10
-43.70157
 20
-429.307379
 30
260.0
 70
    64
  0
VERTEX
  5
198
  8
TEAM-NET1
 10
-35.193901
 20
-439.747888
 30
260.0
 70
    64
  0
VERTEX
  5
199
  8
TEAM-NET1
 10
-24.799477
 20
-448.311801
 30
260.0
 70
    64
  0
VERTEX
  5
19A
  8
TEAM-NET1
 10
-12.924109
 20
-454.664775
 30
260.0
 70
    64
  0
VERTEX
  5
19B
  8
TEAM-NET1
 10
0.0
 20
-458.324217
 30
260.0
 70
    64
  0
SEQEND
  5
19C
  8
TEAM-NET1
  0
POLYLINE
  5
19D
  8
TEAM-NET1
 66
     1
 10
0.0
 20
0.0
 30
0.0
 70
    16
 71
     2
 72
    37
  0
VERTEX
  5
19E
  8
TEAM-NET1
 10
45.16476
 20
0.0
 30
260.0
 70
    64
  0
VERTEX
  5
19F
  8
TEAM-NET1
 10
44.584669
 20
0.0
 30
255.36768
 70
    64
  0
VERTEX
  5
1A0
  8
TEAM-NET1
 10
44.004579
 20
0.0
 30
250.73536
 70
    64
  0
VERTEX
  5
1A1
  8
TEAM-NET1
 10
43.424488
 20
0.0
 30
246.10304
 70
    64
  0
VERTEX
  5
1A2
  8
TEAM-NET1
 10
42.844398
 20
0.0
 30
241.47072
 70
    64
  0
VERTEX
  5
1A3
  8
TEAM-NET1
 10
42.264307
 20
0.0
 30
236.8384
 70
    64
  0
VERTEX
  5
1A4
  8
TEAM-NET1
 10
41.684217
 20
0.0
 30
232.20608
 70
    64
  0
VERTEX
  5
1A5
  8
TEAM-NET1
 10
41.104126
 20
0.0
 30
227.57376
 70
    64
  0
VERTEX
  5
1A6
  8
TEAM-NET1
 10
40.524036
 20
0.0
 30
222.94144
 70
    64
  0
VERTEX
  5
1A7
  8
TEAM-NET1
 10
39.943945
 20
0.0
 30
218.30912
 70
    64
  0
VERTEX
  5
1A8
  8
TEAM-NET1
 10
39.363855
 20
0.0
 30
213.6768
 70
    64
  0
VERTEX
  5
1A9
  8
TEAM-NET1
 10
38.783764
 20
0.0
 30
209.04448
 70
    64
  0
VERTEX
  5
1AA
  8
TEAM-NET1
 10
38.203674
 20
0.0
 30
204.41216
 70
    64
  0
VERTEX
  5
1AB
  8
TEAM-NET1
 10
37.623583
 20
0.0
 30
199.77984
 70
    64
  0
VERTEX
  5
1AC
  8
TEAM-NET1
 10
37.043493
 20
0.0
 30
195.14752
 70
    64
  0
VERTEX
  5
1AD
  8
TEAM-NET1
 10
36.463402
 20
0.0
 30
190.5152
 70
    64
  0
VERTEX
  5
1AE
  8
TEAM-NET1
 10
35.883312
 20
0.0
 30
185.88288
 70
    64
  0
VERTEX
  5
1AF
  8
TEAM-NET1
 10
35.303221
 20
0.0
 30
181.25056
 70
    64
  0
VERTEX
  5
1B0
  8
TEAM-NET1
 10
34.723131
 20
0.0
 30
176.618241
 70
    64
  0
VERTEX
  5
1B1
  8
TEAM-NET1
 10
34.14304
 20
0.0
 30
171.985921
 70
    64
  0
VERTEX
  5
1B2
  8
TEAM-NET1
 10
33.56295
 20
0.0
 30
167.353601
 70
    64
  0
VERTEX
  5
1B3
  8
TEAM-NET1
 10
32.982859
 20
0.0
 30
162.721281
 70
    64
  0
VERTEX
  5
1B4
  8
TEAM-NET1
 10
32.402769
 20
0.0
 30
158.088961
 70
    64
  0
VERTEX
  5
1B5
  8
TEAM-NET1
 10
31.822678
 20
0.0
 30
153.456641
 70
    64
  0
VERTEX
  5
1B6
  8
TEAM-NET1
 10
31.242588
 20
0.0
 30
148.824321
 70
    64
  0
VERTEX
  5
1B7
  8
TEAM-NET1
 10
30.662497
 20
0.0
 30
144.192001
 70
    64
  0
VERTEX
  5
1B8
  8
TEAM-NET1
 10
30.082407
 20
0.0
 30
139.559681
 70
    64
  0
VERTEX
  5
1B9
  8
TEAM-NET1
 10
29.502316
 20
0.0
 30
134.927361
 70
    64
  0
VERTEX
  5
1BA
  8
TEAM-NET1
 10
28.421245
 20
0.0
 30
130.396206
 70
    64
  0
VERTEX
  5
1BB
  8
TEAM-NET1
 10
26.589321
 20
0.0
 30
126.107267
 70
    64
  0
VERTEX
  5
1BC
  8
TEAM-NET1
 10
24.114793
 20
0.0
 30
122.154083
 70
    64
  0
VERTEX
  5
1BD
  8
TEAM-NET1
 10
21.057467
 20
0.0
 30
118.632195
 70
    64
  0
VERTEX
  5
1BE
  8
TEAM-NET1
 10
17.491229
 20
0.0
 30
115.626717
 70
    64
  0
VERTEX
  5
1BF
  8
TEAM-NET1
 10
13.502268
 20
0.0
 30
113.210287
 70
    64
  0
VERTEX
  5
1C0
  8
TEAM-NET1
 10
9.186989
 20
0.0
 30
111.441302
 70
    64
  0
VERTEX
  5
1C1
  8
TEAM-NET1
 10
4.64968
 20
0.0
 30
110.362516
 70
    64
  0
VERTEX
  5
1C2
  8
TEAM-NET1
 10
0.0
 20
0.0
 30
110.0
 70
    64
  0
VERTEX
  5
1C3
  8
TEAM-NET1
 10
45.16476
 20
0.0
 30
260.0
 70
    64
  0
VERTEX
  5
1C4
  8
TEAM-NET1
 10
45.326128
 20
-13.488951
 30
260.0
 70
    64
  0
VERTEX
  5
1C5
  8
TEAM-NET1
 10
45.500323
 20
-26.977743
 30
260.0
 70
    64
  0
VERTEX
  5
1C6
  8
TEAM-NET1
 10
45.687346
 20
-40.466363
 30
260.0
 70
    64
  0
VERTEX
  5
1C7
  8
TEAM-NET1
 10
45.887196
 20
-53.954799
 30
260.0
 70
    64
  0
VERTEX
  5
1C8
  8
TEAM-NET1
 10
46.099873
 20
-67.443039
 30
260.0
 70
    64
  0
VERTEX
  5
1C9
  8
TEAM-NET1
 10
46.325376
 20
-80.93107
 30
260.0
 70
    64
  0
VERTEX
  5
1CA
  8
TEAM-NET1
 10
46.563707
 20
-94.418881
 30
260.0
 70
    64
  0
VERTEX
  5
1CB
  8
TEAM-NET1
 10
46.814864
 20
-107.906459
 30
260.0
 70
    64
  0
VERTEX
  5
1CC
  8
TEAM-NET1
 10
47.078848
 20
-121.393792
 30
260.0
 70
    64
  0
VERTEX
  5
1CD
  8
TEAM-NET1
 10
47.355657
 20
-134.880869
 30
260.0
 70
    64
  0
VERTEX
  5
1CE
  8
TEAM-NET1
 10
47.645292
 20
-148.367675
 30
260.0
 70
    64
  0
VERTEX
  5
1CF
  8
TEAM-NET1
 10
47.947753
 20
-161.854201
 30
260.0
 70
    64
  0
VERTEX
  5
1D0
  8
TEAM-NET1
 10
48.263038
 20
-175.340432
 30
260.0
 70
    64
  0
VERTEX
  5
1D1
  8
TEAM-NET1
 10
48.591149
 20
-188.826358
 30
260.0
 70
    64
  0
VERTEX
  5
1D2
  8
TEAM-NET1
 10
48.932084
 20
-202.311965
 30
260.0
 70
    64
  0
VERTEX
  5
1D3
  8
TEAM-NET1
 10
49.285844
 20
-215.797242
 30
260.0
 70
    64
  0
VERTEX
  5
1D4
  8
TEAM-NET1
 10
49.652428
 20
-229.282177
 30
260.0
 70
    64
  0
VERTEX
  5
1D5
  8
TEAM-NET1
 10
50.031835
 20
-242.766757
 30
260.0
 70
    64
  0
VERTEX
  5
1D6
  8
TEAM-NET1
 10
50.424066
 20
-256.25097
 30
260.0
 70
    64
  0
VERTEX
  5
1D7
  8
TEAM-NET1
 10
50.829119
 20
-269.734804
 30
260.0
 70
    64
  0
VERTEX
  5
1D8
  8
TEAM-NET1
 10
51.246996
 20
-283.218246
 30
260.0
 70
    64
  0
VERTEX
  5
1D9
  8
TEAM-NET1
 10
51.677694
 20
-296.701285
 30
260.0
 70
    64
  0
VERTEX
  5
1DA
  8
TEAM-NET1
 10
52.121215
 20
-310.183909
 30
260.0
 70
    64
  0
VERTEX
  5
1DB
  8
TEAM-NET1
 10
52.577556
 20
-323.666104
 30
260.0
 70
    64
  0
VERTEX
  5
1DC
  8
TEAM-NET1
 10
53.046719
 20
-337.14786
 30
260.0
 70
    64
  0
VERTEX
  5
1DD
  8
TEAM-NET1
 10
53.528703
 20
-350.629163
 30
260.0
 70
    64
  0
VERTEX
  5
1DE
  8
TEAM-NET1
 10
54.023506
 20
-364.110002
 30
260.0
 70
    64
  0
VERTEX
  5
1DF
  8
TEAM-NET1
 10
54.53113
 20
-377.590364
 30
260.0
 70
    64
  0
VERTEX
  5
1E0
  8
TEAM-NET1
 10
55.025293
 20
-391.070972
 30
260.0
 70
    64
  0
VERTEX
  5
1E1
  8
TEAM-NET1
 10
53.814679
 20
-404.484363
 30
260.0
 70
    64
  0
VERTEX
  5
1E2
  8
TEAM-NET1
 10
49.990336
 20
-417.397884
 30
260.0
 70
    64
  0
VERTEX
  5
1E3
  8
TEAM-NET1
 10
43.70157
 20
-429.307379
 30
260.0
 70
    64
  0
VERTEX
  5
1E4
  8
TEAM-NET1
 10
35.193901
 20
-439.747888
 30
260.0
 70
    64
  0
VERTEX
  5
1E5
  8
TEAM-NET1
 10
24.799477
 20
-448.311801
 30
260.0
 70
    64
  0
VERTEX
  5
1E6
  8
TEAM-NET1
 10
12.924109
 20
-454.664775
 30
260.0
 70
    64
  0
VERTEX
  5
1E7
  8
TEAM-NET1
 10
0.0
 20
-458.324217
 30
260.0
 70
    64
  0
SEQEND
  5
1E8
  8
TEAM-NET1
  0
POLYLINE
  5
1E9
  8
TEAM-DET3
 66
     1
 10
0.0
 20
0.0
 30
0.0
210
0.0
220
-1.0
230
0.0
  0
VERTEX
  5
2C2
  8
TEAM-DET3
 10
-45.16476
 20
260.0
 30
0.0
  0
VERTEX
  5
2C3
  8
TEAM-DET3
 10
-29.374235
 20
133.904567
 30
0.0
 42
0.355479
  0
VERTEX
  5
2C4
  8
TEAM-DET3
 10
0.0
 20
110.0
 30
0.0
  0
SEQEND
  5
2C5
  8
TEAM-DET3
  0
POLYLINE
  5
1EB
  8
TEAM-DET3
 66
     1
 10
0.0
 20
0.0
 30
0.0
210
0.0
220
-1.0
230
0.0
  0
VERTEX
  5
2C6
  8
TEAM-DET3
 10
45.16476
 20
260.0
 30
0.0
  0
VERTEX
  5
2C7
  8
TEAM-DET3
 10
29.374235
 20
133.904567
 30
0.0
 42
-0.355479
  0
VERTEX
  5
2C8
  8
TEAM-DET3
 10
0.0
 20
110.0
 30
0.0
  0
SEQEND
  5
2C9
  8
TEAM-DET3
  0
POLYLINE
  5
1EC
  8
TEAM-DET2
 66
     1
 10
0.0
 20
0.0
 30
0.0
 70
     1
 40
10.0
 41
10.0
210
0.0
220
-1.0
230
0.0
  0
VERTEX
  5
2CA
  8
TEAM-DET2
 10
-5.0
 20
0.0
 30
0.0
 42
1.0
  0
VERTEX
  5
2CB
  8
TEAM-DET2
 10
5.0
 20
0.0
 30
0.0
 42
1.0
  0
SEQEND
  5
2CC
  8
TEAM-DET2
  0
CIRCLE
  5
1EE
  8
TEAM-INSP
 10
0.0
 20
0.0
 30
0.0
 40
10.0
  0
POLYLINE
  5
1F0
  8
TEAM-DET3
 66
     1
 10
0.0
 20
0.0
 30
260.0
  0
VERTEX
  5
2CD
  8
TEAM-DET3
 10
0.0
 20
-458.324217
 30
260.0
 42
0.074313
  0
VERTEX
  5
2CE
  8
TEAM-DET3
 10
3.305155
 20
-457.830255
 30
260.0
 42
0.352248
  0
VERTEX
  5
2CF
  8
TEAM-DET3
 10
55.002279
 20
-389.807624
 30
260.0
 42
-0.006872
  0
VERTEX
  5
2D0
  8
TEAM-DET3
 10
45.16476
 20
0.0
 30
260.0
  0
SEQEND
  5
2D1
  8
TEAM-DET3
  0
POLYLINE
  5
1F1
  8
TEAM-DET3
 66
     1
 10
0.0
 20
0.0
 30
260.0
  0
VERTEX
  5
2D2
  8
TEAM-DET3
 10
-45.16476
 20
0.0
 30
260.0
 42
-0.006872
  0
VERTEX
  5
2D3
  8
TEAM-DET3
 10
-55.002279
 20
-389.807624
 30
260.0
 42
0.352248
  0
VERTEX
  5
2D4
  8
TEAM-DET3
 10
-3.305155
 20
-457.830255
 30
260.0
 42
0.074313
  0
VERTEX
  5
2D5
  8
TEAM-DET3
 10
0.0
 20
-458.324217
 30
260.0
 42
0.09529
  0
SEQEND
  5
2D6
  8
TEAM-DET3
  0
CIRCLE
  5
1F2
  8
TEAM-DET1
 10
0.0
 20
-221.668337
 30
350.0
 40
30.0
  0
ARC
  5
1F4
  8
TEAM-BODY
 10
0.0
 20
-221.668337
 30
350.0
 40
20.0
 50
0.0
 51
180.0
  0
ARC
  5
1F6
  8
TEAM-BODY
 10
0.0
 20
-221.668337
 30
350.0
 40
20.0
 50
180.0
 51
0.0
  0
ARC
  5
1F7
  8
TEAM-DET3
 10
0.0
 20
-360.0
 30
435.0
 40
130.0
 50
180.0
 51
0.0
  0
LINE
  5
1F8
  8
TEAM-BODY
 10
-130.0
 20
-41.081395
 30
435.0
 11
-130.0
 21
-360.0
 31
435.0
  0
LINE
  5
1F9
  8
TEAM-DET1
 10
-180.0
 20
-41.081395
 30
435.0
 11
180.0
 21
-41.081395
 31
435.0
  0
LINE
  5
1FA
  8
TEAM-BODY
 10
130.0
 20
-360.0
 30
435.0
 11
130.0
 21
-41.081395
 31
435.0
  0
LINE
  5
1FB
  8
TEAM-DET1
 10
-130.0
 20
-135.101599
 30
435.0
 11
130.0
 21
-135.101599
 31
435.0
  0
POLYLINE
  5
1FC
  8
TEAM-BODY
 66
     1
 10
0.0
 20
0.0
 30
450.0
  0
VERTEX
  5
2D7
  8
TEAM-BODY
 10
-180.0
 20
0.0
 30
450.0
  0
VERTEX
  5
2D8
  8
TEAM-BODY
 10
-180.0
 20
-390.0
 30
450.0
 42
0.414214
  0
VERTEX
  5
2D9
  8
TEAM-BODY
 10
0.0
 20
-570.0
 30
450.0
 42
0.414214
  0
SEQEND
  5
2DA
  8
TEAM-BODY
  0
POLYLINE
  5
1FD
  8
TEAM-NET1
 66
     1
 10
0.0
 20
0.0
 30
0.0
 70
    16
 71
     2
 72
    37
  0
VERTEX
  5
1FE
  8
TEAM-NET1
 10
-180.0
 20
0.0
 30
450.0
 70
    64
  0
VERTEX
  5
1FF
  8
TEAM-NET1
 10
-180.0
 20
-18.687315
 30
450.0
 70
    64
  0
VERTEX
  5
200
  8
TEAM-NET1
 10
-180.0
 20
-37.37463
 30
450.0
 70
    64
  0
VERTEX
  5
201
  8
TEAM-NET1
 10
-180.0
 20
-56.061945
 30
450.0
 70
    64
  0
VERTEX
  5
202
  8
TEAM-NET1
 10
-180.0
 20
-74.74926
 30
450.0
 70
    64
  0
VERTEX
  5
203
  8
TEAM-NET1
 10
-180.0
 20
-93.436575
 30
450.0
 70
    64
  0
VERTEX
  5
204
  8
TEAM-NET1
 10
-180.0
 20
-112.12389
 30
450.0
 70
    64
  0
VERTEX
  5
205
  8
TEAM-NET1
 10
-180.0
 20
-130.811205
 30
450.0
 70
    64
  0
VERTEX
  5
206
  8
TEAM-NET1
 10
-180.0
 20
-149.49852
 30
450.0
 70
    64
  0
VERTEX
  5
207
  8
TEAM-NET1
 10
-180.0
 20
-168.185835
 30
450.0
 70
    64
  0
VERTEX
  5
208
  8
TEAM-NET1
 10
-180.0
 20
-186.87315
 30
450.0
 70
    64
  0
VERTEX
  5
209
  8
TEAM-NET1
 10
-180.0
 20
-205.560465
 30
450.0
 70
    64
  0
VERTEX
  5
20A
  8
TEAM-NET1
 10
-180.0
 20
-224.24778
 30
450.0
 70
    64
  0
VERTEX
  5
20B
  8
TEAM-NET1
 10
-180.0
 20
-242.935095
 30
450.0
 70
    64
  0
VERTEX
  5
20C
  8
TEAM-NET1
 10
-180.0
 20
-261.62241
 30
450.0
 70
    64
  0
VERTEX
  5
20D
  8
TEAM-NET1
 10
-180.0
 20
-280.309725
 30
450.0
 70
    64
  0
VERTEX
  5
20E
  8
TEAM-NET1
 10
-180.0
 20
-298.997039
 30
450.0
 70
    64
  0
VERTEX
  5
20F
  8
TEAM-NET1
 10
-180.0
 20
-317.684354
 30
450.0
 70
    64
  0
VERTEX
  5
210
  8
TEAM-NET1
 10
-180.0
 20
-336.371669
 30
450.0
 70
    64
  0
VERTEX
  5
211
  8
TEAM-NET1
 10
-180.0
 20
-355.058984
 30
450.0
 70
    64
  0
VERTEX
  5
212
  8
TEAM-NET1
 10
-180.0
 20
-373.746299
 30
450.0
 70
    64
  0
VERTEX
  5
213
  8
TEAM-NET1
 10
-179.983549
 20
-392.43354
 30
450.0
 70
    64
  0
VERTEX
  5
214
  8
TEAM-NET1
 10
-178.762272
 20
-411.072496
 30
450.0
 70
    64
  0
VERTEX
  5
215
  8
TEAM-NET1
 10
-175.615978
 20
-429.484531
 30
450.0
 70
    64
  0
VERTEX
  5
216
  8
TEAM-NET1
 10
-170.578549
 20
-447.471373
 30
450.0
 70
    64
  0
VERTEX
  5
217
  8
TEAM-NET1
 10
-163.704229
 20
-464.83933
 30
450.0
 70
    64
  0
VERTEX
  5
218
  8
TEAM-NET1
 10
-155.067047
 20
-481.401373
 30
450.0
 70
    64
  0
VERTEX
  5
219
  8
TEAM-NET1
 10
-144.760011
 20
-496.979153
 30
450.0
 70
    64
  0
VERTEX
  5
21A
  8
TEAM-NET1
 10
-132.894115
 20
-511.404918
 30
450.0
 70
    64
  0
VERTEX
  5
21B
  8
TEAM-NET1
 10
-119.597138
 20
-524.523324
 30
450.0
 70
    64
  0
VERTEX
  5
21C
  8
TEAM-NET1
 10
-105.012268
 20
-536.193104
 30
450.0
 70
    64
  0
VERTEX
  5
21D
  8
TEAM-NET1
 10
-89.296564
 20
-546.288591
 30
450.0
 70
    64
  0
VERTEX
  5
21E
  8
TEAM-NET1
 10
-72.619263
 20
-554.70107
 30
450.0
 70
    64
  0
VERTEX
  5
21F
  8
TEAM-NET1
 10
-55.159955
 20
-561.339953
 30
450.0
 70
    64
  0
VERTEX
  5
220
  8
TEAM-NET1
 10
-37.106653
 20
-566.133746
 30
450.0
 70
    64
  0
VERTEX
  5
221
  8
TEAM-NET1
 10
-18.653764
 20
-569.030827
 30
450.0
 70
    64
  0
VERTEX
  5
222
  8
TEAM-NET1
 10
0.0
 20
-570.0
 30
450.0
 70
    64
  0
VERTEX
  5
223
  8
TEAM-NET1
 10
180.0
 20
0.0
 30
450.0
 70
    64
  0
VERTEX
  5
224
  8
TEAM-NET1
 10
180.0
 20
-18.687315
 30
450.0
 70
    64
  0
VERTEX
  5
225
  8
TEAM-NET1
 10
180.0
 20
-37.37463
 30
450.0
 70
    64
  0
VERTEX
  5
226
  8
TEAM-NET1
 10
180.0
 20
-56.061945
 30
450.0
 70
    64
  0
VERTEX
  5
227
  8
TEAM-NET1
 10
180.0
 20
-74.74926
 30
450.0
 70
    64
  0
VERTEX
  5
228
  8
TEAM-NET1
 10
180.0
 20
-93.436575
 30
450.0
 70
    64
  0
VERTEX
  5
229
  8
TEAM-NET1
 10
180.0
 20
-112.12389
 30
450.0
 70
    64
  0
VERTEX
  5
22A
  8
TEAM-NET1
 10
180.0
 20
-130.811205
 30
450.0
 70
    64
  0
VERTEX
  5
22B
  8
TEAM-NET1
 10
180.0
 20
-149.49852
 30
450.0
 70
    64
  0
VERTEX
  5
22C
  8
TEAM-NET1
 10
180.0
 20
-168.185835
 30
450.0
 70
    64
  0
VERTEX
  5
22D
  8
TEAM-NET1
 10
180.0
 20
-186.87315
 30
450.0
 70
    64
  0
VERTEX
  5
22E
  8
TEAM-NET1
 10
180.0
 20
-205.560465
 30
450.0
 70
    64
  0
VERTEX
  5
22F
  8
TEAM-NET1
 10
180.0
 20
-224.24778
 30
450.0
 70
    64
  0
VERTEX
  5
230
  8
TEAM-NET1
 10
180.0
 20
-242.935095
 30
450.0
 70
    64
  0
VERTEX
  5
231
  8
TEAM-NET1
 10
180.0
 20
-261.62241
 30
450.0
 70
    64
  0
VERTEX
  5
232
  8
TEAM-NET1
 10
180.0
 20
-280.309725
 30
450.0
 70
    64
  0
VERTEX
  5
233
  8
TEAM-NET1
 10
180.0
 20
-298.997039
 30
450.0
 70
    64
  0
VERTEX
  5
234
  8
TEAM-NET1
 10
180.0
 20
-317.684354
 30
450.0
 70
    64
  0
VERTEX
  5
235
  8
TEAM-NET1
 10
180.0
 20
-336.371669
 30
450.0
 70
    64
  0
VERTEX
  5
236
  8
TEAM-NET1
 10
180.0
 20
-355.058984
 30
450.0
 70
    64
  0
VERTEX
  5
237
  8
TEAM-NET1
 10
180.0
 20
-373.746299
 30
450.0
 70
    64
  0
VERTEX
  5
238
  8
TEAM-NET1
 10
179.983549
 20
-392.43354
 30
450.0
 70
    64
  0
VERTEX
  5
239
  8
TEAM-NET1
 10
178.762272
 20
-411.072496
 30
450.0
 70
    64
  0
VERTEX
  5
23A
  8
TEAM-NET1
 10
175.615978
 20
-429.484531
 30
450.0
 70
    64
  0
VERTEX
  5
23B
  8
TEAM-NET1
 10
170.578549
 20
-447.471373
 30
450.0
 70
    64
  0
VERTEX
  5
23C
  8
TEAM-NET1
 10
163.704229
 20
-464.83933
 30
450.0
 70
    64
  0
VERTEX
  5
23D
  8
TEAM-NET1
 10
155.067047
 20
-481.401373
 30
450.0
 70
    64
  0
VERTEX
  5
23E
  8
TEAM-NET1
 10
144.760011
 20
-496.979153
 30
450.0
 70
    64
  0
VERTEX
  5
23F
  8
TEAM-NET1
 10
132.894115
 20
-511.404918
 30
450.0
 70
    64
  0
VERTEX
  5
240
  8
TEAM-NET1
 10
119.597138
 20
-524.523324
 30
450.0
 70
    64
  0
VERTEX
  5
241
  8
TEAM-NET1
 10
105.012268
 20
-536.193104
 30
450.0
 70
    64
  0
VERTEX
  5
242
  8
TEAM-NET1
 10
89.296564
 20
-546.288591
 30
450.0
 70
    64
  0
VERTEX
  5
243
  8
TEAM-NET1
 10
72.619263
 20
-554.70107
 30
450.0
 70
    64
  0
VERTEX
  5
244
  8
TEAM-NET1
 10
55.159955
 20
-561.339953
 30
450.0
 70
    64
  0
VERTEX
  5
245
  8
TEAM-NET1
 10
37.106653
 20
-566.133746
 30
450.0
 70
    64
  0
VERTEX
  5
246
  8
TEAM-NET1
 10
18.653764
 20
-569.030827
 30
450.0
 70
    64
  0
VERTEX
  5
247
  8
TEAM-NET1
 10
0.0
 20
-570.0
 30
450.0
 70
    64
  0
SEQEND
  5
248
  8
TEAM-NET1
  0
POLYLINE
  5
249
  8
TEAM-BODY
 66
     1
 10
0.0
 20
0.0
 30
450.0
  0
VERTEX
  5
2DB
  8
TEAM-BODY
 10
0.0
 20
-570.0
 30
450.0
 42
0.414214
  0
VERTEX
  5
2DC
  8
TEAM-BODY
 10
180.0
 20
-390.0
 30
450.0
  0
VERTEX
  5
2DD
  8
TEAM-BODY
 10
180.0
 20
0.0
 30
450.0
  0
SEQEND
  5
2DE
  8
TEAM-BODY
  0
ARC
  5
24A
  8
TEAM-DET3
 10
0.0
 20
-270.0
 30
450.0
 40
130.0
 50
0.0
 51
180.0
  0
ARC
  5
24B
  8
TEAM-BODY
 10
0.0
 20
-390.0
 30
450.0
 40
130.0
 50
180.0
 51
0.0
  0
LINE
  5
24C
  8
TEAM-BODY
 10
-130.0
 20
-270.0
 30
450.0
 11
-130.0
 21
-390.0
 31
450.0
  0
LINE
  5
24D
  8
TEAM-BODY
 10
130.0
 20
-390.0
 30
450.0
 11
130.0
 21
-270.0
 31
450.0
  0
LINE
  5
24E
  8
TEAM-BODY
 10
0.0
 20
0.0
 30
450.0
 11
180.0
 21
0.0
 31
450.0
  0
CIRCLE
  5
24F
  8
TEAM-DET1
 10
0.0
 20
-40.881499
 30
450.0
 40
15.0
  0
LINE
  5
250
  8
TEAM-BODY
 10
-180.0
 20
0.0
 30
450.0
 11
0.0
 21
0.0
 31
450.0
  0
TEXT
  5
251
  8
TEAM-TXT
 10
-130.0
 20
-329.0
 30
455.0
 40
30.0
  1
team 227036
 41
0.8
 51
15.0
  7
TEAM
  0
ENDSEC
  0
EOF
