  0
SECTION
  2
HEADER
  9
$ACADVER
  1
AC1009
  9
$INSBASE
 10
0.0
 20
0.0
 30
0.0
  9
$EXTMIN
 10
-278.874703
 20
-513.91785
 30
-0.052183
  9
$EXTMAX
 10
276.893795
 20
10.031833
 30
855.052191
  9
$LIMMIN
 10
-278.874703
 20
-513.91785
  9
$LIMMAX
 10
276.893795
 20
10.031833
  9
$ORTHOMODE
 70
     1
  9
$REGENMODE
 70
     1
  9
$FILLMODE
 70
     1
  9
$QTEXTMODE
 70
     0
  9
$MIRRTEXT
 70
     0
  9
$DRAGMODE
 70
     2
  9
$LTSCALE
 40
25.0
  9
$OSMODE
 70
     0
  9
$ATTMODE
 70
     1
  9
$TEXTSIZE
 40
200.0
  9
$TRACEWID
 40
1.0
  9
$TEXTSTYLE
  7
STANDARD
  9
$CLAYER
  8
TEAM-MAS
  9
$CELTYPE
  6
BYLAYER
  9
$CECOLOR
 62
   256
  9
$DIMSCALE
 40
1.0
  9
$DIMASZ
 40
20.0
  9
$DIMEXO
 40
10.0
  9
$DIMDLI
 40
1.0
  9
$DIMRND
 40
0.0
  9
$DIMDLE
 40
0.0
  9
$DIMEXE
 40
1.0
  9
$DIMTP
 40
0.0
  9
$DIMTM
 40
0.0
  9
$DIMTXT
 40
35.0
  9
$DIMCEN
 40
1.0
  9
$DIMTSZ
 40
0.0
  9
$DIMTOL
 70
     0
  9
$DIMLIM
 70
     0
  9
$DIMTIH
 70
     0
  9
$DIMTOH
 70
     0
  9
$DIMSE1
 70
     0
  9
$DIMSE2
 70
     0
  9
$DIMTAD
 70
     0
  9
$DIMZIN
 70
     0
  9
$DIMBLK
  1

  9
$DIMASO
 70
     1
  9
$DIMSHO
 70
     0
  9
$DIMPOST
  1

  9
$DIMAPOST
  1

  9
$DIMALT
 70
     0
  9
$DIMALTD
 70
     2
  9
$DIMALTF
 40
25.4
  9
$DIMLFAC
 40
1.0
  9
$DIMTOFL
 70
     0
  9
$DIMTVP
 40
0.0
  9
$DIMTIX
 70
     0
  9
$DIMSOXD
 70
     0
  9
$DIMSAH
 70
     0
  9
$DIMBLK1
  1

  9
$DIMBLK2
  1

  9
$DIMSTYLE
  2
TEAM
  9
$DIMCLRD
 70
     9
  9
$DIMCLRE
 70
     9
  9
$DIMCLRT
 70
    11
  9
$DIMTFAC
 40
1.0
  9
$DIMGAP
 40
15.0
  9
$LUNITS
 70
     2
  9
$LUPREC
 70
     1
  9
$SKETCHINC
 40
1.0
  9
$FILLETRAD
 40
50.0
  9
$AUNITS
 70
     0
  9
$AUPREC
 70
     0
  9
$MENU
  1
ROPLANS
  9
$ELEVATION
 40
0.0
  9
$PELEVATION
 40
0.0
  9
$THICKNESS
 40
0.0
  9
$LIMCHECK
 70
     0
  9
$BLIPMODE
 70
     1
  9
$CHAMFERA
 40
0.0
  9
$CHAMFERB
 40
0.0
  9
$SKPOLY
 70
     0
  9
$TDCREATE
 40
2450392.957851
  9
$TDUPDATE
 40
2455505.473099
  9
$TDINDWG
 40
2.023557
  9
$TDUSRTIMER
 40
2.023557
  9
$USRTIMER
 70
     1
  9
$ANGBASE
 50
0.0
  9
$ANGDIR
 70
     0
  9
$PDMODE
 70
     0
  9
$PDSIZE
 40
0.0
  9
$PLINEWID
 40
0.0
  9
$COORDS
 70
     2
  9
$SPLFRAME
 70
     0
  9
$SPLINETYPE
 70
     6
  9
$SPLINESEGS
 70
     8
  9
$ATTDIA
 70
     0
  9
$ATTREQ
 70
     0
  9
$HANDLING
 70
     1
  9
$HANDSEED
  5
4EE
  9
$SURFTAB1
 70
    24
  9
$SURFTAB2
 70
    24
  9
$SURFTYPE
 70
     6
  9
$SURFU
 70
     6
  9
$SURFV
 70
     6
  9
$UCSNAME
  2

  9
$UCSORG
 10
0.0
 20
0.0
 30
0.0
  9
$UCSXDIR
 10
1.0
 20
0.0
 30
0.0
  9
$UCSYDIR
 10
0.0
 20
1.0
 30
0.0
  9
$PUCSNAME
  2

  9
$PUCSORG
 10
0.0
 20
0.0
 30
0.0
  9
$PUCSXDIR
 10
1.0
 20
0.0
 30
0.0
  9
$PUCSYDIR
 10
0.0
 20
1.0
 30
0.0
  9
$USERI1
 70
     0
  9
$USERI2
 70
     0
  9
$USERI3
 70
     0
  9
$USERI4
 70
     0
  9
$USERI5
 70
     0
  9
$USERR1
 40
0.0
  9
$USERR2
 40
0.0
  9
$USERR3
 40
0.0
  9
$USERR4
 40
0.0
  9
$USERR5
 40
0.0
  9
$WORLDVIEW
 70
     1
  9
$SHADEDGE
 70
     0
  9
$SHADEDIF
 70
    70
  9
$TILEMODE
 70
     1
  9
$MAXACTVP
 70
    16
  9
$PLIMCHECK
 70
     0
  9
$PEXTMIN
 10
-0.805942
 20
0.005011
 30
0.0
  9
$PEXTMAX
 10
20.250094
 20
11.356329
 30
0.0
  9
$PLIMMIN
 10
0.0
 20
0.0
  9
$PLIMMAX
 10
12.0
 20
9.0
  9
$UNITMODE
 70
     0
  9
$VISRETAIN
 70
     0
  9
$PLINEGEN
 70
     0
  9
$PSLTSCALE
 70
     0
  0
ENDSEC
  0
SECTION
  2
TABLES
  0
TABLE
  2
VPORT
 70
     2
  0
VPORT
  2
*ACTIVE
 70
     0
 10
0.0
 20
0.0
 11
1.0
 21
1.0
 12
-0.990454
 22
-251.943009
 13
0.0
 23
0.0
 14
1.0
 24
1.0
 15
50.0
 25
50.0
 16
0.0
 26
0.0
 36
1.0
 17
0.0
 27
0.0
 37
0.0
 40
527.167388
 41
1.865779
 42
50.0
 43
0.0
 44
0.0
 50
0.0
 51
0.0
 71
     0
 72
   100
 73
     1
 74
     1
 75
     0
 76
     0
 77
     0
 78
     0
  0
ENDTAB
  0
TABLE
  2
LTYPE
 70
     3
  0
LTYPE
  2
CONTINUOUS
 70
     0
  3
Solid Line
 72
    65
 73
     0
 40
0.0
  0
LTYPE
  2
31
 70
     0
  3

 72
    65
 73
     4
 40
2.1
 49
1.5
 49
-0.3
 49
0.0
 49
-0.3
  0
LTYPE
  2
22
 70
     0
  3

 72
    65
 73
     2
 40
1.4
 49
1.2
 49
-0.2
  0
ENDTAB
  0
TABLE
  2
LAYER
 70
     9
  0
LAYER
  2
0
 70
     0
 62
     7
  6
CONTINUOUS
  0
LAYER
  2
TEAM-NET1
 70
     0
 62
    12
  6
CONTINUOUS
  0
LAYER
  2
TEAM-BODY
 70
     0
 62
     2
  6
CONTINUOUS
  0
LAYER
  2
TEAM-AXE
 70
     0
 62
    10
  6
31
  0
LAYER
  2
TEAM-MAS
 70
     0
 62
     9
  6
CONTINUOUS
  0
LAYER
  2
TEAM-TXT
 70
     0
 62
    11
  6
CONTINUOUS
  0
LAYER
  2
TEAM-DET1
 70
     0
 62
     4
  6
CONTINUOUS
  0
LAYER
  2
TEAM-HIDE
 70
     0
 62
     8
  6
22
  0
LAYER
  2
TEAM-INSP
 70
     0
 62
     5
  6
CONTINUOUS
  0
ENDTAB
  0
TABLE
  2
STYLE
 70
     2
  0
STYLE
  2
STANDARD
 70
     0
 40
0.0
 41
1.0
 50
0.0
 71
     0
 42
200.0
  3
txt
  4

  0
STYLE
  2
TEAM
 70
     0
 40
0.0
 41
0.8
 50
15.0
 71
     0
 42
7.0
  3
ROMANS.shx
  4

  0
ENDTAB
  0
TABLE
  2
VIEW
 70
     0
  0
ENDTAB
  0
TABLE
  2
UCS
 70
     0
  0
ENDTAB
  0
TABLE
  2
APPID
 70
     1
  0
APPID
  2
ACAD
 70
     0
  0
ENDTAB
  0
TABLE
  2
DIMSTYLE
 70
     1
  0
DIMSTYLE
  2
TEAM
 70
     0
  3

  4

  5

  6

  7

 40
1.0
 41
20.0
 42
10.0
 43
1.0
 44
1.0
 45
0.0
 46
0.0
 47
0.0
 48
0.0
140
35.0
141
1.0
142
0.0
143
25.4
144
1.0
145
0.0
146
1.0
147
15.0
 71
     0
 72
     0
 73
     0
 74
     0
 75
     0
 76
     0
 77
     0
 78
     0
170
     0
171
     2
172
     0
173
     0
174
     0
175
     0
176
     9
177
     9
178
    11
  0
ENDTAB
  0
ENDSEC
  0
SECTION
  2
BLOCKS
  0
BLOCK
  8
0
  2
$MODEL_SPACE
 70
     0
 10
0.0
 20
0.0
 30
0.0
  3
$MODEL_SPACE
  1

  0
ENDBLK
  5
489
  8
0
  0
BLOCK
 67
     1
  8
0
  2
$PAPER_SPACE
 70
     0
 10
0.0
 20
0.0
 30
0.0
  3
$PAPER_SPACE
  1

  0
ENDBLK
  5
487
 67
     1
  8
0
  0
ENDSEC
  0
SECTION
  2
ENTITIES
  0
CIRCLE
  5
20
  8
TEAM-INSP
 10
0.0
 20
0.0
 30
0.0
 40
10.0
  0
POLYLINE
  5
22
  8
TEAM-NET1
 66
     1
 10
0.0
 20
0.0
 30
0.0
 70
    16
 71
     2
 72
    37
  0
VERTEX
  5
23
  8
TEAM-NET1
 10
213.0
 20
-190.0
 30
850.0
 70
    64
  0
VERTEX
  5
24
  8
TEAM-NET1
 10
208.179984
 20
-186.033533
 30
850.0
 70
    64
  0
VERTEX
  5
25
  8
TEAM-NET1
 10
203.22784
 20
-182.233311
 30
850.0
 70
    64
  0
VERTEX
  5
26
  8
TEAM-NET1
 10
198.149298
 20
-178.603733
 30
850.0
 70
    64
  0
VERTEX
  5
27
  8
TEAM-NET1
 10
192.950238
 20
-175.148999
 30
850.0
 70
    64
  0
VERTEX
  5
28
  8
TEAM-NET1
 10
187.636674
 20
-171.873108
 30
850.0
 70
    64
  0
VERTEX
  5
29
  8
TEAM-NET1
 10
182.214758
 20
-168.77985
 30
850.0
 70
    64
  0
VERTEX
  5
2A
  8
TEAM-NET1
 10
176.690764
 20
-165.872806
 30
850.0
 70
    64
  0
VERTEX
  5
2B
  8
TEAM-NET1
 10
171.071085
 20
-163.15534
 30
850.0
 70
    64
  0
VERTEX
  5
2C
  8
TEAM-NET1
 10
165.362224
 20
-160.630597
 30
850.0
 70
    64
  0
VERTEX
  5
2D
  8
TEAM-NET1
 10
159.570789
 20
-158.301499
 30
850.0
 70
    64
  0
VERTEX
  5
2E
  8
TEAM-NET1
 10
153.703482
 20
-156.170741
 30
850.0
 70
    64
  0
VERTEX
  5
2F
  8
TEAM-NET1
 10
147.767094
 20
-154.24079
 30
850.0
 70
    64
  0
VERTEX
  5
30
  8
TEAM-NET1
 10
141.768494
 20
-152.513878
 30
850.0
 70
    64
  0
VERTEX
  5
31
  8
TEAM-NET1
 10
135.714626
 20
-150.992005
 30
850.0
 70
    64
  0
VERTEX
  5
32
  8
TEAM-NET1
 10
129.612495
 20
-149.676932
 30
850.0
 70
    64
  0
VERTEX
  5
33
  8
TEAM-NET1
 10
123.457212
 20
-148.647571
 30
850.0
 70
    64
  0
VERTEX
  5
34
  8
TEAM-NET1
 10
117.269821
 20
-147.819784
 30
850.0
 70
    64
  0
VERTEX
  5
35
  8
TEAM-NET1
 10
111.077026
 20
-147.033455
 30
850.0
 70
    64
  0
VERTEX
  5
36
  8
TEAM-NET1
 10
104.879103
 20
-146.288619
 30
850.0
 70
    64
  0
VERTEX
  5
37
  8
TEAM-NET1
 10
98.67633
 20
-145.58531
 30
850.0
 70
    64
  0
VERTEX
  5
38
  8
TEAM-NET1
 10
92.468986
 20
-144.923559
 30
850.0
 70
    64
  0
VERTEX
  5
39
  8
TEAM-NET1
 10
86.25735
 20
-144.303395
 30
850.0
 70
    64
  0
VERTEX
  5
3A
  8
TEAM-NET1
 10
80.041699
 20
-143.724847
 30
850.0
 70
    64
  0
VERTEX
  5
3B
  8
TEAM-NET1
 10
73.822313
 20
-143.187941
 30
850.0
 70
    64
  0
VERTEX
  5
3C
  8
TEAM-NET1
 10
67.599471
 20
-142.6927
 30
850.0
 70
    64
  0
VERTEX
  5
3D
  8
TEAM-NET1
 10
61.373451
 20
-142.239148
 30
850.0
 70
    64
  0
VERTEX
  5
3E
  8
TEAM-NET1
 10
55.144534
 20
-141.827303
 30
850.0
 70
    64
  0
VERTEX
  5
3F
  8
TEAM-NET1
 10
48.912997
 20
-141.457185
 30
850.0
 70
    64
  0
VERTEX
  5
40
  8
TEAM-NET1
 10
42.679122
 20
-141.12881
 30
850.0
 70
    64
  0
VERTEX
  5
41
  8
TEAM-NET1
 10
36.443187
 20
-140.842194
 30
850.0
 70
    64
  0
VERTEX
  5
42
  8
TEAM-NET1
 10
30.205473
 20
-140.597348
 30
850.0
 70
    64
  0
VERTEX
  5
43
  8
TEAM-NET1
 10
23.966259
 20
-140.394284
 30
850.0
 70
    64
  0
VERTEX
  5
44
  8
TEAM-NET1
 10
17.725824
 20
-140.233011
 30
850.0
 70
    64
  0
VERTEX
  5
45
  8
TEAM-NET1
 10
11.48445
 20
-140.113536
 30
850.0
 70
    64
  0
VERTEX
  5
46
  8
TEAM-NET1
 10
5.242415
 20
-140.035864
 30
850.0
 70
    64
  0
VERTEX
  5
47
  8
TEAM-NET1
 10
-1.0
 20
-140.0
 30
850.0
 70
    64
  0
VERTEX
  5
48
  8
TEAM-NET1
 10
211.929425
 20
-189.095061
 30
850.0
 70
    64
  0
VERTEX
  5
49
  8
TEAM-NET1
 10
211.602785
 20
-189.095061
 30
840.796765
 70
    64
  0
VERTEX
  5
4A
  8
TEAM-NET1
 10
210.878549
 20
-189.095061
 30
831.616258
 70
    64
  0
VERTEX
  5
4B
  8
TEAM-NET1
 10
209.758071
 20
-189.095061
 30
822.475648
 70
    64
  0
VERTEX
  5
4C
  8
TEAM-NET1
 10
208.243447
 20
-189.095061
 30
813.392029
 70
    64
  0
VERTEX
  5
4D
  8
TEAM-NET1
 10
206.337509
 20
-189.095061
 30
804.382388
 70
    64
  0
VERTEX
  5
4E
  8
TEAM-NET1
 10
204.043822
 20
-189.095061
 30
795.463575
 70
    64
  0
VERTEX
  5
4F
  8
TEAM-NET1
 10
201.366676
 20
-189.095061
 30
786.652269
 70
    64
  0
VERTEX
  5
50
  8
TEAM-NET1
 10
198.311077
 20
-189.095061
 30
777.964949
 70
    64
  0
VERTEX
  5
51
  8
TEAM-NET1
 10
194.882738
 20
-189.095061
 30
769.41786
 70
    64
  0
VERTEX
  5
52
  8
TEAM-NET1
 10
191.088073
 20
-189.095061
 30
761.026988
 70
    64
  0
VERTEX
  5
53
  8
TEAM-NET1
 10
186.934177
 20
-189.095061
 30
752.808023
 70
    64
  0
VERTEX
  5
54
  8
TEAM-NET1
 10
182.428819
 20
-189.095061
 30
744.776338
 70
    64
  0
VERTEX
  5
55
  8
TEAM-NET1
 10
177.580423
 20
-189.095061
 30
736.946952
 70
    64
  0
VERTEX
  5
56
  8
TEAM-NET1
 10
172.398059
 20
-189.095061
 30
729.334507
 70
    64
  0
VERTEX
  5
57
  8
TEAM-NET1
 10
166.891416
 20
-189.095061
 30
721.953239
 70
    64
  0
VERTEX
  5
58
  8
TEAM-NET1
 10
161.070794
 20
-189.095061
 30
714.816952
 70
    64
  0
VERTEX
  5
59
  8
TEAM-NET1
 10
154.947078
 20
-189.095061
 30
707.938993
 70
    64
  0
VERTEX
  5
5A
  8
TEAM-NET1
 10
148.531719
 20
-189.095061
 30
701.332224
 70
    64
  0
VERTEX
  5
5B
  8
TEAM-NET1
 10
141.836716
 20
-189.095061
 30
695.009
 70
    64
  0
VERTEX
  5
5C
  8
TEAM-NET1
 10
134.874589
 20
-189.095061
 30
688.981147
 70
    64
  0
VERTEX
  5
5D
  8
TEAM-NET1
 10
127.658358
 20
-189.095061
 30
683.259938
 70
    64
  0
VERTEX
  5
5E
  8
TEAM-NET1
 10
120.201518
 20
-189.095061
 30
677.856072
 70
    64
  0
VERTEX
  5
5F
  8
TEAM-NET1
 10
112.518016
 20
-189.095061
 30
672.779655
 70
    64
  0
VERTEX
  5
60
  8
TEAM-NET1
 10
104.622219
 20
-189.095061
 30
668.04018
 70
    64
  0
VERTEX
  5
61
  8
TEAM-NET1
 10
96.528894
 20
-189.095061
 30
663.646512
 70
    64
  0
VERTEX
  5
62
  8
TEAM-NET1
 10
88.253177
 20
-189.095061
 30
659.606867
 70
    64
  0
VERTEX
  5
63
  8
TEAM-NET1
 10
79.810545
 20
-189.095061
 30
655.928799
 70
    64
  0
VERTEX
  5
64
  8
TEAM-NET1
 10
71.216786
 20
-189.095061
 30
652.619187
 70
    64
  0
VERTEX
  5
65
  8
TEAM-NET1
 10
62.487972
 20
-189.095061
 30
649.68422
 70
    64
  0
VERTEX
  5
66
  8
TEAM-NET1
 10
53.640427
 20
-189.095061
 30
647.129388
 70
    64
  0
VERTEX
  5
67
  8
TEAM-NET1
 10
44.690696
 20
-189.095061
 30
644.959468
 70
    64
  0
VERTEX
  5
68
  8
TEAM-NET1
 10
35.655518
 20
-189.095061
 30
643.178518
 70
    64
  0
VERTEX
  5
69
  8
TEAM-NET1
 10
26.551789
 20
-189.095061
 30
641.789869
 70
    64
  0
VERTEX
  5
6A
  8
TEAM-NET1
 10
17.396535
 20
-189.095061
 30
640.796118
 70
    64
  0
VERTEX
  5
6B
  8
TEAM-NET1
 10
8.206877
 20
-189.095061
 30
640.199123
 70
    64
  0
VERTEX
  5
6C
  8
TEAM-NET1
 10
-1.0
 20
-189.095061
 30
640.0
 70
    64
  0
SEQEND
  5
6E
  8
TEAM-NET1
  0
POLYLINE
  5
6F
  8
TEAM-NET1
 66
     1
 10
0.0
 20
0.0
 30
0.0
 70
    16
 71
     2
 72
    37
  0
VERTEX
  5
70
  8
TEAM-NET1
 10
-214.534966
 20
-190.243604
 30
850.0
 70
    64
  0
VERTEX
  5
71
  8
TEAM-NET1
 10
-209.772767
 20
-186.218111
 30
850.0
 70
    64
  0
VERTEX
  5
72
  8
TEAM-NET1
 10
-204.871526
 20
-182.363118
 30
850.0
 70
    64
  0
VERTEX
  5
73
  8
TEAM-NET1
 10
-199.837343
 20
-178.683425
 30
850.0
 70
    64
  0
VERTEX
  5
74
  8
TEAM-NET1
 10
-194.676485
 20
-175.183613
 30
850.0
 70
    64
  0
VERTEX
  5
75
  8
TEAM-NET1
 10
-189.395377
 20
-171.868039
 30
850.0
 70
    64
  0
VERTEX
  5
76
  8
TEAM-NET1
 10
-184.000593
 20
-168.740829
 30
850.0
 70
    64
  0
VERTEX
  5
77
  8
TEAM-NET1
 10
-178.498849
 20
-165.805877
 30
850.0
 70
    64
  0
VERTEX
  5
78
  8
TEAM-NET1
 10
-172.896992
 20
-163.066837
 30
850.0
 70
    64
  0
VERTEX
  5
79
  8
TEAM-NET1
 10
-167.201998
 20
-160.527117
 30
850.0
 70
    64
  0
VERTEX
  5
7A
  8
TEAM-NET1
 10
-161.420955
 20
-158.18988
 30
850.0
 70
    64
  0
VERTEX
  5
7B
  8
TEAM-NET1
 10
-155.56106
 20
-156.058035
 30
850.0
 70
    64
  0
VERTEX
  5
7C
  8
TEAM-NET1
 10
-149.629607
 20
-154.134236
 30
850.0
 70
    64
  0
VERTEX
  5
7D
  8
TEAM-NET1
 10
-143.633981
 20
-152.420877
 30
850.0
 70
    64
  0
VERTEX
  5
7E
  8
TEAM-NET1
 10
-137.581644
 20
-150.920092
 30
850.0
 70
    64
  0
VERTEX
  5
7F
  8
TEAM-NET1
 10
-131.480131
 20
-149.633749
 30
850.0
 70
    64
  0
VERTEX
  5
80
  8
TEAM-NET1
 10
-125.326993
 20
-148.629714
 30
850.0
 70
    64
  0
VERTEX
  5
81
  8
TEAM-NET1
 10
-119.146003
 20
-147.803649
 30
850.0
 70
    64
  0
VERTEX
  5
82
  8
TEAM-NET1
 10
-112.959624
 20
-147.018955
 30
850.0
 70
    64
  0
VERTEX
  5
83
  8
TEAM-NET1
 10
-106.768134
 20
-146.275667
 30
850.0
 70
    64
  0
VERTEX
  5
84
  8
TEAM-NET1
 10
-100.57181
 20
-145.573819
 30
850.0
 70
    64
  0
VERTEX
  5
85
  8
TEAM-NET1
 10
-94.370929
 20
-144.913442
 30
850.0
 70
    64
  0
VERTEX
  5
86
  8
TEAM-NET1
 10
-88.165768
 20
-144.294566
 30
850.0
 70
    64
  0
VERTEX
  5
87
  8
TEAM-NET1
 10
-81.956606
 20
-143.717218
 30
850.0
 70
    64
  0
VERTEX
  5
88
  8
TEAM-NET1
 10
-75.743721
 20
-143.181425
 30
850.0
 70
    64
  0
VERTEX
  5
89
  8
TEAM-NET1
 10
-69.527389
 20
-142.687209
 30
850.0
 70
    64
  0
VERTEX
  5
8A
  8
TEAM-NET1
 10
-63.30789
 20
-142.234595
 30
850.0
 70
    64
  0
VERTEX
  5
8B
  8
TEAM-NET1
 10
-57.085503
 20
-141.8236
 30
850.0
 70
    64
  0
VERTEX
  5
8C
  8
TEAM-NET1
 10
-50.860505
 20
-141.454245
 30
850.0
 70
    64
  0
VERTEX
  5
8D
  8
TEAM-NET1
 10
-44.633175
 20
-141.126545
 30
850.0
 70
    64
  0
VERTEX
  5
8E
  8
TEAM-NET1
 10
-38.403792
 20
-140.840516
 30
850.0
 70
    64
  0
VERTEX
  5
8F
  8
TEAM-NET1
 10
-32.172635
 20
-140.596169
 30
850.0
 70
    64
  0
VERTEX
  5
90
  8
TEAM-NET1
 10
-25.939982
 20
-140.393517
 30
850.0
 70
    64
  0
VERTEX
  5
91
  8
TEAM-NET1
 10
-19.706114
 20
-140.232567
 30
850.0
 70
    64
  0
VERTEX
  5
92
  8
TEAM-NET1
 10
-13.471308
 20
-140.113328
 30
850.0
 70
    64
  0
VERTEX
  5
93
  8
TEAM-NET1
 10
-7.235843
 20
-140.035805
 30
850.0
 70
    64
  0
VERTEX
  5
94
  8
TEAM-NET1
 10
-1.0
 20
-140.0
 30
850.0
 70
    64
  0
VERTEX
  5
95
  8
TEAM-NET1
 10
-213.929425
 20
-189.095061
 30
850.0
 70
    64
  0
VERTEX
  5
96
  8
TEAM-NET1
 10
-213.602785
 20
-189.095061
 30
840.796765
 70
    64
  0
VERTEX
  5
97
  8
TEAM-NET1
 10
-212.878549
 20
-189.095061
 30
831.616258
 70
    64
  0
VERTEX
  5
98
  8
TEAM-NET1
 10
-211.758071
 20
-189.095061
 30
822.475648
 70
    64
  0
VERTEX
  5
99
  8
TEAM-NET1
 10
-210.243447
 20
-189.095061
 30
813.392029
 70
    64
  0
VERTEX
  5
9A
  8
TEAM-NET1
 10
-208.337509
 20
-189.095061
 30
804.382388
 70
    64
  0
VERTEX
  5
9B
  8
TEAM-NET1
 10
-206.043822
 20
-189.095061
 30
795.463575
 70
    64
  0
VERTEX
  5
9C
  8
TEAM-NET1
 10
-203.366676
 20
-189.095061
 30
786.652269
 70
    64
  0
VERTEX
  5
9D
  8
TEAM-NET1
 10
-200.311077
 20
-189.095061
 30
777.964949
 70
    64
  0
VERTEX
  5
9E
  8
TEAM-NET1
 10
-196.882738
 20
-189.095061
 30
769.41786
 70
    64
  0
VERTEX
  5
9F
  8
TEAM-NET1
 10
-193.088073
 20
-189.095061
 30
761.026988
 70
    64
  0
VERTEX
  5
A0
  8
TEAM-NET1
 10
-188.934177
 20
-189.095061
 30
752.808023
 70
    64
  0
VERTEX
  5
A1
  8
TEAM-NET1
 10
-184.428819
 20
-189.095061
 30
744.776338
 70
    64
  0
VERTEX
  5
A2
  8
TEAM-NET1
 10
-179.580423
 20
-189.095061
 30
736.946952
 70
    64
  0
VERTEX
  5
A3
  8
TEAM-NET1
 10
-174.398059
 20
-189.095061
 30
729.334507
 70
    64
  0
VERTEX
  5
A4
  8
TEAM-NET1
 10
-168.891416
 20
-189.095061
 30
721.953239
 70
    64
  0
VERTEX
  5
A5
  8
TEAM-NET1
 10
-163.070794
 20
-189.095061
 30
714.816952
 70
    64
  0
VERTEX
  5
A6
  8
TEAM-NET1
 10
-156.947078
 20
-189.095061
 30
707.938993
 70
    64
  0
VERTEX
  5
A7
  8
TEAM-NET1
 10
-150.531719
 20
-189.095061
 30
701.332224
 70
    64
  0
VERTEX
  5
A8
  8
TEAM-NET1
 10
-143.836716
 20
-189.095061
 30
695.009
 70
    64
  0
VERTEX
  5
A9
  8
TEAM-NET1
 10
-136.874589
 20
-189.095061
 30
688.981147
 70
    64
  0
VERTEX
  5
AA
  8
TEAM-NET1
 10
-129.658358
 20
-189.095061
 30
683.259938
 70
    64
  0
VERTEX
  5
AB
  8
TEAM-NET1
 10
-122.201518
 20
-189.095061
 30
677.856072
 70
    64
  0
VERTEX
  5
AC
  8
TEAM-NET1
 10
-114.518016
 20
-189.095061
 30
672.779655
 70
    64
  0
VERTEX
  5
AD
  8
TEAM-NET1
 10
-106.622219
 20
-189.095061
 30
668.04018
 70
    64
  0
VERTEX
  5
AE
  8
TEAM-NET1
 10
-98.528894
 20
-189.095061
 30
663.646512
 70
    64
  0
VERTEX
  5
AF
  8
TEAM-NET1
 10
-90.253177
 20
-189.095061
 30
659.606867
 70
    64
  0
VERTEX
  5
B0
  8
TEAM-NET1
 10
-81.810545
 20
-189.095061
 30
655.928799
 70
    64
  0
VERTEX
  5
B1
  8
TEAM-NET1
 10
-73.216786
 20
-189.095061
 30
652.619187
 70
    64
  0
VERTEX
  5
B2
  8
TEAM-NET1
 10
-64.487972
 20
-189.095061
 30
649.68422
 70
    64
  0
VERTEX
  5
B3
  8
TEAM-NET1
 10
-55.640427
 20
-189.095061
 30
647.129388
 70
    64
  0
VERTEX
  5
B4
  8
TEAM-NET1
 10
-46.690696
 20
-189.095061
 30
644.959468
 70
    64
  0
VERTEX
  5
B5
  8
TEAM-NET1
 10
-37.655518
 20
-189.095061
 30
643.178518
 70
    64
  0
VERTEX
  5
B6
  8
TEAM-NET1
 10
-28.551789
 20
-189.095061
 30
641.789869
 70
    64
  0
VERTEX
  5
B7
  8
TEAM-NET1
 10
-19.396535
 20
-189.095061
 30
640.796118
 70
    64
  0
VERTEX
  5
B8
  8
TEAM-NET1
 10
-10.206877
 20
-189.095061
 30
640.199123
 70
    64
  0
VERTEX
  5
B9
  8
TEAM-NET1
 10
-1.0
 20
-189.095061
 30
640.0
 70
    64
  0
SEQEND
  5
BA
  8
TEAM-NET1
  0
POLYLINE
  5
BB
  8
TEAM-NET1
 66
     1
 10
0.0
 20
0.0
 30
0.0
 70
    16
 71
     2
 72
    37
  0
VERTEX
  5
BC
  8
TEAM-NET1
 10
211.929425
 20
-189.095061
 30
850.0
 70
    64
  0
VERTEX
  5
BD
  8
TEAM-NET1
 10
211.602785
 20
-189.095061
 30
840.796765
 70
    64
  0
VERTEX
  5
BE
  8
TEAM-NET1
 10
210.878549
 20
-189.095061
 30
831.616258
 70
    64
  0
VERTEX
  5
BF
  8
TEAM-NET1
 10
209.758071
 20
-189.095061
 30
822.475648
 70
    64
  0
VERTEX
  5
C0
  8
TEAM-NET1
 10
208.243447
 20
-189.095061
 30
813.392029
 70
    64
  0
VERTEX
  5
C1
  8
TEAM-NET1
 10
206.337509
 20
-189.095061
 30
804.382388
 70
    64
  0
VERTEX
  5
C2
  8
TEAM-NET1
 10
204.043822
 20
-189.095061
 30
795.463575
 70
    64
  0
VERTEX
  5
C3
  8
TEAM-NET1
 10
201.366676
 20
-189.095061
 30
786.652269
 70
    64
  0
VERTEX
  5
C4
  8
TEAM-NET1
 10
198.311077
 20
-189.095061
 30
777.964949
 70
    64
  0
VERTEX
  5
C5
  8
TEAM-NET1
 10
194.882738
 20
-189.095061
 30
769.41786
 70
    64
  0
VERTEX
  5
C6
  8
TEAM-NET1
 10
191.088073
 20
-189.095061
 30
761.026988
 70
    64
  0
VERTEX
  5
C7
  8
TEAM-NET1
 10
186.934177
 20
-189.095061
 30
752.808023
 70
    64
  0
VERTEX
  5
C8
  8
TEAM-NET1
 10
182.428819
 20
-189.095061
 30
744.776338
 70
    64
  0
VERTEX
  5
C9
  8
TEAM-NET1
 10
177.580423
 20
-189.095061
 30
736.946952
 70
    64
  0
VERTEX
  5
CA
  8
TEAM-NET1
 10
172.398059
 20
-189.095061
 30
729.334507
 70
    64
  0
VERTEX
  5
CB
  8
TEAM-NET1
 10
166.891416
 20
-189.095061
 30
721.953239
 70
    64
  0
VERTEX
  5
CC
  8
TEAM-NET1
 10
161.070794
 20
-189.095061
 30
714.816952
 70
    64
  0
VERTEX
  5
CD
  8
TEAM-NET1
 10
154.947078
 20
-189.095061
 30
707.938993
 70
    64
  0
VERTEX
  5
CE
  8
TEAM-NET1
 10
148.531719
 20
-189.095061
 30
701.332224
 70
    64
  0
VERTEX
  5
CF
  8
TEAM-NET1
 10
141.836716
 20
-189.095061
 30
695.009
 70
    64
  0
VERTEX
  5
D0
  8
TEAM-NET1
 10
134.874589
 20
-189.095061
 30
688.981147
 70
    64
  0
VERTEX
  5
D1
  8
TEAM-NET1
 10
127.658358
 20
-189.095061
 30
683.259938
 70
    64
  0
VERTEX
  5
D2
  8
TEAM-NET1
 10
120.201518
 20
-189.095061
 30
677.856072
 70
    64
  0
VERTEX
  5
D3
  8
TEAM-NET1
 10
112.518016
 20
-189.095061
 30
672.779655
 70
    64
  0
VERTEX
  5
D4
  8
TEAM-NET1
 10
104.622219
 20
-189.095061
 30
668.04018
 70
    64
  0
VERTEX
  5
D5
  8
TEAM-NET1
 10
96.528894
 20
-189.095061
 30
663.646512
 70
    64
  0
VERTEX
  5
D6
  8
TEAM-NET1
 10
88.253177
 20
-189.095061
 30
659.606867
 70
    64
  0
VERTEX
  5
D7
  8
TEAM-NET1
 10
79.810545
 20
-189.095061
 30
655.928799
 70
    64
  0
VERTEX
  5
D8
  8
TEAM-NET1
 10
71.216786
 20
-189.095061
 30
652.619187
 70
    64
  0
VERTEX
  5
D9
  8
TEAM-NET1
 10
62.487972
 20
-189.095061
 30
649.68422
 70
    64
  0
VERTEX
  5
DA
  8
TEAM-NET1
 10
53.640427
 20
-189.095061
 30
647.129388
 70
    64
  0
VERTEX
  5
DB
  8
TEAM-NET1
 10
44.690696
 20
-189.095061
 30
644.959468
 70
    64
  0
VERTEX
  5
DC
  8
TEAM-NET1
 10
35.655518
 20
-189.095061
 30
643.178518
 70
    64
  0
VERTEX
  5
DD
  8
TEAM-NET1
 10
26.551789
 20
-189.095061
 30
641.789869
 70
    64
  0
VERTEX
  5
DE
  8
TEAM-NET1
 10
17.396535
 20
-189.095061
 30
640.796118
 70
    64
  0
VERTEX
  5
DF
  8
TEAM-NET1
 10
8.206877
 20
-189.095061
 30
640.199123
 70
    64
  0
VERTEX
  5
E0
  8
TEAM-NET1
 10
-1.0
 20
-189.095061
 30
640.0
 70
    64
  0
VERTEX
  5
E1
  8
TEAM-NET1
 10
211.929425
 20
-189.095061
 30
850.0
 70
    64
  0
VERTEX
  5
E2
  8
TEAM-NET1
 10
217.926065
 20
-201.190193
 30
850.0
 70
    64
  0
VERTEX
  5
E3
  8
TEAM-NET1
 10
223.247085
 20
-213.597395
 30
850.0
 70
    64
  0
VERTEX
  5
E4
  8
TEAM-NET1
 10
227.876314
 20
-226.278962
 30
850.0
 70
    64
  0
VERTEX
  5
E5
  8
TEAM-NET1
 10
231.799685
 20
-239.196356
 30
850.0
 70
    64
  0
VERTEX
  5
E6
  8
TEAM-NET1
 10
235.005274
 20
-252.310322
 30
850.0
 70
    64
  0
VERTEX
  5
E7
  8
TEAM-NET1
 10
237.483341
 20
-265.581008
 30
850.0
 70
    64
  0
VERTEX
  5
E8
  8
TEAM-NET1
 10
238.306542
 20
-279.039264
 30
850.0
 70
    64
  0
VERTEX
  5
E9
  8
TEAM-NET1
 10
238.718618
 20
-292.534755
 30
850.0
 70
    64
  0
VERTEX
  5
EA
  8
TEAM-NET1
 10
239.130695
 20
-306.030246
 30
850.0
 70
    64
  0
VERTEX
  5
EB
  8
TEAM-NET1
 10
239.542771
 20
-319.525736
 30
850.0
 70
    64
  0
VERTEX
  5
EC
  8
TEAM-NET1
 10
239.954847
 20
-333.021227
 30
850.0
 70
    64
  0
VERTEX
  5
ED
  8
TEAM-NET1
 10
240.366923
 20
-346.516718
 30
850.0
 70
    64
  0
VERTEX
  5
EE
  8
TEAM-NET1
 10
240.778999
 20
-360.012209
 30
850.0
 70
    64
  0
VERTEX
  5
EF
  8
TEAM-NET1
 10
241.191075
 20
-373.5077
 30
850.0
 70
    64
  0
VERTEX
  5
F0
  8
TEAM-NET1
 10
241.603151
 20
-387.003191
 30
850.0
 70
    64
  0
VERTEX
  5
F1
  8
TEAM-NET1
 10
241.980143
 20
-400.498517
 30
850.0
 70
    64
  0
VERTEX
  5
F2
  8
TEAM-NET1
 10
239.702269
 20
-413.761398
 30
850.0
 70
    64
  0
VERTEX
  5
F3
  8
TEAM-NET1
 10
233.020212
 20
-425.444163
 30
850.0
 70
    64
  0
VERTEX
  5
F4
  8
TEAM-NET1
 10
223.399611
 20
-434.855906
 30
850.0
 70
    64
  0
VERTEX
  5
F5
  8
TEAM-NET1
 10
211.573021
 20
-441.279975
 30
850.0
 70
    64
  0
VERTEX
  5
F6
  8
TEAM-NET1
 10
198.681432
 20
-445.281166
 30
850.0
 70
    64
  0
VERTEX
  5
F7
  8
TEAM-NET1
 10
185.728658
 20
-449.09133
 30
850.0
 70
    64
  0
VERTEX
  5
F8
  8
TEAM-NET1
 10
172.700533
 20
-452.63529
 30
850.0
 70
    64
  0
VERTEX
  5
F9
  8
TEAM-NET1
 10
159.602526
 20
-455.911555
 30
850.0
 70
    64
  0
VERTEX
  5
FA
  8
TEAM-NET1
 10
146.440137
 20
-458.918751
 30
850.0
 70
    64
  0
VERTEX
  5
FB
  8
TEAM-NET1
 10
133.218894
 20
-461.655615
 30
850.0
 70
    64
  0
VERTEX
  5
FC
  8
TEAM-NET1
 10
119.944347
 20
-464.120998
 30
850.0
 70
    64
  0
VERTEX
  5
FD
  8
TEAM-NET1
 10
106.622071
 20
-466.313864
 30
850.0
 70
    64
  0
VERTEX
  5
FE
  8
TEAM-NET1
 10
93.25766
 20
-468.233293
 30
850.0
 70
    64
  0
VERTEX
  5
FF
  8
TEAM-NET1
 10
79.856724
 20
-469.878478
 30
850.0
 70
    64
  0
VERTEX
  5
100
  8
TEAM-NET1
 10
66.424892
 20
-471.24873
 30
850.0
 70
    64
  0
VERTEX
  5
101
  8
TEAM-NET1
 10
52.967803
 20
-472.343472
 30
850.0
 70
    64
  0
VERTEX
  5
102
  8
TEAM-NET1
 10
39.491108
 20
-473.162246
 30
850.0
 70
    64
  0
VERTEX
  5
103
  8
TEAM-NET1
 10
26.000466
 20
-473.704706
 30
850.0
 70
    64
  0
VERTEX
  5
104
  8
TEAM-NET1
 10
12.50154
 20
-473.970626
 30
850.0
 70
    64
  0
VERTEX
  5
105
  8
TEAM-NET1
 10
-1.0
 20
-473.959893
 30
850.0
 70
    64
  0
SEQEND
  5
106
  8
TEAM-NET1
  0
POLYLINE
  5
107
  8
TEAM-NET1
 66
     1
 10
0.0
 20
0.0
 30
0.0
 70
    16
 71
     2
 72
    37
  0
VERTEX
  5
108
  8
TEAM-NET1
 10
-213.929425
 20
-189.095061
 30
850.0
 70
    64
  0
VERTEX
  5
109
  8
TEAM-NET1
 10
-213.602785
 20
-189.095061
 30
840.796765
 70
    64
  0
VERTEX
  5
10A
  8
TEAM-NET1
 10
-212.878549
 20
-189.095061
 30
831.616258
 70
    64
  0
VERTEX
  5
10B
  8
TEAM-NET1
 10
-211.758071
 20
-189.095061
 30
822.475648
 70
    64
  0
VERTEX
  5
10C
  8
TEAM-NET1
 10
-210.243447
 20
-189.095061
 30
813.392029
 70
    64
  0
VERTEX
  5
10D
  8
TEAM-NET1
 10
-208.337509
 20
-189.095061
 30
804.382388
 70
    64
  0
VERTEX
  5
10E
  8
TEAM-NET1
 10
-206.043822
 20
-189.095061
 30
795.463575
 70
    64
  0
VERTEX
  5
10F
  8
TEAM-NET1
 10
-203.366676
 20
-189.095061
 30
786.652269
 70
    64
  0
VERTEX
  5
110
  8
TEAM-NET1
 10
-200.311077
 20
-189.095061
 30
777.964949
 70
    64
  0
VERTEX
  5
111
  8
TEAM-NET1
 10
-196.882738
 20
-189.095061
 30
769.41786
 70
    64
  0
VERTEX
  5
112
  8
TEAM-NET1
 10
-193.088073
 20
-189.095061
 30
761.026988
 70
    64
  0
VERTEX
  5
113
  8
TEAM-NET1
 10
-188.934177
 20
-189.095061
 30
752.808023
 70
    64
  0
VERTEX
  5
114
  8
TEAM-NET1
 10
-184.428819
 20
-189.095061
 30
744.776338
 70
    64
  0
VERTEX
  5
115
  8
TEAM-NET1
 10
-179.580423
 20
-189.095061
 30
736.946952
 70
    64
  0
VERTEX
  5
116
  8
TEAM-NET1
 10
-174.398059
 20
-189.095061
 30
729.334507
 70
    64
  0
VERTEX
  5
117
  8
TEAM-NET1
 10
-168.891416
 20
-189.095061
 30
721.953239
 70
    64
  0
VERTEX
  5
118
  8
TEAM-NET1
 10
-163.070794
 20
-189.095061
 30
714.816952
 70
    64
  0
VERTEX
  5
119
  8
TEAM-NET1
 10
-156.947078
 20
-189.095061
 30
707.938993
 70
    64
  0
VERTEX
  5
11A
  8
TEAM-NET1
 10
-150.531719
 20
-189.095061
 30
701.332224
 70
    64
  0
VERTEX
  5
11B
  8
TEAM-NET1
 10
-143.836716
 20
-189.095061
 30
695.009
 70
    64
  0
VERTEX
  5
11C
  8
TEAM-NET1
 10
-136.874589
 20
-189.095061
 30
688.981147
 70
    64
  0
VERTEX
  5
11D
  8
TEAM-NET1
 10
-129.658358
 20
-189.095061
 30
683.259938
 70
    64
  0
VERTEX
  5
11E
  8
TEAM-NET1
 10
-122.201518
 20
-189.095061
 30
677.856072
 70
    64
  0
VERTEX
  5
11F
  8
TEAM-NET1
 10
-114.518016
 20
-189.095061
 30
672.779655
 70
    64
  0
VERTEX
  5
120
  8
TEAM-NET1
 10
-106.622219
 20
-189.095061
 30
668.04018
 70
    64
  0
VERTEX
  5
121
  8
TEAM-NET1
 10
-98.528894
 20
-189.095061
 30
663.646512
 70
    64
  0
VERTEX
  5
122
  8
TEAM-NET1
 10
-90.253177
 20
-189.095061
 30
659.606867
 70
    64
  0
VERTEX
  5
123
  8
TEAM-NET1
 10
-81.810545
 20
-189.095061
 30
655.928799
 70
    64
  0
VERTEX
  5
124
  8
TEAM-NET1
 10
-73.216786
 20
-189.095061
 30
652.619187
 70
    64
  0
VERTEX
  5
125
  8
TEAM-NET1
 10
-64.487972
 20
-189.095061
 30
649.68422
 70
    64
  0
VERTEX
  5
126
  8
TEAM-NET1
 10
-55.640427
 20
-189.095061
 30
647.129388
 70
    64
  0
VERTEX
  5
127
  8
TEAM-NET1
 10
-46.690696
 20
-189.095061
 30
644.959468
 70
    64
  0
VERTEX
  5
128
  8
TEAM-NET1
 10
-37.655518
 20
-189.095061
 30
643.178518
 70
    64
  0
VERTEX
  5
129
  8
TEAM-NET1
 10
-28.551789
 20
-189.095061
 30
641.789869
 70
    64
  0
VERTEX
  5
12A
  8
TEAM-NET1
 10
-19.396535
 20
-189.095061
 30
640.796118
 70
    64
  0
VERTEX
  5
12B
  8
TEAM-NET1
 10
-10.206877
 20
-189.095061
 30
640.199123
 70
    64
  0
VERTEX
  5
12C
  8
TEAM-NET1
 10
-1.0
 20
-189.095061
 30
640.0
 70
    64
  0
VERTEX
  5
12D
  8
TEAM-NET1
 10
-214.534966
 20
-190.243604
 30
850.0
 70
    64
  0
VERTEX
  5
12E
  8
TEAM-NET1
 10
-220.452442
 20
-202.337539
 30
850.0
 70
    64
  0
VERTEX
  5
12F
  8
TEAM-NET1
 10
-225.696311
 20
-214.73841
 30
850.0
 70
    64
  0
VERTEX
  5
130
  8
TEAM-NET1
 10
-230.250721
 20
-227.408735
 30
850.0
 70
    64
  0
VERTEX
  5
131
  8
TEAM-NET1
 10
-234.101906
 20
-240.310213
 30
850.0
 70
    64
  0
VERTEX
  5
132
  8
TEAM-NET1
 10
-237.238226
 20
-253.403848
 30
850.0
 70
    64
  0
VERTEX
  5
133
  8
TEAM-NET1
 10
-239.650198
 20
-266.650061
 30
850.0
 70
    64
  0
VERTEX
  5
134
  8
TEAM-NET1
 10
-240.338464
 20
-280.084707
 30
850.0
 70
    64
  0
VERTEX
  5
135
  8
TEAM-NET1
 10
-240.74944
 20
-293.544148
 30
850.0
 70
    64
  0
VERTEX
  5
136
  8
TEAM-NET1
 10
-241.160415
 20
-307.003589
 30
850.0
 70
    64
  0
VERTEX
  5
137
  8
TEAM-NET1
 10
-241.57139
 20
-320.463031
 30
850.0
 70
    64
  0
VERTEX
  5
138
  8
TEAM-NET1
 10
-241.982366
 20
-333.922472
 30
850.0
 70
    64
  0
VERTEX
  5
139
  8
TEAM-NET1
 10
-242.393341
 20
-347.381913
 30
850.0
 70
    64
  0
VERTEX
  5
13A
  8
TEAM-NET1
 10
-242.804316
 20
-360.841354
 30
850.0
 70
    64
  0
VERTEX
  5
13B
  8
TEAM-NET1
 10
-243.215291
 20
-374.300795
 30
850.0
 70
    64
  0
VERTEX
  5
13C
  8
TEAM-NET1
 10
-243.626267
 20
-387.760236
 30
850.0
 70
    64
  0
VERTEX
  5
13D
  8
TEAM-NET1
 10
-243.943613
 20
-401.218918
 30
850.0
 70
    64
  0
VERTEX
  5
13E
  8
TEAM-NET1
 10
-241.44291
 20
-414.39568
 30
850.0
 70
    64
  0
VERTEX
  5
13F
  8
TEAM-NET1
 10
-234.619819
 20
-425.955179
 30
850.0
 70
    64
  0
VERTEX
  5
140
  8
TEAM-NET1
 10
-224.904088
 20
-435.216992
 30
850.0
 70
    64
  0
VERTEX
  5
141
  8
TEAM-NET1
 10
-213.031595
 20
-441.47962
 30
850.0
 70
    64
  0
VERTEX
  5
142
  8
TEAM-NET1
 10
-200.163949
 20
-445.438934
 30
850.0
 70
    64
  0
VERTEX
  5
143
  8
TEAM-NET1
 10
-187.242762
 20
-449.228667
 30
850.0
 70
    64
  0
VERTEX
  5
144
  8
TEAM-NET1
 10
-174.246828
 20
-452.753557
 30
850.0
 70
    64
  0
VERTEX
  5
145
  8
TEAM-NET1
 10
-161.181576
 20
-456.012132
 30
850.0
 70
    64
  0
VERTEX
  5
146
  8
TEAM-NET1
 10
-148.05246
 20
-459.003031
 30
850.0
 70
    64
  0
VERTEX
  5
147
  8
TEAM-NET1
 10
-134.864966
 20
-461.725005
 30
850.0
 70
    64
  0
VERTEX
  5
148
  8
TEAM-NET1
 10
-121.624601
 20
-464.176918
 30
850.0
 70
    64
  0
VERTEX
  5
149
  8
TEAM-NET1
 10
-108.336895
 20
-466.357744
 30
850.0
 70
    64
  0
VERTEX
  5
14A
  8
TEAM-NET1
 10
-95.007397
 20
-468.266574
 30
850.0
 70
    64
  0
VERTEX
  5
14B
  8
TEAM-NET1
 10
-81.641675
 20
-469.90261
 30
850.0
 70
    64
  0
VERTEX
  5
14C
  8
TEAM-NET1
 10
-68.24531
 20
-471.265168
 30
850.0
 70
    64
  0
VERTEX
  5
14D
  8
TEAM-NET1
 10
-54.823899
 20
-472.35368
 30
850.0
 70
    64
  0
VERTEX
  5
14E
  8
TEAM-NET1
 10
-41.383046
 20
-473.167691
 30
850.0
 70
    64
  0
VERTEX
  5
14F
  8
TEAM-NET1
 10
-27.928365
 20
-473.706861
 30
850.0
 70
    64
  0
VERTEX
  5
150
  8
TEAM-NET1
 10
-14.465475
 20
-473.970965
 30
850.0
 70
    64
  0
VERTEX
  5
151
  8
TEAM-NET1
 10
-1.0
 20
-473.959893
 30
850.0
 70
    64
  0
SEQEND
  5
152
  8
TEAM-NET1
  0
POLYLINE
  5
153
  8
TEAM-BODY
 66
     1
 10
0.0
 20
0.0
 30
189.095061
210
0.0
220
-1.0
230
0.0
  0
VERTEX
  5
48F
  8
TEAM-BODY
 10
-1.0
 20
640.0
 30
189.095061
 42
0.130601
  0
VERTEX
  5
490
  8
TEAM-BODY
 10
104.711188
 20
668.091029
 30
189.095061
 42
0.265347
  0
VERTEX
  5
491
  8
TEAM-BODY
 10
211.929425
 20
850.0
 30
189.095061
 42
0.265347
  0
SEQEND
  5
492
  8
TEAM-BODY
  0
ARC
  5
155
  8
TEAM-BODY
 10
-1.0
 20
852.949857
 30
189.095061
 40
212.949857
210
0.0
220
-1.0
230
0.0
 50
180.793707
 51
270.0
  0
LINE
  5
156
  8
TEAM-AXE
 10
-1.0
 20
-271.610683
 30
640.0
 11
-1.0
 21
-174.039765
 31
640.0
  0
CIRCLE
  5
159
  8
TEAM-DET1
 10
-1.0
 20
-220.0
 30
640.0
 40
30.0
  0
ARC
  5
15B
  8
TEAM-BODY
 10
-1.0
 20
-220.0
 30
640.0
 40
25.0
 50
180.0
 51
0.0
  0
ARC
  5
15C
  8
TEAM-BODY
 10
-1.0
 20
-220.0
 30
640.0
 40
25.0
 50
0.0
 51
180.0
  0
LINE
  5
15D
  8
TEAM-AXE
 10
-41.0
 20
-220.0
 30
640.0
 11
39.0
 21
-220.0
 31
640.0
  0
POLYLINE
  5
15E
  8
TEAM-BODY
 66
     1
 10
0.0
 20
0.0
 30
820.0
  0
VERTEX
  5
493
  8
TEAM-BODY
 10
-1.0
 20
-473.959893
 30
820.0
 42
0.079922
  0
VERTEX
  5
494
  8
TEAM-BODY
 10
206.0
 20
-443.0
 30
820.0
 42
0.246544
  0
VERTEX
  5
495
  8
TEAM-BODY
 10
240.0
 20
-413.0
 30
820.0
 42
0.058706
  0
VERTEX
  5
496
  8
TEAM-BODY
 10
242.0
 20
-400.0
 30
820.0
  0
VERTEX
  5
497
  8
TEAM-BODY
 10
238.0
 20
-269.0
 30
820.0
 42
0.370163
  0
VERTEX
  5
498
  8
TEAM-BODY
 10
-2.0
 20
-59.0
 30
820.0
  0
SEQEND
  5
499
  8
TEAM-BODY
  0
POLYLINE
  5
15F
  8
TEAM-BODY
 66
     1
 10
0.0
 20
0.0
 30
820.0
  0
VERTEX
  5
49A
  8
TEAM-BODY
 10
0.0
 20
-59.0
 30
820.0
 42
0.370163
  0
VERTEX
  5
49B
  8
TEAM-BODY
 10
-240.0
 20
-269.0
 30
820.0
  0
VERTEX
  5
49C
  8
TEAM-BODY
 10
-244.0
 20
-400.0
 30
820.0
 42
0.058706
  0
VERTEX
  5
49D
  8
TEAM-BODY
 10
-242.0
 20
-413.0
 30
820.0
 42
0.246544
  0
VERTEX
  5
49E
  8
TEAM-BODY
 10
-208.0
 20
-443.0
 30
820.0
 42
0.079922
  0
VERTEX
  5
49F
  8
TEAM-BODY
 10
-1.0
 20
-473.959893
 30
820.0
 42
0.079922
  0
SEQEND
  5
4A0
  8
TEAM-BODY
  0
POLYLINE
  5
160
  8
TEAM-BODY
 66
     1
 10
0.0
 20
0.0
 30
850.0
  0
VERTEX
  5
4A1
  8
TEAM-BODY
 10
211.929425
 20
-189.095061
 30
850.0
 42
0.274921
  0
VERTEX
  5
4A2
  8
TEAM-BODY
 10
-2.0
 20
-59.0
 30
850.0
  0
SEQEND
  5
4A3
  8
TEAM-BODY
  0
POLYLINE
  5
161
  8
TEAM-BODY
 66
     1
 10
0.0
 20
0.0
 30
850.0
  0
VERTEX
  5
4A4
  8
TEAM-BODY
 10
0.0
 20
-59.0
 30
850.0
 42
0.276348
  0
VERTEX
  5
4A5
  8
TEAM-BODY
 10
-214.534966
 20
-190.243604
 30
850.0
  0
SEQEND
  5
4A6
  8
TEAM-BODY
  0
LINE
  5
162
  8
TEAM-AXE
 10
-1.0
 20
-133.282276
 30
850.0
 11
-1.0
 21
-45.0
 31
850.0
  0
POLYLINE
  5
163
  8
TEAM-NET1
 66
     1
 10
0.0
 20
0.0
 30
0.0
 70
    16
 71
     2
 72
    37
  0
VERTEX
  5
164
  8
TEAM-NET1
 10
0.999999
 20
-508.999317
 30
820.0
 70
    64
  0
VERTEX
  5
165
  8
TEAM-NET1
 10
25.202443
 20
-508.480873
 30
820.0
 70
    64
  0
VERTEX
  5
166
  8
TEAM-NET1
 10
49.365295
 20
-507.003137
 30
820.0
 70
    64
  0
VERTEX
  5
167
  8
TEAM-NET1
 10
73.450546
 20
-504.568433
 30
820.0
 70
    64
  0
VERTEX
  5
168
  8
TEAM-NET1
 10
97.420311
 20
-501.180591
 30
820.0
 70
    64
  0
VERTEX
  5
169
  8
TEAM-NET1
 10
121.236886
 20
-496.844941
 30
820.0
 70
    64
  0
VERTEX
  5
16A
  8
TEAM-NET1
 10
144.862808
 20
-491.568301
 30
820.0
 70
    64
  0
VERTEX
  5
16B
  8
TEAM-NET1
 10
167.173934
 20
-495.387021
 30
820.0
 70
    64
  0
VERTEX
  5
16C
  8
TEAM-NET1
 10
189.778579
 20
-503.989314
 30
820.0
 70
    64
  0
VERTEX
  5
16D
  8
TEAM-NET1
 10
213.427961
 20
-509.055103
 30
820.0
 70
    64
  0
VERTEX
  5
16E
  8
TEAM-NET1
 10
234.484753
 20
-499.659573
 30
820.0
 70
    64
  0
VERTEX
  5
16F
  8
TEAM-NET1
 10
244.007209
 20
-477.444644
 30
820.0
 70
    64
  0
VERTEX
  5
170
  8
TEAM-NET1
 10
253.12379
 20
-455.017218
 30
820.0
 70
    64
  0
VERTEX
  5
171
  8
TEAM-NET1
 10
260.0
 20
-432.173902
 30
820.0
 70
    64
  0
VERTEX
  5
172
  8
TEAM-NET1
 10
260.0
 20
-407.964318
 30
820.0
 70
    64
  0
VERTEX
  5
173
  8
TEAM-NET1
 10
260.0
 20
-383.754735
 30
820.0
 70
    64
  0
VERTEX
  5
174
  8
TEAM-NET1
 10
260.0
 20
-359.545151
 30
820.0
 70
    64
  0
VERTEX
  5
175
  8
TEAM-NET1
 10
260.0
 20
-335.335568
 30
820.0
 70
    64
  0
VERTEX
  5
176
  8
TEAM-NET1
 10
260.0
 20
-311.125984
 30
820.0
 70
    64
  0
VERTEX
  5
177
  8
TEAM-NET1
 10
260.0
 20
-286.916401
 30
820.0
 70
    64
  0
VERTEX
  5
178
  8
TEAM-NET1
 10
260.0
 20
-262.706817
 30
820.0
 70
    64
  0
VERTEX
  5
179
  8
TEAM-NET1
 10
255.798957
 20
-238.951901
 30
820.0
 70
    64
  0
VERTEX
  5
17A
  8
TEAM-NET1
 10
248.473886
 20
-215.888534
 30
820.0
 70
    64
  0
VERTEX
  5
17B
  8
TEAM-NET1
 10
238.793586
 20
-193.71045
 30
820.0
 70
    64
  0
VERTEX
  5
17C
  8
TEAM-NET1
 10
226.862715
 20
-172.657424
 30
820.0
 70
    64
  0
VERTEX
  5
17D
  8
TEAM-NET1
 10
212.810259
 20
-152.957066
 30
820.0
 70
    64
  0
VERTEX
  5
17E
  8
TEAM-NET1
 10
196.788145
 20
-134.822362
 30
820.0
 70
    64
  0
VERTEX
  5
17F
  8
TEAM-NET1
 10
182.402704
 20
-117.06079
 30
820.0
 70
    64
  0
VERTEX
  5
180
  8
TEAM-NET1
 10
177.471135
 20
-93.64941
 30
820.0
 70
    64
  0
VERTEX
  5
181
  8
TEAM-NET1
 10
161.346506
 20
-75.974304
 30
820.0
 70
    64
  0
VERTEX
  5
182
  8
TEAM-NET1
 10
138.484944
 20
-68.920082
 30
820.0
 70
    64
  0
VERTEX
  5
183
  8
TEAM-NET1
 10
114.357125
 20
-70.0
 30
820.0
 70
    64
  0
VERTEX
  5
184
  8
TEAM-NET1
 10
93.386769
 20
-61.861937
 30
820.0
 70
    64
  0
VERTEX
  5
185
  8
TEAM-NET1
 10
71.628751
 20
-55.0
 30
820.0
 70
    64
  0
VERTEX
  5
186
  8
TEAM-NET1
 10
47.419167
 20
-55.0
 30
820.0
 70
    64
  0
VERTEX
  5
187
  8
TEAM-NET1
 10
23.209584
 20
-55.0
 30
820.0
 70
    64
  0
VERTEX
  5
188
  8
TEAM-NET1
 10
-1.0
 20
-55.0
 30
820.0
 70
    64
  0
VERTEX
  5
189
  8
TEAM-NET1
 10
-1.0
 20
-473.959893
 30
820.0
 70
    64
  0
VERTEX
  5
18A
  8
TEAM-NET1
 10
19.801019
 20
-473.861192
 30
820.0
 70
    64
  0
VERTEX
  5
18B
  8
TEAM-NET1
 10
40.588557
 20
-473.105932
 30
820.0
 70
    64
  0
VERTEX
  5
18C
  8
TEAM-NET1
 10
61.341895
 20
-471.694865
 30
820.0
 70
    64
  0
VERTEX
  5
18D
  8
TEAM-NET1
 10
82.040349
 20
-469.629397
 30
820.0
 70
    64
  0
VERTEX
  5
18E
  8
TEAM-NET1
 10
102.663289
 20
-466.911586
 30
820.0
 70
    64
  0
VERTEX
  5
18F
  8
TEAM-NET1
 10
123.190161
 20
-463.544143
 30
820.0
 70
    64
  0
VERTEX
  5
190
  8
TEAM-NET1
 10
143.600507
 20
-459.530423
 30
820.0
 70
    64
  0
VERTEX
  5
191
  8
TEAM-NET1
 10
163.873983
 20
-454.874426
 30
820.0
 70
    64
  0
VERTEX
  5
192
  8
TEAM-NET1
 10
183.990384
 20
-449.580792
 30
820.0
 70
    64
  0
VERTEX
  5
193
  8
TEAM-NET1
 10
203.929661
 20
-443.654799
 30
820.0
 70
    64
  0
VERTEX
  5
194
  8
TEAM-NET1
 10
222.827843
 20
-435.271709
 30
820.0
 70
    64
  0
VERTEX
  5
195
  8
TEAM-NET1
 10
236.687716
 20
-419.97099
 30
820.0
 70
    64
  0
VERTEX
  5
196
  8
TEAM-NET1
 10
241.996114
 20
-400.106929
 30
820.0
 70
    64
  0
VERTEX
  5
197
  8
TEAM-NET1
 10
241.368382
 20
-379.314523
 30
820.0
 70
    64
  0
VERTEX
  5
198
  8
TEAM-NET1
 10
240.733499
 20
-358.522096
 30
820.0
 70
    64
  0
VERTEX
  5
199
  8
TEAM-NET1
 10
240.098616
 20
-337.729669
 30
820.0
 70
    64
  0
VERTEX
  5
19A
  8
TEAM-NET1
 10
239.463733
 20
-316.937242
 30
820.0
 70
    64
  0
VERTEX
  5
19B
  8
TEAM-NET1
 10
238.828849
 20
-296.144815
 30
820.0
 70
    64
  0
VERTEX
  5
19C
  8
TEAM-NET1
 10
238.193966
 20
-275.352388
 30
820.0
 70
    64
  0
VERTEX
  5
19D
  8
TEAM-NET1
 10
235.52183
 20
-254.769495
 30
820.0
 70
    64
  0
VERTEX
  5
19E
  8
TEAM-NET1
 10
230.490092
 20
-234.591547
 30
820.0
 70
    64
  0
VERTEX
  5
19F
  8
TEAM-NET1
 10
223.764565
 20
-214.913253
 30
820.0
 70
    64
  0
VERTEX
  5
1A0
  8
TEAM-NET1
 10
215.393748
 20
-195.876515
 30
820.0
 70
    64
  0
VERTEX
  5
1A1
  8
TEAM-NET1
 10
205.438003
 20
-177.61861
 30
820.0
 70
    64
  0
VERTEX
  5
1A2
  8
TEAM-NET1
 10
193.969123
 20
-160.271197
 30
820.0
 70
    64
  0
VERTEX
  5
1A3
  8
TEAM-NET1
 10
181.06981
 20
-143.95937
 30
820.0
 70
    64
  0
VERTEX
  5
1A4
  8
TEAM-NET1
 10
166.833084
 20
-128.800756
 30
820.0
 70
    64
  0
VERTEX
  5
1A5
  8
TEAM-NET1
 10
151.361606
 20
-114.904665
 30
820.0
 70
    64
  0
VERTEX
  5
1A6
  8
TEAM-NET1
 10
134.766944
 20
-102.371303
 30
820.0
 70
    64
  0
VERTEX
  5
1A7
  8
TEAM-NET1
 10
117.168764
 20
-91.29105
 30
820.0
 70
    64
  0
VERTEX
  5
1A8
  8
TEAM-NET1
 10
98.693967
 20
-81.743808
 30
820.0
 70
    64
  0
VERTEX
  5
1A9
  8
TEAM-NET1
 10
79.475778
 20
-73.798421
 30
820.0
 70
    64
  0
VERTEX
  5
1AA
  8
TEAM-NET1
 10
59.652781
 20
-67.512186
 30
820.0
 70
    64
  0
VERTEX
  5
1AB
  8
TEAM-NET1
 10
39.367922
 20
-62.930432
 30
820.0
 70
    64
  0
VERTEX
  5
1AC
  8
TEAM-NET1
 10
18.767478
 20
-60.0862
 30
820.0
 70
    64
  0
VERTEX
  5
1AD
  8
TEAM-NET1
 10
-2.0
 20
-59.0
 30
820.0
 70
    64
  0
SEQEND
  5
1AE
  8
TEAM-NET1
  0
POLYLINE
  5
1AF
  8
TEAM-DET1
 66
     1
 10
0.0
 20
0.0
 30
820.0
  0
VERTEX
  5
4A7
  8
TEAM-DET1
 10
0.999999
 20
-508.999317
 30
820.0
 42
0.063865
  0
VERTEX
  5
4A8
  8
TEAM-DET1
 10
155.0
 20
-489.0
 30
820.0
 42
0.097515
  0
VERTEX
  5
4A9
  8
TEAM-DET1
 10
213.0
 20
-509.0
 30
820.0
 42
0.345723
  0
VERTEX
  5
4AA
  8
TEAM-DET1
 10
237.0
 20
-495.0
 30
820.0
 42
-0.004477
  0
VERTEX
  5
4AB
  8
TEAM-DET1
 10
260.0
 20
-438.396629
 30
820.0
  0
VERTEX
  5
4AC
  8
TEAM-DET1
 10
260.0
 20
-258.3983
 30
820.0
 42
0.174911
  0
VERTEX
  5
4AD
  8
TEAM-DET1
 10
182.0
 20
-121.0
 30
820.0
 42
0.52603
  0
VERTEX
  5
4AE
  8
TEAM-DET1
 10
127.0
 20
-70.0
 30
820.0
  0
VERTEX
  5
4AF
  8
TEAM-DET1
 10
102.0
 20
-70.0
 30
820.0
 42
0.035669
  0
VERTEX
  5
4B0
  8
TEAM-DET1
 10
85.0
 20
-55.0
 30
820.0
  0
VERTEX
  5
4B1
  8
TEAM-DET1
 10
-1.0
 20
-55.0
 30
820.0
  0
SEQEND
  5
4B2
  8
TEAM-DET1
  0
POLYLINE
  5
1B0
  8
TEAM-DET1
 66
     1
 10
0.0
 20
0.0
 30
815.0
  0
VERTEX
  5
4B3
  8
TEAM-DET1
 10
0.999999
 20
-508.999317
 30
815.0
 42
0.063865
  0
VERTEX
  5
4B4
  8
TEAM-DET1
 10
155.0
 20
-489.0
 30
815.0
 42
0.097515
  0
VERTEX
  5
4B5
  8
TEAM-DET1
 10
213.0
 20
-509.0
 30
815.0
 42
0.345723
  0
VERTEX
  5
4B6
  8
TEAM-DET1
 10
237.0
 20
-495.0
 30
815.0
 42
-0.004477
  0
VERTEX
  5
4B7
  8
TEAM-DET1
 10
260.0
 20
-438.396629
 30
815.0
  0
VERTEX
  5
4B8
  8
TEAM-DET1
 10
260.0
 20
-258.3983
 30
815.0
 42
0.174911
  0
VERTEX
  5
4B9
  8
TEAM-DET1
 10
182.0
 20
-121.0
 30
815.0
 42
0.52603
  0
VERTEX
  5
4BA
  8
TEAM-DET1
 10
127.0
 20
-70.0
 30
815.0
  0
VERTEX
  5
4BB
  8
TEAM-DET1
 10
102.0
 20
-70.0
 30
815.0
 42
0.035669
  0
VERTEX
  5
4BC
  8
TEAM-DET1
 10
85.0
 20
-55.0
 30
815.0
  0
VERTEX
  5
4BD
  8
TEAM-DET1
 10
-1.0
 20
-55.0
 30
815.0
  0
SEQEND
  5
4BE
  8
TEAM-DET1
  0
POLYLINE
  5
1B1
  8
TEAM-NET1
 66
     1
 10
0.0
 20
0.0
 30
0.0
 70
    16
 71
     2
 72
    37
  0
VERTEX
  5
1B2
  8
TEAM-NET1
 10
-1.0
 20
-473.959893
 30
820.0
 70
    64
  0
VERTEX
  5
1B3
  8
TEAM-NET1
 10
-21.801019
 20
-473.861192
 30
820.0
 70
    64
  0
VERTEX
  5
1B4
  8
TEAM-NET1
 10
-42.588557
 20
-473.105932
 30
820.0
 70
    64
  0
VERTEX
  5
1B5
  8
TEAM-NET1
 10
-63.341895
 20
-471.694865
 30
820.0
 70
    64
  0
VERTEX
  5
1B6
  8
TEAM-NET1
 10
-84.040349
 20
-469.629397
 30
820.0
 70
    64
  0
VERTEX
  5
1B7
  8
TEAM-NET1
 10
-104.663289
 20
-466.911586
 30
820.0
 70
    64
  0
VERTEX
  5
1B8
  8
TEAM-NET1
 10
-125.190161
 20
-463.544143
 30
820.0
 70
    64
  0
VERTEX
  5
1B9
  8
TEAM-NET1
 10
-145.600507
 20
-459.530423
 30
820.0
 70
    64
  0
VERTEX
  5
1BA
  8
TEAM-NET1
 10
-165.873983
 20
-454.874426
 30
820.0
 70
    64
  0
VERTEX
  5
1BB
  8
TEAM-NET1
 10
-185.990384
 20
-449.580792
 30
820.0
 70
    64
  0
VERTEX
  5
1BC
  8
TEAM-NET1
 10
-205.929661
 20
-443.654799
 30
820.0
 70
    64
  0
VERTEX
  5
1BD
  8
TEAM-NET1
 10
-224.827843
 20
-435.271709
 30
820.0
 70
    64
  0
VERTEX
  5
1BE
  8
TEAM-NET1
 10
-238.687716
 20
-419.97099
 30
820.0
 70
    64
  0
VERTEX
  5
1BF
  8
TEAM-NET1
 10
-243.996114
 20
-400.106929
 30
820.0
 70
    64
  0
VERTEX
  5
1C0
  8
TEAM-NET1
 10
-243.368382
 20
-379.314523
 30
820.0
 70
    64
  0
VERTEX
  5
1C1
  8
TEAM-NET1
 10
-242.733499
 20
-358.522096
 30
820.0
 70
    64
  0
VERTEX
  5
1C2
  8
TEAM-NET1
 10
-242.098616
 20
-337.729669
 30
820.0
 70
    64
  0
VERTEX
  5
1C3
  8
TEAM-NET1
 10
-241.463733
 20
-316.937242
 30
820.0
 70
    64
  0
VERTEX
  5
1C4
  8
TEAM-NET1
 10
-240.828849
 20
-296.144815
 30
820.0
 70
    64
  0
VERTEX
  5
1C5
  8
TEAM-NET1
 10
-240.193966
 20
-275.352388
 30
820.0
 70
    64
  0
VERTEX
  5
1C6
  8
TEAM-NET1
 10
-237.52183
 20
-254.769495
 30
820.0
 70
    64
  0
VERTEX
  5
1C7
  8
TEAM-NET1
 10
-232.490092
 20
-234.591547
 30
820.0
 70
    64
  0
VERTEX
  5
1C8
  8
TEAM-NET1
 10
-225.764565
 20
-214.913253
 30
820.0
 70
    64
  0
VERTEX
  5
1C9
  8
TEAM-NET1
 10
-217.393748
 20
-195.876515
 30
820.0
 70
    64
  0
VERTEX
  5
1CA
  8
TEAM-NET1
 10
-207.438003
 20
-177.61861
 30
820.0
 70
    64
  0
VERTEX
  5
1CB
  8
TEAM-NET1
 10
-195.969123
 20
-160.271197
 30
820.0
 70
    64
  0
VERTEX
  5
1CC
  8
TEAM-NET1
 10
-183.06981
 20
-143.95937
 30
820.0
 70
    64
  0
VERTEX
  5
1CD
  8
TEAM-NET1
 10
-168.833084
 20
-128.800756
 30
820.0
 70
    64
  0
VERTEX
  5
1CE
  8
TEAM-NET1
 10
-153.361606
 20
-114.904665
 30
820.0
 70
    64
  0
VERTEX
  5
1CF
  8
TEAM-NET1
 10
-136.766944
 20
-102.371303
 30
820.0
 70
    64
  0
VERTEX
  5
1D0
  8
TEAM-NET1
 10
-119.168764
 20
-91.29105
 30
820.0
 70
    64
  0
VERTEX
  5
1D1
  8
TEAM-NET1
 10
-100.693967
 20
-81.743808
 30
820.0
 70
    64
  0
VERTEX
  5
1D2
  8
TEAM-NET1
 10
-81.475778
 20
-73.798421
 30
820.0
 70
    64
  0
VERTEX
  5
1D3
  8
TEAM-NET1
 10
-61.652781
 20
-67.512186
 30
820.0
 70
    64
  0
VERTEX
  5
1D4
  8
TEAM-NET1
 10
-41.367922
 20
-62.930432
 30
820.0
 70
    64
  0
VERTEX
  5
1D5
  8
TEAM-NET1
 10
-20.767478
 20
-60.0862
 30
820.0
 70
    64
  0
VERTEX
  5
1D6
  8
TEAM-NET1
 10
0.0
 20
-59.0
 30
820.0
 70
    64
  0
VERTEX
  5
1D7
  8
TEAM-NET1
 10
-0.999999
 20
-508.999317
 30
820.0
 70
    64
  0
VERTEX
  5
1D8
  8
TEAM-NET1
 10
-25.146935
 20
-508.483161
 30
820.0
 70
    64
  0
VERTEX
  5
1D9
  8
TEAM-NET1
 10
-49.254547
 20
-507.012107
 30
820.0
 70
    64
  0
VERTEX
  5
1DA
  8
TEAM-NET1
 10
-73.285087
 20
-504.588458
 30
820.0
 70
    64
  0
VERTEX
  5
1DB
  8
TEAM-NET1
 10
-97.200929
 20
-501.216008
 30
820.0
 70
    64
  0
VERTEX
  5
1DC
  8
TEAM-NET1
 10
-120.964627
 20
-496.900038
 30
820.0
 70
    64
  0
VERTEX
  5
1DD
  8
TEAM-NET1
 10
-144.538973
 20
-491.647307
 30
820.0
 70
    64
  0
VERTEX
  5
1DE
  8
TEAM-NET1
 10
-166.822267
 20
-495.220994
 30
820.0
 70
    64
  0
VERTEX
  5
1DF
  8
TEAM-NET1
 10
-189.35254
 20
-503.862737
 30
820.0
 70
    64
  0
VERTEX
  5
1E0
  8
TEAM-NET1
 10
-212.932151
 20
-508.990587
 30
820.0
 70
    64
  0
VERTEX
  5
1E1
  8
TEAM-NET1
 10
-234.159569
 20
-500.109996
 30
820.0
 70
    64
  0
VERTEX
  5
1E2
  8
TEAM-NET1
 10
-243.779143
 20
-478.011604
 30
820.0
 70
    64
  0
VERTEX
  5
1E3
  8
TEAM-NET1
 10
-252.870614
 20
-455.633941
 30
820.0
 70
    64
  0
VERTEX
  5
1E4
  8
TEAM-NET1
 10
-260.0
 20
-432.896124
 30
820.0
 70
    64
  0
VERTEX
  5
1E5
  8
TEAM-NET1
 10
-260.0
 20
-408.742096
 30
820.0
 70
    64
  0
VERTEX
  5
1E6
  8
TEAM-NET1
 10
-260.0
 20
-384.588068
 30
820.0
 70
    64
  0
VERTEX
  5
1E7
  8
TEAM-NET1
 10
-260.0
 20
-360.43404
 30
820.0
 70
    64
  0
VERTEX
  5
1E8
  8
TEAM-NET1
 10
-260.0
 20
-336.280012
 30
820.0
 70
    64
  0
VERTEX
  5
1E9
  8
TEAM-NET1
 10
-260.0
 20
-312.125984
 30
820.0
 70
    64
  0
VERTEX
  5
1EA
  8
TEAM-NET1
 10
-260.0
 20
-287.971956
 30
820.0
 70
    64
  0
VERTEX
  5
1EB
  8
TEAM-NET1
 10
-260.0
 20
-263.817928
 30
820.0
 70
    64
  0
VERTEX
  5
1EC
  8
TEAM-NET1
 10
-256.090997
 20
-240.081424
 30
820.0
 70
    64
  0
VERTEX
  5
1ED
  8
TEAM-NET1
 10
-248.900913
 20
-217.033728
 30
820.0
 70
    64
  0
VERTEX
  5
1EE
  8
TEAM-NET1
 10
-239.361793
 20
-194.854938
 30
820.0
 70
    64
  0
VERTEX
  5
1EF
  8
TEAM-NET1
 10
-227.576293
 20
-173.783736
 30
820.0
 70
    64
  0
VERTEX
  5
1F0
  8
TEAM-NET1
 10
-213.671247
 20
-154.046885
 30
820.0
 70
    64
  0
VERTEX
  5
1F1
  8
TEAM-NET1
 10
-197.796299
 20
-135.856789
 30
820.0
 70
    64
  0
VERTEX
  5
1F2
  8
TEAM-NET1
 10
-182.290556
 20
-118.556523
 30
820.0
 70
    64
  0
VERTEX
  5
1F3
  8
TEAM-NET1
 10
-178.156799
 20
-95.045613
 30
820.0
 70
    64
  0
VERTEX
  5
1F4
  8
TEAM-NET1
 10
-162.691445
 20
-76.861179
 30
820.0
 70
    64
  0
VERTEX
  5
1F5
  8
TEAM-NET1
 10
-140.149296
 20
-69.006092
 30
820.0
 70
    64
  0
VERTEX
  5
1F6
  8
TEAM-NET1
 10
-116.079347
 20
-70.0
 30
820.0
 70
    64
  0
VERTEX
  5
1F7
  8
TEAM-NET1
 10
-94.716981
 20
-63.041342
 30
820.0
 70
    64
  0
VERTEX
  5
1F8
  8
TEAM-NET1
 10
-73.462084
 20
-55.0
 30
820.0
 70
    64
  0
VERTEX
  5
1F9
  8
TEAM-NET1
 10
-49.308056
 20
-55.0
 30
820.0
 70
    64
  0
VERTEX
  5
1FA
  8
TEAM-NET1
 10
-25.154028
 20
-55.0
 30
820.0
 70
    64
  0
VERTEX
  5
1FB
  8
TEAM-NET1
 10
-1.0
 20
-55.0
 30
820.0
 70
    64
  0
SEQEND
  5
1FC
  8
TEAM-NET1
  0
POLYLINE
  5
1FD
  8
TEAM-DET1
 66
     1
 10
0.0
 20
0.0
 30
820.0
  0
VERTEX
  5
4BF
  8
TEAM-DET1
 10
-1.0
 20
-55.0
 30
820.0
  0
VERTEX
  5
4C0
  8
TEAM-DET1
 10
-85.0
 20
-55.0
 30
820.0
 42
0.035669
  0
VERTEX
  5
4C1
  8
TEAM-DET1
 10
-102.0
 20
-70.0
 30
820.0
  0
VERTEX
  5
4C2
  8
TEAM-DET1
 10
-127.0
 20
-70.0
 30
820.0
 42
0.52603
  0
VERTEX
  5
4C3
  8
TEAM-DET1
 10
-182.0
 20
-121.0
 30
820.0
 42
0.174911
  0
VERTEX
  5
4C4
  8
TEAM-DET1
 10
-260.0
 20
-258.3983
 30
820.0
  0
VERTEX
  5
4C5
  8
TEAM-DET1
 10
-260.0
 20
-438.396629
 30
820.0
 42
-0.004477
  0
VERTEX
  5
4C6
  8
TEAM-DET1
 10
-237.0
 20
-495.0
 30
820.0
 42
0.345723
  0
VERTEX
  5
4C7
  8
TEAM-DET1
 10
-213.0
 20
-509.0
 30
820.0
 42
0.097515
  0
VERTEX
  5
4C8
  8
TEAM-DET1
 10
-155.0
 20
-489.0
 30
820.0
 42
0.063865
  0
VERTEX
  5
4C9
  8
TEAM-DET1
 10
-0.999999
 20
-508.999317
 30
820.0
 42
0.063865
  0
SEQEND
  5
4CA
  8
TEAM-DET1
  0
POLYLINE
  5
1FE
  8
TEAM-DET1
 66
     1
 10
0.0
 20
0.0
 30
815.0
  0
VERTEX
  5
4CB
  8
TEAM-DET1
 10
-1.0
 20
-55.0
 30
815.0
  0
VERTEX
  5
4CC
  8
TEAM-DET1
 10
-85.0
 20
-55.0
 30
815.0
 42
0.035669
  0
VERTEX
  5
4CD
  8
TEAM-DET1
 10
-102.0
 20
-70.0
 30
815.0
  0
VERTEX
  5
4CE
  8
TEAM-DET1
 10
-127.0
 20
-70.0
 30
815.0
 42
0.52603
  0
VERTEX
  5
4CF
  8
TEAM-DET1
 10
-182.0
 20
-121.0
 30
815.0
 42
0.174911
  0
VERTEX
  5
4D0
  8
TEAM-DET1
 10
-260.0
 20
-258.3983
 30
815.0
  0
VERTEX
  5
4D1
  8
TEAM-DET1
 10
-260.0
 20
-438.396629
 30
815.0
 42
-0.004477
  0
VERTEX
  5
4D2
  8
TEAM-DET1
 10
-237.0
 20
-495.0
 30
815.0
 42
0.345723
  0
VERTEX
  5
4D3
  8
TEAM-DET1
 10
-213.0
 20
-509.0
 30
815.0
 42
0.097515
  0
VERTEX
  5
4D4
  8
TEAM-DET1
 10
-155.0
 20
-489.0
 30
815.0
 42
0.063865
  0
VERTEX
  5
4D5
  8
TEAM-DET1
 10
-0.999999
 20
-508.999317
 30
815.0
 42
0.063865
  0
SEQEND
  5
4D6
  8
TEAM-DET1
  0
POLYLINE
  5
1FF
  8
TEAM-BODY
 66
     1
 10
0.0
 20
0.0
 30
850.0
  0
VERTEX
  5
4D7
  8
TEAM-BODY
 10
-1.0
 20
-473.959893
 30
850.0
 42
0.079922
  0
VERTEX
  5
4D8
  8
TEAM-BODY
 10
206.0
 20
-443.0
 30
850.0
 42
0.246544
  0
VERTEX
  5
4D9
  8
TEAM-BODY
 10
240.0
 20
-413.0
 30
850.0
 42
0.058706
  0
VERTEX
  5
4DA
  8
TEAM-BODY
 10
242.0
 20
-400.0
 30
850.0
  0
VERTEX
  5
4DB
  8
TEAM-BODY
 10
238.0
 20
-269.0
 30
850.0
 42
0.086444
  0
VERTEX
  5
4DC
  8
TEAM-BODY
 10
211.929425
 20
-189.095061
 30
850.0
  0
SEQEND
  5
4DD
  8
TEAM-BODY
  0
TEXT
  5
200
  8
TEAM-TXT
 10
-50.546484
 20
-300.218983
 30
855.0
 40
30.0
  1
team 231003
 41
0.8
 51
15.0
  7
TEAM
  0
POLYLINE
  5
203
  8
TEAM-NET1
 66
     1
 10
0.0
 20
0.0
 30
0.0
 70
    16
 71
     2
 72
    37
  0
VERTEX
  5
204
  8
TEAM-NET1
 10
-2.0
 20
-59.0
 30
850.0
 70
    64
  0
VERTEX
  5
205
  8
TEAM-NET1
 10
5.297842
 20
-59.18021
 30
850.0
 70
    64
  0
VERTEX
  5
206
  8
TEAM-NET1
 10
12.58707
 20
-59.577859
 30
850.0
 70
    64
  0
VERTEX
  5
207
  8
TEAM-NET1
 10
19.861207
 20
-60.192594
 30
850.0
 70
    64
  0
VERTEX
  5
208
  8
TEAM-NET1
 10
27.11379
 20
-61.023868
 30
850.0
 70
    64
  0
VERTEX
  5
209
  8
TEAM-NET1
 10
34.338373
 20
-62.070943
 30
850.0
 70
    64
  0
VERTEX
  5
20A
  8
TEAM-NET1
 10
41.528538
 20
-63.332888
 30
850.0
 70
    64
  0
VERTEX
  5
20B
  8
TEAM-NET1
 10
48.677895
 20
-64.808581
 30
850.0
 70
    64
  0
VERTEX
  5
20C
  8
TEAM-NET1
 10
55.78009
 20
-66.496713
 30
850.0
 70
    64
  0
VERTEX
  5
20D
  8
TEAM-NET1
 10
62.828814
 20
-68.395782
 30
850.0
 70
    64
  0
VERTEX
  5
20E
  8
TEAM-NET1
 10
69.817803
 20
-70.504101
 30
850.0
 70
    64
  0
VERTEX
  5
20F
  8
TEAM-NET1
 10
76.740846
 20
-72.819797
 30
850.0
 70
    64
  0
VERTEX
  5
210
  8
TEAM-NET1
 10
83.591792
 20
-75.340811
 30
850.0
 70
    64
  0
VERTEX
  5
211
  8
TEAM-NET1
 10
90.364552
 20
-78.064905
 30
850.0
 70
    64
  0
VERTEX
  5
212
  8
TEAM-NET1
 10
97.05311
 20
-80.989656
 30
850.0
 70
    64
  0
VERTEX
  5
213
  8
TEAM-NET1
 10
103.65152
 20
-84.112467
 30
850.0
 70
    64
  0
VERTEX
  5
214
  8
TEAM-NET1
 10
110.153921
 20
-87.430562
 30
850.0
 70
    64
  0
VERTEX
  5
215
  8
TEAM-NET1
 10
116.554534
 20
-90.940993
 30
850.0
 70
    64
  0
VERTEX
  5
216
  8
TEAM-NET1
 10
122.847672
 20
-94.640641
 30
850.0
 70
    64
  0
VERTEX
  5
217
  8
TEAM-NET1
 10
129.027742
 20
-98.526217
 30
850.0
 70
    64
  0
VERTEX
  5
218
  8
TEAM-NET1
 10
135.089253
 20
-102.594271
 30
850.0
 70
    64
  0
VERTEX
  5
219
  8
TEAM-NET1
 10
141.026818
 20
-106.841185
 30
850.0
 70
    64
  0
VERTEX
  5
21A
  8
TEAM-NET1
 10
146.835163
 20
-111.263188
 30
850.0
 70
    64
  0
VERTEX
  5
21B
  8
TEAM-NET1
 10
152.509125
 20
-115.856349
 30
850.0
 70
    64
  0
VERTEX
  5
21C
  8
TEAM-NET1
 10
158.043662
 20
-120.616587
 30
850.0
 70
    64
  0
VERTEX
  5
21D
  8
TEAM-NET1
 10
163.433857
 20
-125.539672
 30
850.0
 70
    64
  0
VERTEX
  5
21E
  8
TEAM-NET1
 10
168.674921
 20
-130.62123
 30
850.0
 70
    64
  0
VERTEX
  5
21F
  8
TEAM-NET1
 10
173.762195
 20
-135.856744
 30
850.0
 70
    64
  0
VERTEX
  5
220
  8
TEAM-NET1
 10
178.691159
 20
-141.241564
 30
850.0
 70
    64
  0
VERTEX
  5
221
  8
TEAM-NET1
 10
183.457434
 20
-146.770903
 30
850.0
 70
    64
  0
VERTEX
  5
222
  8
TEAM-NET1
 10
188.056784
 20
-152.43985
 30
850.0
 70
    64
  0
VERTEX
  5
223
  8
TEAM-NET1
 10
192.485123
 20
-158.243365
 30
850.0
 70
    64
  0
VERTEX
  5
224
  8
TEAM-NET1
 10
196.738514
 20
-164.176293
 30
850.0
 70
    64
  0
VERTEX
  5
225
  8
TEAM-NET1
 10
200.81318
 20
-170.233361
 30
850.0
 70
    64
  0
VERTEX
  5
226
  8
TEAM-NET1
 10
204.705498
 20
-176.409187
 30
850.0
 70
    64
  0
VERTEX
  5
227
  8
TEAM-NET1
 10
208.412011
 20
-182.698283
 30
850.0
 70
    64
  0
VERTEX
  5
228
  8
TEAM-NET1
 10
211.929425
 20
-189.095061
 30
850.0
 70
    64
  0
VERTEX
  5
229
  8
TEAM-NET1
 10
-1.0
 20
-140.0
 30
850.0
 70
    64
  0
VERTEX
  5
22A
  8
TEAM-NET1
 10
5.242415
 20
-140.035864
 30
850.0
 70
    64
  0
VERTEX
  5
22B
  8
TEAM-NET1
 10
11.48445
 20
-140.113536
 30
850.0
 70
    64
  0
VERTEX
  5
22C
  8
TEAM-NET1
 10
17.725824
 20
-140.233011
 30
850.0
 70
    64
  0
VERTEX
  5
22D
  8
TEAM-NET1
 10
23.966259
 20
-140.394284
 30
850.0
 70
    64
  0
VERTEX
  5
22E
  8
TEAM-NET1
 10
30.205473
 20
-140.597348
 30
850.0
 70
    64
  0
VERTEX
  5
22F
  8
TEAM-NET1
 10
36.443187
 20
-140.842194
 30
850.0
 70
    64
  0
VERTEX
  5
230
  8
TEAM-NET1
 10
42.679122
 20
-141.12881
 30
850.0
 70
    64
  0
VERTEX
  5
231
  8
TEAM-NET1
 10
48.912997
 20
-141.457185
 30
850.0
 70
    64
  0
VERTEX
  5
232
  8
TEAM-NET1
 10
55.144534
 20
-141.827303
 30
850.0
 70
    64
  0
VERTEX
  5
233
  8
TEAM-NET1
 10
61.373451
 20
-142.239148
 30
850.0
 70
    64
  0
VERTEX
  5
234
  8
TEAM-NET1
 10
67.599471
 20
-142.6927
 30
850.0
 70
    64
  0
VERTEX
  5
235
  8
TEAM-NET1
 10
73.822313
 20
-143.187941
 30
850.0
 70
    64
  0
VERTEX
  5
236
  8
TEAM-NET1
 10
80.041699
 20
-143.724847
 30
850.0
 70
    64
  0
VERTEX
  5
237
  8
TEAM-NET1
 10
86.25735
 20
-144.303395
 30
850.0
 70
    64
  0
VERTEX
  5
238
  8
TEAM-NET1
 10
92.468986
 20
-144.923559
 30
850.0
 70
    64
  0
VERTEX
  5
239
  8
TEAM-NET1
 10
98.67633
 20
-145.58531
 30
850.0
 70
    64
  0
VERTEX
  5
23A
  8
TEAM-NET1
 10
104.879103
 20
-146.288619
 30
850.0
 70
    64
  0
VERTEX
  5
23B
  8
TEAM-NET1
 10
111.077026
 20
-147.033455
 30
850.0
 70
    64
  0
VERTEX
  5
23C
  8
TEAM-NET1
 10
117.269821
 20
-147.819784
 30
850.0
 70
    64
  0
VERTEX
  5
23D
  8
TEAM-NET1
 10
123.457212
 20
-148.647571
 30
850.0
 70
    64
  0
VERTEX
  5
23E
  8
TEAM-NET1
 10
129.612495
 20
-149.676932
 30
850.0
 70
    64
  0
VERTEX
  5
23F
  8
TEAM-NET1
 10
135.714626
 20
-150.992005
 30
850.0
 70
    64
  0
VERTEX
  5
240
  8
TEAM-NET1
 10
141.768494
 20
-152.513878
 30
850.0
 70
    64
  0
VERTEX
  5
241
  8
TEAM-NET1
 10
147.767094
 20
-154.24079
 30
850.0
 70
    64
  0
VERTEX
  5
242
  8
TEAM-NET1
 10
153.703482
 20
-156.170741
 30
850.0
 70
    64
  0
VERTEX
  5
243
  8
TEAM-NET1
 10
159.570789
 20
-158.301499
 30
850.0
 70
    64
  0
VERTEX
  5
244
  8
TEAM-NET1
 10
165.362224
 20
-160.630597
 30
850.0
 70
    64
  0
VERTEX
  5
245
  8
TEAM-NET1
 10
171.071085
 20
-163.15534
 30
850.0
 70
    64
  0
VERTEX
  5
246
  8
TEAM-NET1
 10
176.690764
 20
-165.872806
 30
850.0
 70
    64
  0
VERTEX
  5
247
  8
TEAM-NET1
 10
182.214758
 20
-168.77985
 30
850.0
 70
    64
  0
VERTEX
  5
248
  8
TEAM-NET1
 10
187.636674
 20
-171.873108
 30
850.0
 70
    64
  0
VERTEX
  5
249
  8
TEAM-NET1
 10
192.950238
 20
-175.148999
 30
850.0
 70
    64
  0
VERTEX
  5
24A
  8
TEAM-NET1
 10
198.149298
 20
-178.603733
 30
850.0
 70
    64
  0
VERTEX
  5
24B
  8
TEAM-NET1
 10
203.22784
 20
-182.233311
 30
850.0
 70
    64
  0
VERTEX
  5
24C
  8
TEAM-NET1
 10
208.179984
 20
-186.033533
 30
850.0
 70
    64
  0
VERTEX
  5
24D
  8
TEAM-NET1
 10
213.0
 20
-190.0
 30
850.0
 70
    64
  0
SEQEND
  5
24E
  8
TEAM-NET1
  0
POLYLINE
  5
24F
  8
TEAM-BODY
 66
     1
 10
0.0
 20
0.0
 30
850.0
  0
VERTEX
  5
4DE
  8
TEAM-BODY
 10
213.0
 20
-190.0
 30
850.0
 42
0.133369
  0
VERTEX
  5
4DF
  8
TEAM-BODY
 10
126.0
 20
-149.0
 30
850.0
 42
0.034189
  0
VERTEX
  5
4E0
  8
TEAM-BODY
 10
-1.0
 20
-140.0
 30
850.0
 42
0.034189
  0
SEQEND
  5
4E1
  8
TEAM-BODY
  0
POLYLINE
  5
250
  8
TEAM-BODY
 66
     1
 10
0.0
 20
0.0
 30
850.0
  0
VERTEX
  5
4E2
  8
TEAM-BODY
 10
-214.534966
 20
-190.243604
 30
850.0
 42
0.085109
  0
VERTEX
  5
4E3
  8
TEAM-BODY
 10
-240.0
 20
-269.0
 30
850.0
  0
VERTEX
  5
4E4
  8
TEAM-BODY
 10
-244.0
 20
-400.0
 30
850.0
 42
0.058706
  0
VERTEX
  5
4E5
  8
TEAM-BODY
 10
-242.0
 20
-413.0
 30
850.0
 42
0.246544
  0
VERTEX
  5
4E6
  8
TEAM-BODY
 10
-208.0
 20
-443.0
 30
850.0
 42
0.079922
  0
VERTEX
  5
4E7
  8
TEAM-BODY
 10
-1.0
 20
-473.959893
 30
850.0
 42
0.079922
  0
SEQEND
  5
4E8
  8
TEAM-BODY
  0
LINE
  5
251
  8
TEAM-AXE
 10
-202.0
 20
-474.0
 30
850.0
 11
-186.0
 21
-474.0
 31
850.0
  0
CIRCLE
  5
252
  8
TEAM-HIDE
 10
-195.0
 20
-474.0
 30
850.0
 40
5.0
  0
LINE
  5
255
  8
TEAM-AXE
 10
-195.0
 20
-467.0
 30
850.0
 11
-195.0
 21
-482.0
 31
850.0
  0
POLYLINE
  5
256
  8
TEAM-NET1
 66
     1
 10
0.0
 20
0.0
 30
0.0
 70
    16
 71
     2
 72
    37
  0
VERTEX
  5
257
  8
TEAM-NET1
 10
0.0
 20
-59.0
 30
850.0
 70
    64
  0
VERTEX
  5
258
  8
TEAM-NET1
 10
-7.33388
 20
-59.18164
 30
850.0
 70
    64
  0
VERTEX
  5
259
  8
TEAM-NET1
 10
-14.659029
 20
-59.582872
 30
850.0
 70
    64
  0
VERTEX
  5
25A
  8
TEAM-NET1
 10
-21.968873
 20
-60.203335
 30
850.0
 70
    64
  0
VERTEX
  5
25B
  8
TEAM-NET1
 10
-29.256852
 20
-61.042472
 30
850.0
 70
    64
  0
VERTEX
  5
25C
  8
TEAM-NET1
 10
-36.516426
 20
-62.099531
 30
850.0
 70
    64
  0
VERTEX
  5
25D
  8
TEAM-NET1
 10
-43.74108
 20
-63.373563
 30
850.0
 70
    64
  0
VERTEX
  5
25E
  8
TEAM-NET1
 10
-50.924332
 20
-64.863424
 30
850.0
 70
    64
  0
VERTEX
  5
25F
  8
TEAM-NET1
 10
-58.059735
 20
-66.567777
 30
850.0
 70
    64
  0
VERTEX
  5
260
  8
TEAM-NET1
 10
-65.140885
 20
-68.485093
 30
850.0
 70
    64
  0
VERTEX
  5
261
  8
TEAM-NET1
 10
-72.161428
 20
-70.613652
 30
850.0
 70
    64
  0
VERTEX
  5
262
  8
TEAM-NET1
 10
-79.115064
 20
-72.951543
 30
850.0
 70
    64
  0
VERTEX
  5
263
  8
TEAM-NET1
 10
-85.995553
 20
-75.496669
 30
850.0
 70
    64
  0
VERTEX
  5
264
  8
TEAM-NET1
 10
-92.79672
 20
-78.246744
 30
850.0
 70
    64
  0
VERTEX
  5
265
  8
TEAM-NET1
 10
-99.512462
 20
-81.199302
 30
850.0
 70
    64
  0
VERTEX
  5
266
  8
TEAM-NET1
 10
-106.136753
 20
-84.351693
 30
850.0
 70
    64
  0
VERTEX
  5
267
  8
TEAM-NET1
 10
-112.663647
 20
-87.701088
 30
850.0
 70
    64
  0
VERTEX
  5
268
  8
TEAM-NET1
 10
-119.087287
 20
-91.244481
 30
850.0
 70
    64
  0
VERTEX
  5
269
  8
TEAM-NET1
 10
-125.40191
 20
-94.978692
 30
850.0
 70
    64
  0
VERTEX
  5
26A
  8
TEAM-NET1
 10
-131.601847
 20
-98.90037
 30
850.0
 70
    64
  0
VERTEX
  5
26B
  8
TEAM-NET1
 10
-137.681537
 20
-103.005997
 30
850.0
 70
    64
  0
VERTEX
  5
26C
  8
TEAM-NET1
 10
-143.635522
 20
-107.291887
 30
850.0
 70
    64
  0
VERTEX
  5
26D
  8
TEAM-NET1
 10
-149.458459
 20
-111.754194
 30
850.0
 70
    64
  0
VERTEX
  5
26E
  8
TEAM-NET1
 10
-155.145124
 20
-116.388915
 30
850.0
 70
    64
  0
VERTEX
  5
26F
  8
TEAM-NET1
 10
-160.690413
 20
-121.191889
 30
850.0
 70
    64
  0
VERTEX
  5
270
  8
TEAM-NET1
 10
-166.089349
 20
-126.158808
 30
850.0
 70
    64
  0
VERTEX
  5
271
  8
TEAM-NET1
 10
-171.337088
 20
-131.285212
 30
850.0
 70
    64
  0
VERTEX
  5
272
  8
TEAM-NET1
 10
-176.42892
 20
-136.566503
 30
850.0
 70
    64
  0
VERTEX
  5
273
  8
TEAM-NET1
 10
-181.360277
 20
-141.997941
 30
850.0
 70
    64
  0
VERTEX
  5
274
  8
TEAM-NET1
 10
-186.126732
 20
-147.574651
 30
850.0
 70
    64
  0
VERTEX
  5
275
  8
TEAM-NET1
 10
-190.724008
 20
-153.291629
 30
850.0
 70
    64
  0
VERTEX
  5
276
  8
TEAM-NET1
 10
-195.147981
 20
-159.143745
 30
850.0
 70
    64
  0
VERTEX
  5
277
  8
TEAM-NET1
 10
-199.394679
 20
-165.125747
 30
850.0
 70
    64
  0
VERTEX
  5
278
  8
TEAM-NET1
 10
-203.460291
 20
-171.232266
 30
850.0
 70
    64
  0
VERTEX
  5
279
  8
TEAM-NET1
 10
-207.34117
 20
-177.457824
 30
850.0
 70
    64
  0
VERTEX
  5
27A
  8
TEAM-NET1
 10
-211.033833
 20
-183.796833
 30
850.0
 70
    64
  0
VERTEX
  5
27B
  8
TEAM-NET1
 10
-214.534966
 20
-190.243604
 30
850.0
 70
    64
  0
VERTEX
  5
27C
  8
TEAM-NET1
 10
-1.0
 20
-140.0
 30
850.0
 70
    64
  0
VERTEX
  5
27D
  8
TEAM-NET1
 10
-7.235843
 20
-140.035805
 30
850.0
 70
    64
  0
VERTEX
  5
27E
  8
TEAM-NET1
 10
-13.471308
 20
-140.113328
 30
850.0
 70
    64
  0
VERTEX
  5
27F
  8
TEAM-NET1
 10
-19.706114
 20
-140.232567
 30
850.0
 70
    64
  0
VERTEX
  5
280
  8
TEAM-NET1
 10
-25.939982
 20
-140.393517
 30
850.0
 70
    64
  0
VERTEX
  5
281
  8
TEAM-NET1
 10
-32.172635
 20
-140.596169
 30
850.0
 70
    64
  0
VERTEX
  5
282
  8
TEAM-NET1
 10
-38.403792
 20
-140.840516
 30
850.0
 70
    64
  0
VERTEX
  5
283
  8
TEAM-NET1
 10
-44.633175
 20
-141.126545
 30
850.0
 70
    64
  0
VERTEX
  5
284
  8
TEAM-NET1
 10
-50.860505
 20
-141.454245
 30
850.0
 70
    64
  0
VERTEX
  5
285
  8
TEAM-NET1
 10
-57.085503
 20
-141.8236
 30
850.0
 70
    64
  0
VERTEX
  5
286
  8
TEAM-NET1
 10
-63.30789
 20
-142.234595
 30
850.0
 70
    64
  0
VERTEX
  5
287
  8
TEAM-NET1
 10
-69.527389
 20
-142.687209
 30
850.0
 70
    64
  0
VERTEX
  5
288
  8
TEAM-NET1
 10
-75.743721
 20
-143.181425
 30
850.0
 70
    64
  0
VERTEX
  5
289
  8
TEAM-NET1
 10
-81.956606
 20
-143.717218
 30
850.0
 70
    64
  0
VERTEX
  5
28A
  8
TEAM-NET1
 10
-88.165768
 20
-144.294566
 30
850.0
 70
    64
  0
VERTEX
  5
28B
  8
TEAM-NET1
 10
-94.370929
 20
-144.913442
 30
850.0
 70
    64
  0
VERTEX
  5
28C
  8
TEAM-NET1
 10
-100.57181
 20
-145.573819
 30
850.0
 70
    64
  0
VERTEX
  5
28D
  8
TEAM-NET1
 10
-106.768134
 20
-146.275667
 30
850.0
 70
    64
  0
VERTEX
  5
28E
  8
TEAM-NET1
 10
-112.959624
 20
-147.018955
 30
850.0
 70
    64
  0
VERTEX
  5
28F
  8
TEAM-NET1
 10
-119.146003
 20
-147.803649
 30
850.0
 70
    64
  0
VERTEX
  5
290
  8
TEAM-NET1
 10
-125.326993
 20
-148.629714
 30
850.0
 70
    64
  0
VERTEX
  5
291
  8
TEAM-NET1
 10
-131.480131
 20
-149.633749
 30
850.0
 70
    64
  0
VERTEX
  5
292
  8
TEAM-NET1
 10
-137.581644
 20
-150.920092
 30
850.0
 70
    64
  0
VERTEX
  5
293
  8
TEAM-NET1
 10
-143.633981
 20
-152.420877
 30
850.0
 70
    64
  0
VERTEX
  5
294
  8
TEAM-NET1
 10
-149.629607
 20
-154.134236
 30
850.0
 70
    64
  0
VERTEX
  5
295
  8
TEAM-NET1
 10
-155.56106
 20
-156.058035
 30
850.0
 70
    64
  0
VERTEX
  5
296
  8
TEAM-NET1
 10
-161.420955
 20
-158.18988
 30
850.0
 70
    64
  0
VERTEX
  5
297
  8
TEAM-NET1
 10
-167.201998
 20
-160.527117
 30
850.0
 70
    64
  0
VERTEX
  5
298
  8
TEAM-NET1
 10
-172.896992
 20
-163.066837
 30
850.0
 70
    64
  0
VERTEX
  5
299
  8
TEAM-NET1
 10
-178.498849
 20
-165.805877
 30
850.0
 70
    64
  0
VERTEX
  5
29A
  8
TEAM-NET1
 10
-184.000593
 20
-168.740829
 30
850.0
 70
    64
  0
VERTEX
  5
29B
  8
TEAM-NET1
 10
-189.395377
 20
-171.868039
 30
850.0
 70
    64
  0
VERTEX
  5
29C
  8
TEAM-NET1
 10
-194.676485
 20
-175.183613
 30
850.0
 70
    64
  0
VERTEX
  5
29D
  8
TEAM-NET1
 10
-199.837343
 20
-178.683425
 30
850.0
 70
    64
  0
VERTEX
  5
29E
  8
TEAM-NET1
 10
-204.871526
 20
-182.363118
 30
850.0
 70
    64
  0
VERTEX
  5
29F
  8
TEAM-NET1
 10
-209.772767
 20
-186.218111
 30
850.0
 70
    64
  0
VERTEX
  5
2A0
  8
TEAM-NET1
 10
-214.534966
 20
-190.243604
 30
850.0
 70
    64
  0
SEQEND
  5
2A1
  8
TEAM-NET1
  0
POLYLINE
  5
2A2
  8
TEAM-BODY
 66
     1
 10
0.0
 20
0.0
 30
850.0
  0
VERTEX
  5
4E9
  8
TEAM-BODY
 10
-1.0
 20
-140.0
 30
850.0
 42
0.034189
  0
VERTEX
  5
4EA
  8
TEAM-BODY
 10
-128.0
 20
-149.0
 30
850.0
 42
0.138189
  0
VERTEX
  5
4EB
  8
TEAM-BODY
 10
-214.534966
 20
-190.243604
 30
850.0
  0
SEQEND
  5
4EC
  8
TEAM-BODY
  0
ARC
  5
2A3
  8
TEAM-DET1
 10
-1.0
 20
-105.0
 30
850.0
 40
20.0
 50
180.0
 51
0.0
  0
ARC
  5
2A4
  8
TEAM-DET1
 10
-1.0
 20
-105.0
 30
850.0
 40
20.0
 50
0.0
 51
180.0
  0
LINE
  5
2A5
  8
TEAM-AXE
 10
-151.0
 20
-88.0
 30
850.0
 11
-151.0
 21
-103.0
 31
850.0
  0
CIRCLE
  5
2A6
  8
TEAM-HIDE
 10
-151.0
 20
-95.0
 30
850.0
 40
5.0
  0
LINE
  5
2A7
  8
TEAM-AXE
 10
-158.0
 20
-95.0
 30
850.0
 11
-142.0
 21
-95.0
 31
850.0
  0
LINE
  5
2A8
  8
TEAM-AXE
 10
-32.0
 20
-104.0
 30
850.0
 11
39.0
 21
-104.0
 31
850.0
  0
CIRCLE
  5
2A9
  8
TEAM-HIDE
 10
195.0
 20
-474.0
 30
850.0
 40
5.0
  0
LINE
  5
2AA
  8
TEAM-AXE
 10
202.0
 20
-474.0
 30
850.0
 11
186.0
 21
-474.0
 31
850.0
  0
LINE
  5
2AB
  8
TEAM-AXE
 10
195.0
 20
-467.0
 30
850.0
 11
195.0
 21
-482.0
 31
850.0
  0
LINE
  5
2AC
  8
TEAM-AXE
 10
151.0
 20
-88.0
 30
850.0
 11
151.0
 21
-103.0
 31
850.0
  0
CIRCLE
  5
2AD
  8
TEAM-HIDE
 10
151.0
 20
-95.0
 30
850.0
 40
5.0
  0
LINE
  5
2AE
  8
TEAM-AXE
 10
158.0
 20
-95.0
 30
850.0
 11
142.0
 21
-95.0
 31
850.0
  0
ENDSEC
  0
EOF
