  0
SECTION
  2
HEADER
  9
$ACADVER
  1
AC1009
  9
$INSBASE
 10
0.0
 20
0.0
 30
0.0
  9
$EXTMIN
 10
-214.026122
 20
-428.026792
 30
-0.051878
  9
$EXTMAX
 10
214.026126
 20
11.001155
 30
850.051885
  9
$LIMMIN
 10
-214.026122
 20
-428.026792
  9
$LIMMAX
 10
214.026126
 20
11.001155
  9
$ORTHOMODE
 70
     1
  9
$REGENMODE
 70
     1
  9
$FILLMODE
 70
     1
  9
$QTEXTMODE
 70
     0
  9
$MIRRTEXT
 70
     0
  9
$DRAGMODE
 70
     2
  9
$LTSCALE
 40
25.0
  9
$OSMODE
 70
     0
  9
$ATTMODE
 70
     1
  9
$TEXTSIZE
 40
200.0
  9
$TRACEWID
 40
1.0
  9
$TEXTSTYLE
  7
STANDARD
  9
$CLAYER
  8
TEAM-MAS
  9
$CELTYPE
  6
BYLAYER
  9
$CECOLOR
 62
   256
  9
$DIMSCALE
 40
1.0
  9
$DIMASZ
 40
20.0
  9
$DIMEXO
 40
10.0
  9
$DIMDLI
 40
1.0
  9
$DIMRND
 40
0.0
  9
$DIMDLE
 40
0.0
  9
$DIMEXE
 40
1.0
  9
$DIMTP
 40
0.0
  9
$DIMTM
 40
0.0
  9
$DIMTXT
 40
35.0
  9
$DIMCEN
 40
1.0
  9
$DIMTSZ
 40
0.0
  9
$DIMTOL
 70
     0
  9
$DIMLIM
 70
     0
  9
$DIMTIH
 70
     0
  9
$DIMTOH
 70
     0
  9
$DIMSE1
 70
     0
  9
$DIMSE2
 70
     0
  9
$DIMTAD
 70
     0
  9
$DIMZIN
 70
     0
  9
$DIMBLK
  1

  9
$DIMASO
 70
     1
  9
$DIMSHO
 70
     0
  9
$DIMPOST
  1

  9
$DIMAPOST
  1

  9
$DIMALT
 70
     0
  9
$DIMALTD
 70
     2
  9
$DIMALTF
 40
25.4
  9
$DIMLFAC
 40
1.0
  9
$DIMTOFL
 70
     0
  9
$DIMTVP
 40
0.0
  9
$DIMTIX
 70
     0
  9
$DIMSOXD
 70
     0
  9
$DIMSAH
 70
     0
  9
$DIMBLK1
  1

  9
$DIMBLK2
  1

  9
$DIMSTYLE
  2
TEAM
  9
$DIMCLRD
 70
     9
  9
$DIMCLRE
 70
     9
  9
$DIMCLRT
 70
    11
  9
$DIMTFAC
 40
1.0
  9
$DIMGAP
 40
15.0
  9
$LUNITS
 70
     2
  9
$LUPREC
 70
     1
  9
$SKETCHINC
 40
1.0
  9
$FILLETRAD
 40
50.0
  9
$AUNITS
 70
     0
  9
$AUPREC
 70
     0
  9
$MENU
  1
ROPLANS
  9
$ELEVATION
 40
0.0
  9
$PELEVATION
 40
0.0
  9
$THICKNESS
 40
0.0
  9
$LIMCHECK
 70
     0
  9
$BLIPMODE
 70
     1
  9
$CHAMFERA
 40
0.0
  9
$CHAMFERB
 40
0.0
  9
$SKPOLY
 70
     0
  9
$TDCREATE
 40
2450392.957851
  9
$TDUPDATE
 40
2455505.473099
  9
$TDINDWG
 40
2.023557
  9
$TDUSRTIMER
 40
2.023557
  9
$USRTIMER
 70
     1
  9
$ANGBASE
 50
0.0
  9
$ANGDIR
 70
     0
  9
$PDMODE
 70
     0
  9
$PDSIZE
 40
0.0
  9
$PLINEWID
 40
0.0
  9
$COORDS
 70
     2
  9
$SPLFRAME
 70
     0
  9
$SPLINETYPE
 70
     6
  9
$SPLINESEGS
 70
     8
  9
$ATTDIA
 70
     0
  9
$ATTREQ
 70
     0
  9
$HANDLING
 70
     1
  9
$HANDSEED
  5
5E5
  9
$SURFTAB1
 70
    24
  9
$SURFTAB2
 70
    24
  9
$SURFTYPE
 70
     6
  9
$SURFU
 70
     6
  9
$SURFV
 70
     6
  9
$UCSNAME
  2

  9
$UCSORG
 10
0.0
 20
0.0
 30
0.0
  9
$UCSXDIR
 10
1.0
 20
0.0
 30
0.0
  9
$UCSYDIR
 10
0.0
 20
1.0
 30
0.0
  9
$PUCSNAME
  2

  9
$PUCSORG
 10
0.0
 20
0.0
 30
0.0
  9
$PUCSXDIR
 10
1.0
 20
0.0
 30
0.0
  9
$PUCSYDIR
 10
0.0
 20
1.0
 30
0.0
  9
$USERI1
 70
     0
  9
$USERI2
 70
     0
  9
$USERI3
 70
     0
  9
$USERI4
 70
     0
  9
$USERI5
 70
     0
  9
$USERR1
 40
0.0
  9
$USERR2
 40
0.0
  9
$USERR3
 40
0.0
  9
$USERR4
 40
0.0
  9
$USERR5
 40
0.0
  9
$WORLDVIEW
 70
     1
  9
$SHADEDGE
 70
     0
  9
$SHADEDIF
 70
    70
  9
$TILEMODE
 70
     1
  9
$MAXACTVP
 70
    16
  9
$PLIMCHECK
 70
     0
  9
$PEXTMIN
 10
-0.805942
 20
0.005011
 30
0.0
  9
$PEXTMAX
 10
20.250094
 20
11.356329
 30
0.0
  9
$PLIMMIN
 10
0.0
 20
0.0
  9
$PLIMMAX
 10
12.0
 20
9.0
  9
$UNITMODE
 70
     0
  9
$VISRETAIN
 70
     0
  9
$PLINEGEN
 70
     0
  9
$PSLTSCALE
 70
     0
  0
ENDSEC
  0
SECTION
  2
TABLES
  0
TABLE
  2
VPORT
 70
     2
  0
VPORT
  2
*ACTIVE
 70
     0
 10
0.0
 20
0.0
 11
1.0
 21
1.0
 12
0.000002
 22
-208.512818
 13
0.0
 23
0.0
 14
1.0
 24
1.0
 15
50.0
 25
50.0
 16
0.0
 26
0.0
 36
1.0
 17
0.0
 27
0.0
 37
0.0
 40
441.724126
 41
1.865779
 42
50.0
 43
0.0
 44
0.0
 50
0.0
 51
0.0
 71
     0
 72
   100
 73
     1
 74
     1
 75
     0
 76
     0
 77
     0
 78
     0
  0
ENDTAB
  0
TABLE
  2
LTYPE
 70
     2
  0
LTYPE
  2
CONTINUOUS
 70
     0
  3
Solid Line
 72
    65
 73
     0
 40
0.0
  0
LTYPE
  2
31
 70
     0
  3

 72
    65
 73
     4
 40
2.1
 49
1.5
 49
-0.3
 49
0.0
 49
-0.3
  0
ENDTAB
  0
TABLE
  2
LAYER
 70
     8
  0
LAYER
  2
0
 70
     0
 62
     7
  6
CONTINUOUS
  0
LAYER
  2
TEAM-BODY
 70
     0
 62
     2
  6
CONTINUOUS
  0
LAYER
  2
TEAM-AXE
 70
     0
 62
    10
  6
31
  0
LAYER
  2
TEAM-MAS
 70
     0
 62
     9
  6
CONTINUOUS
  0
LAYER
  2
TEAM-TXT
 70
     0
 62
    11
  6
CONTINUOUS
  0
LAYER
  2
TEAM-DET1
 70
     0
 62
     4
  6
CONTINUOUS
  0
LAYER
  2
TEAM-NET
 70
     0
 62
    15
  6
CONTINUOUS
  0
LAYER
  2
TEAM-INSP
 70
     0
 62
     5
  6
CONTINUOUS
  0
ENDTAB
  0
TABLE
  2
STYLE
 70
     2
  0
STYLE
  2
STANDARD
 70
     0
 40
0.0
 41
1.0
 50
0.0
 71
     0
 42
200.0
  3
txt
  4

  0
STYLE
  2
TEAM
 70
     0
 40
0.0
 41
0.8
 50
15.0
 71
     0
 42
7.0
  3
ROMANS.shx
  4

  0
ENDTAB
  0
TABLE
  2
VIEW
 70
     0
  0
ENDTAB
  0
TABLE
  2
UCS
 70
     0
  0
ENDTAB
  0
TABLE
  2
APPID
 70
     1
  0
APPID
  2
ACAD
 70
     0
  0
ENDTAB
  0
TABLE
  2
DIMSTYLE
 70
     1
  0
DIMSTYLE
  2
TEAM
 70
     0
  3

  4

  5

  6

  7

 40
1.0
 41
20.0
 42
10.0
 43
1.0
 44
1.0
 45
0.0
 46
0.0
 47
0.0
 48
0.0
140
35.0
141
1.0
142
0.0
143
25.4
144
1.0
145
0.0
146
1.0
147
15.0
 71
     0
 72
     0
 73
     0
 74
     0
 75
     0
 76
     0
 77
     0
 78
     0
170
     0
171
     2
172
     0
173
     0
174
     0
175
     0
176
     9
177
     9
178
    11
  0
ENDTAB
  0
ENDSEC
  0
SECTION
  2
BLOCKS
  0
BLOCK
  8
0
  2
$MODEL_SPACE
 70
     0
 10
0.0
 20
0.0
 30
0.0
  3
$MODEL_SPACE
  1

  0
ENDBLK
  5
5DE
  8
0
  0
BLOCK
 67
     1
  8
0
  2
$PAPER_SPACE
 70
     0
 10
0.0
 20
0.0
 30
0.0
  3
$PAPER_SPACE
  1

  0
ENDBLK
  5
5DC
 67
     1
  8
0
  0
ENDSEC
  0
SECTION
  2
ENTITIES
  0
CIRCLE
  5
20
  8
TEAM-INSP
 10
0.0
 20
0.0
 30
0.0
 40
10.974359
  0
POLYLINE
  5
22
  8
TEAM-NET
 66
     1
 10
0.0
 20
0.0
 30
0.0
 70
    16
 71
    25
 72
    25
  0
VERTEX
  5
23
  8
TEAM-NET
 10
0.0
 20
-428.0
 30
850.0
 70
    64
  0
VERTEX
  5
24
  8
TEAM-NET
 10
27.932605
 20
-426.1692
 30
850.0
 70
    64
  0
VERTEX
  5
25
  8
TEAM-NET
 10
55.387276
 20
-420.708127
 30
850.0
 70
    64
  0
VERTEX
  5
26
  8
TEAM-NET
 10
81.894255
 20
-411.71022
 30
850.0
 70
    64
  0
VERTEX
  5
27
  8
TEAM-NET
 10
107.0
 20
-399.329436
 30
850.0
 70
    64
  0
VERTEX
  5
28
  8
TEAM-NET
 10
130.274946
 20
-383.777615
 30
850.0
 70
    64
  0
VERTEX
  5
29
  8
TEAM-NET
 10
151.320851
 20
-365.320851
 30
850.0
 70
    64
  0
VERTEX
  5
2A
  8
TEAM-NET
 10
169.777615
 20
-344.274946
 30
850.0
 70
    64
  0
VERTEX
  5
2B
  8
TEAM-NET
 10
185.329436
 20
-321.0
 30
850.0
 70
    64
  0
VERTEX
  5
2C
  8
TEAM-NET
 10
197.71022
 20
-295.894255
 30
850.0
 70
    64
  0
VERTEX
  5
2D
  8
TEAM-NET
 10
206.708127
 20
-269.387276
 30
850.0
 70
    64
  0
VERTEX
  5
2E
  8
TEAM-NET
 10
212.1692
 20
-241.932605
 30
850.0
 70
    64
  0
VERTEX
  5
2F
  8
TEAM-NET
 10
214.0
 20
-214.0
 30
850.0
 70
    64
  0
VERTEX
  5
30
  8
TEAM-NET
 10
212.1692
 20
-186.067395
 30
850.0
 70
    64
  0
VERTEX
  5
31
  8
TEAM-NET
 10
206.708127
 20
-158.612724
 30
850.0
 70
    64
  0
VERTEX
  5
32
  8
TEAM-NET
 10
197.71022
 20
-132.105745
 30
850.0
 70
    64
  0
VERTEX
  5
33
  8
TEAM-NET
 10
185.329436
 20
-107.0
 30
850.0
 70
    64
  0
VERTEX
  5
34
  8
TEAM-NET
 10
169.777615
 20
-83.725054
 30
850.0
 70
    64
  0
VERTEX
  5
35
  8
TEAM-NET
 10
151.320851
 20
-62.679149
 30
850.0
 70
    64
  0
VERTEX
  5
36
  8
TEAM-NET
 10
130.274946
 20
-44.222385
 30
850.0
 70
    64
  0
VERTEX
  5
37
  8
TEAM-NET
 10
107.0
 20
-28.670564
 30
850.0
 70
    64
  0
VERTEX
  5
38
  8
TEAM-NET
 10
81.894255
 20
-16.28978
 30
850.0
 70
    64
  0
VERTEX
  5
39
  8
TEAM-NET
 10
55.387276
 20
-7.291873
 30
850.0
 70
    64
  0
VERTEX
  5
3A
  8
TEAM-NET
 10
27.932605
 20
-1.8308
 30
850.0
 70
    64
  0
VERTEX
  5
3B
  8
TEAM-NET
 10
0.0
 20
0.0
 30
850.0
 70
    64
  0
VERTEX
  5
3C
  8
TEAM-NET
 10
0.0
 20
-428.0
 30
850.0
 70
    64
  0
VERTEX
  5
3D
  8
TEAM-NET
 10
27.693638
 20
-426.1692
 30
846.354063
 70
    64
  0
VERTEX
  5
3E
  8
TEAM-NET
 10
54.91343
 20
-420.708127
 30
842.77051
 70
    64
  0
VERTEX
  5
3F
  8
TEAM-NET
 10
81.193638
 20
-411.71022
 30
839.310655
 70
    64
  0
VERTEX
  5
40
  8
TEAM-NET
 10
106.0846
 20
-399.329436
 30
836.033697
 70
    64
  0
VERTEX
  5
41
  8
TEAM-NET
 10
129.160426
 20
-383.777615
 30
832.995707
 70
    64
  0
VERTEX
  5
42
  8
TEAM-NET
 10
150.02628
 20
-365.320851
 30
830.248665
 70
    64
  0
VERTEX
  5
43
  8
TEAM-NET
 10
168.325144
 20
-344.274946
 30
827.839574
 70
    64
  0
VERTEX
  5
44
  8
TEAM-NET
 10
183.743917
 20
-321.0
 30
825.809654
 70
    64
  0
VERTEX
  5
45
  8
TEAM-NET
 10
196.018782
 20
-295.894255
 30
824.193638
 70
    64
  0
VERTEX
  5
46
  8
TEAM-NET
 10
204.93971
 20
-269.387276
 30
823.019175
 70
    64
  0
VERTEX
  5
47
  8
TEAM-NET
 10
210.354063
 20
-241.932605
 30
822.306362
 70
    64
  0
VERTEX
  5
48
  8
TEAM-NET
 10
212.1692
 20
-214.0
 30
822.067395
 70
    64
  0
VERTEX
  5
49
  8
TEAM-NET
 10
210.354063
 20
-186.067395
 30
822.306362
 70
    64
  0
VERTEX
  5
4A
  8
TEAM-NET
 10
204.93971
 20
-158.612724
 30
823.019175
 70
    64
  0
VERTEX
  5
4B
  8
TEAM-NET
 10
196.018782
 20
-132.105745
 30
824.193638
 70
    64
  0
VERTEX
  5
4C
  8
TEAM-NET
 10
183.743917
 20
-107.0
 30
825.809654
 70
    64
  0
VERTEX
  5
4D
  8
TEAM-NET
 10
168.325144
 20
-83.725054
 30
827.839574
 70
    64
  0
VERTEX
  5
4E
  8
TEAM-NET
 10
150.02628
 20
-62.679149
 30
830.248665
 70
    64
  0
VERTEX
  5
4F
  8
TEAM-NET
 10
129.160426
 20
-44.222385
 30
832.995707
 70
    64
  0
VERTEX
  5
50
  8
TEAM-NET
 10
106.0846
 20
-28.670564
 30
836.033697
 70
    64
  0
VERTEX
  5
51
  8
TEAM-NET
 10
81.193638
 20
-16.28978
 30
839.310655
 70
    64
  0
VERTEX
  5
52
  8
TEAM-NET
 10
54.91343
 20
-7.291873
 30
842.77051
 70
    64
  0
VERTEX
  5
53
  8
TEAM-NET
 10
27.693638
 20
-1.8308
 30
846.354063
 70
    64
  0
VERTEX
  5
54
  8
TEAM-NET
 10
0.0
 20
0.0
 30
850.0
 70
    64
  0
VERTEX
  5
55
  8
TEAM-NET
 10
0.0
 20
-428.0
 30
850.0
 70
    64
  0
VERTEX
  5
56
  8
TEAM-NET
 10
26.980825
 20
-426.1692
 30
842.77051
 70
    64
  0
VERTEX
  5
57
  8
TEAM-NET
 10
53.5
 20
-420.708127
 30
835.664718
 70
    64
  0
VERTEX
  5
58
  8
TEAM-NET
 10
79.103775
 20
-411.71022
 30
828.804207
 70
    64
  0
VERTEX
  5
59
  8
TEAM-NET
 10
103.354063
 20
-399.329436
 30
822.306362
 70
    64
  0
VERTEX
  5
5A
  8
TEAM-NET
 10
125.835935
 20
-383.777615
 30
816.282363
 70
    64
  0
VERTEX
  5
5B
  8
TEAM-NET
 10
146.164718
 20
-365.320851
 30
810.835282
 70
    64
  0
VERTEX
  5
5C
  8
TEAM-NET
 10
163.992583
 20
-344.274946
 30
806.05832
 70
    64
  0
VERTEX
  5
5D
  8
TEAM-NET
 10
179.014489
 20
-321.0
 30
802.033212
 70
    64
  0
VERTEX
  5
5E
  8
TEAM-NET
 10
190.973408
 20
-295.894255
 30
798.82883
 70
    64
  0
VERTEX
  5
5F
  8
TEAM-NET
 10
199.664718
 20
-269.387276
 30
796.5
 70
    64
  0
VERTEX
  5
60
  8
TEAM-NET
 10
204.93971
 20
-241.932605
 30
795.08657
 70
    64
  0
VERTEX
  5
61
  8
TEAM-NET
 10
206.708127
 20
-214.0
 30
794.612724
 70
    64
  0
VERTEX
  5
62
  8
TEAM-NET
 10
204.93971
 20
-186.067395
 30
795.08657
 70
    64
  0
VERTEX
  5
63
  8
TEAM-NET
 10
199.664718
 20
-158.612724
 30
796.5
 70
    64
  0
VERTEX
  5
64
  8
TEAM-NET
 10
190.973408
 20
-132.105745
 30
798.82883
 70
    64
  0
VERTEX
  5
65
  8
TEAM-NET
 10
179.014489
 20
-107.0
 30
802.033212
 70
    64
  0
VERTEX
  5
66
  8
TEAM-NET
 10
163.992583
 20
-83.725054
 30
806.05832
 70
    64
  0
VERTEX
  5
67
  8
TEAM-NET
 10
146.164718
 20
-62.679149
 30
810.835282
 70
    64
  0
VERTEX
  5
68
  8
TEAM-NET
 10
125.835935
 20
-44.222385
 30
816.282363
 70
    64
  0
VERTEX
  5
69
  8
TEAM-NET
 10
103.354063
 20
-28.670564
 30
822.306362
 70
    64
  0
VERTEX
  5
6A
  8
TEAM-NET
 10
79.103775
 20
-16.28978
 30
828.804207
 70
    64
  0
VERTEX
  5
6B
  8
TEAM-NET
 10
53.5
 20
-7.291873
 30
835.664718
 70
    64
  0
VERTEX
  5
6C
  8
TEAM-NET
 10
26.980825
 20
-1.8308
 30
842.77051
 70
    64
  0
VERTEX
  5
6D
  8
TEAM-NET
 10
0.0
 20
0.0
 30
850.0
 70
    64
  0
VERTEX
  5
6E
  8
TEAM-NET
 10
0.0
 20
-428.0
 30
850.0
 70
    64
  0
VERTEX
  5
6F
  8
TEAM-NET
 10
25.806362
 20
-426.1692
 30
839.310655
 70
    64
  0
VERTEX
  5
70
  8
TEAM-NET
 10
51.17117
 20
-420.708127
 30
828.804207
 70
    64
  0
VERTEX
  5
71
  8
TEAM-NET
 10
75.660426
 20
-411.71022
 30
818.660426
 70
    64
  0
VERTEX
  5
72
  8
TEAM-NET
 10
98.85511
 20
-399.329436
 30
809.052873
 70
    64
  0
VERTEX
  5
73
  8
TEAM-NET
 10
120.358356
 20
-383.777615
 30
800.145937
 70
    64
  0
VERTEX
  5
74
  8
TEAM-NET
 10
139.802237
 20
-365.320851
 30
792.092017
 70
    64
  0
VERTEX
  5
75
  8
TEAM-NET
 10
156.854063
 20
-344.274946
 30
785.02892
 70
    64
  0
VERTEX
  5
76
  8
TEAM-NET
 10
171.222073
 20
-321.0
 30
779.077495
 70
    64
  0
VERTEX
  5
77
  8
TEAM-NET
 10
182.660426
 20
-295.894255
 30
774.339574
 70
    64
  0
VERTEX
  5
78
  8
TEAM-NET
 10
190.973408
 20
-269.387276
 30
770.896225
 70
    64
  0
VERTEX
  5
79
  8
TEAM-NET
 10
196.018782
 20
-241.932605
 30
768.806362
 70
    64
  0
VERTEX
  5
7A
  8
TEAM-NET
 10
197.71022
 20
-214.0
 30
768.105745
 70
    64
  0
VERTEX
  5
7B
  8
TEAM-NET
 10
196.018782
 20
-186.067395
 30
768.806362
 70
    64
  0
VERTEX
  5
7C
  8
TEAM-NET
 10
190.973408
 20
-158.612724
 30
770.896225
 70
    64
  0
VERTEX
  5
7D
  8
TEAM-NET
 10
182.660426
 20
-132.105745
 30
774.339574
 70
    64
  0
VERTEX
  5
7E
  8
TEAM-NET
 10
171.222073
 20
-107.0
 30
779.077495
 70
    64
  0
VERTEX
  5
7F
  8
TEAM-NET
 10
156.854063
 20
-83.725054
 30
785.02892
 70
    64
  0
VERTEX
  5
80
  8
TEAM-NET
 10
139.802237
 20
-62.679149
 30
792.092017
 70
    64
  0
VERTEX
  5
81
  8
TEAM-NET
 10
120.358356
 20
-44.222385
 30
800.145937
 70
    64
  0
VERTEX
  5
82
  8
TEAM-NET
 10
98.85511
 20
-28.670564
 30
809.052873
 70
    64
  0
VERTEX
  5
83
  8
TEAM-NET
 10
75.660426
 20
-16.28978
 30
818.660426
 70
    64
  0
VERTEX
  5
84
  8
TEAM-NET
 10
51.17117
 20
-7.291873
 30
828.804207
 70
    64
  0
VERTEX
  5
85
  8
TEAM-NET
 10
25.806362
 20
-1.8308
 30
839.310655
 70
    64
  0
VERTEX
  5
86
  8
TEAM-NET
 10
0.0
 20
0.0
 30
850.0
 70
    64
  0
VERTEX
  5
87
  8
TEAM-NET
 10
0.0
 20
-428.0
 30
850.0
 70
    64
  0
VERTEX
  5
88
  8
TEAM-NET
 10
24.190346
 20
-426.1692
 30
836.033697
 70
    64
  0
VERTEX
  5
89
  8
TEAM-NET
 10
47.966788
 20
-420.708127
 30
822.306362
 70
    64
  0
VERTEX
  5
8A
  8
TEAM-NET
 10
70.922505
 20
-411.71022
 30
809.052873
 70
    64
  0
VERTEX
  5
8B
  8
TEAM-NET
 10
92.664718
 20
-399.329436
 30
796.5
 70
    64
  0
VERTEX
  5
8C
  8
TEAM-NET
 10
112.821413
 20
-383.777615
 30
784.862527
 70
    64
  0
VERTEX
  5
8D
  8
TEAM-NET
 10
131.047701
 20
-365.320851
 30
774.339574
 70
    64
  0
VERTEX
  5
8E
  8
TEAM-NET
 10
147.031727
 20
-344.274946
 30
765.111193
 70
    64
  0
VERTEX
  5
8F
  8
TEAM-NET
 10
160.5
 20
-321.0
 30
757.335282
 70
    64
  0
VERTEX
  5
90
  8
TEAM-NET
 10
171.222073
 20
-295.894255
 30
751.14489
 70
    64
  0
VERTEX
  5
91
  8
TEAM-NET
 10
179.014489
 20
-269.387276
 30
746.645937
 70
    64
  0
VERTEX
  5
92
  8
TEAM-NET
 10
183.743917
 20
-241.932605
 30
743.9154
 70
    64
  0
VERTEX
  5
93
  8
TEAM-NET
 10
185.329436
 20
-214.0
 30
743.0
 70
    64
  0
VERTEX
  5
94
  8
TEAM-NET
 10
183.743917
 20
-186.067395
 30
743.9154
 70
    64
  0
VERTEX
  5
95
  8
TEAM-NET
 10
179.014489
 20
-158.612724
 30
746.645937
 70
    64
  0
VERTEX
  5
96
  8
TEAM-NET
 10
171.222073
 20
-132.105745
 30
751.14489
 70
    64
  0
VERTEX
  5
97
  8
TEAM-NET
 10
160.5
 20
-107.0
 30
757.335282
 70
    64
  0
VERTEX
  5
98
  8
TEAM-NET
 10
147.031727
 20
-83.725054
 30
765.111193
 70
    64
  0
VERTEX
  5
99
  8
TEAM-NET
 10
131.047701
 20
-62.679149
 30
774.339574
 70
    64
  0
VERTEX
  5
9A
  8
TEAM-NET
 10
112.821413
 20
-44.222385
 30
784.862527
 70
    64
  0
VERTEX
  5
9B
  8
TEAM-NET
 10
92.664718
 20
-28.670564
 30
796.5
 70
    64
  0
VERTEX
  5
9C
  8
TEAM-NET
 10
70.922505
 20
-16.28978
 30
809.052873
 70
    64
  0
VERTEX
  5
9D
  8
TEAM-NET
 10
47.966788
 20
-7.291873
 30
822.306362
 70
    64
  0
VERTEX
  5
9E
  8
TEAM-NET
 10
24.190346
 20
-1.8308
 30
836.033697
 70
    64
  0
VERTEX
  5
9F
  8
TEAM-NET
 10
0.0
 20
0.0
 30
850.0
 70
    64
  0
VERTEX
  5
A0
  8
TEAM-NET
 10
0.0
 20
-428.0
 30
850.0
 70
    64
  0
VERTEX
  5
A1
  8
TEAM-NET
 10
22.160426
 20
-426.1692
 30
832.995707
 70
    64
  0
VERTEX
  5
A2
  8
TEAM-NET
 10
43.94168
 20
-420.708127
 30
816.282363
 70
    64
  0
VERTEX
  5
A3
  8
TEAM-NET
 10
64.97108
 20
-411.71022
 30
800.145937
 70
    64
  0
VERTEX
  5
A4
  8
TEAM-NET
 10
84.888807
 20
-399.329436
 30
784.862527
 70
    64
  0
VERTEX
  5
A5
  8
TEAM-NET
 10
103.354063
 20
-383.777615
 30
770.693638
 70
    64
  0
VERTEX
  5
A6
  8
TEAM-NET
 10
120.050903
 20
-365.320851
 30
757.881702
 70
    64
  0
VERTEX
  5
A7
  8
TEAM-NET
 10
134.693638
 20
-344.274946
 30
746.645937
 70
    64
  0
VERTEX
  5
A8
  8
TEAM-NET
 10
147.031727
 20
-321.0
 30
737.178587
 70
    64
  0
VERTEX
  5
A9
  8
TEAM-NET
 10
156.854063
 20
-295.894255
 30
729.641644
 70
    64
  0
VERTEX
  5
AA
  8
TEAM-NET
 10
163.992583
 20
-269.387276
 30
724.164065
 70
    64
  0
VERTEX
  5
AB
  8
TEAM-NET
 10
168.325144
 20
-241.932605
 30
720.839574
 70
    64
  0
VERTEX
  5
AC
  8
TEAM-NET
 10
169.777615
 20
-214.0
 30
719.725054
 70
    64
  0
VERTEX
  5
AD
  8
TEAM-NET
 10
168.325144
 20
-186.067395
 30
720.839574
 70
    64
  0
VERTEX
  5
AE
  8
TEAM-NET
 10
163.992583
 20
-158.612724
 30
724.164065
 70
    64
  0
VERTEX
  5
AF
  8
TEAM-NET
 10
156.854063
 20
-132.105745
 30
729.641644
 70
    64
  0
VERTEX
  5
B0
  8
TEAM-NET
 10
147.031727
 20
-107.0
 30
737.178587
 70
    64
  0
VERTEX
  5
B1
  8
TEAM-NET
 10
134.693638
 20
-83.725054
 30
746.645937
 70
    64
  0
VERTEX
  5
B2
  8
TEAM-NET
 10
120.050903
 20
-62.679149
 30
757.881702
 70
    64
  0
VERTEX
  5
B3
  8
TEAM-NET
 10
103.354063
 20
-44.222385
 30
770.693638
 70
    64
  0
VERTEX
  5
B4
  8
TEAM-NET
 10
84.888807
 20
-28.670564
 30
784.862527
 70
    64
  0
VERTEX
  5
B5
  8
TEAM-NET
 10
64.97108
 20
-16.28978
 30
800.145937
 70
    64
  0
VERTEX
  5
B6
  8
TEAM-NET
 10
43.94168
 20
-7.291873
 30
816.282363
 70
    64
  0
VERTEX
  5
B7
  8
TEAM-NET
 10
22.160426
 20
-1.8308
 30
832.995707
 70
    64
  0
VERTEX
  5
B8
  8
TEAM-NET
 10
0.0
 20
0.0
 30
850.0
 70
    64
  0
VERTEX
  5
B9
  8
TEAM-NET
 10
0.0
 20
-428.0
 30
850.0
 70
    64
  0
VERTEX
  5
BA
  8
TEAM-NET
 10
19.751335
 20
-426.1692
 30
830.248665
 70
    64
  0
VERTEX
  5
BB
  8
TEAM-NET
 10
39.164718
 20
-420.708127
 30
810.835282
 70
    64
  0
VERTEX
  5
BC
  8
TEAM-NET
 10
57.907983
 20
-411.71022
 30
792.092017
 70
    64
  0
VERTEX
  5
BD
  8
TEAM-NET
 10
75.660426
 20
-399.329436
 30
774.339574
 70
    64
  0
VERTEX
  5
BE
  8
TEAM-NET
 10
92.118298
 20
-383.777615
 30
757.881702
 70
    64
  0
VERTEX
  5
BF
  8
TEAM-NET
 10
107.0
 20
-365.320851
 30
743.0
 70
    64
  0
VERTEX
  5
C0
  8
TEAM-NET
 10
120.050903
 20
-344.274946
 30
729.949097
 70
    64
  0
VERTEX
  5
C1
  8
TEAM-NET
 10
131.047701
 20
-321.0
 30
718.952299
 70
    64
  0
VERTEX
  5
C2
  8
TEAM-NET
 10
139.802237
 20
-295.894255
 30
710.197763
 70
    64
  0
VERTEX
  5
C3
  8
TEAM-NET
 10
146.164718
 20
-269.387276
 30
703.835282
 70
    64
  0
VERTEX
  5
C4
  8
TEAM-NET
 10
150.02628
 20
-241.932605
 30
699.97372
 70
    64
  0
VERTEX
  5
C5
  8
TEAM-NET
 10
151.320851
 20
-214.0
 30
698.679149
 70
    64
  0
VERTEX
  5
C6
  8
TEAM-NET
 10
150.02628
 20
-186.067395
 30
699.97372
 70
    64
  0
VERTEX
  5
C7
  8
TEAM-NET
 10
146.164718
 20
-158.612724
 30
703.835282
 70
    64
  0
VERTEX
  5
C8
  8
TEAM-NET
 10
139.802237
 20
-132.105745
 30
710.197763
 70
    64
  0
VERTEX
  5
C9
  8
TEAM-NET
 10
131.047701
 20
-107.0
 30
718.952299
 70
    64
  0
VERTEX
  5
CA
  8
TEAM-NET
 10
120.050903
 20
-83.725054
 30
729.949097
 70
    64
  0
VERTEX
  5
CB
  8
TEAM-NET
 10
107.0
 20
-62.679149
 30
743.0
 70
    64
  0
VERTEX
  5
CC
  8
TEAM-NET
 10
92.118298
 20
-44.222385
 30
757.881702
 70
    64
  0
VERTEX
  5
CD
  8
TEAM-NET
 10
75.660426
 20
-28.670564
 30
774.339574
 70
    64
  0
VERTEX
  5
CE
  8
TEAM-NET
 10
57.907983
 20
-16.28978
 30
792.092017
 70
    64
  0
VERTEX
  5
CF
  8
TEAM-NET
 10
39.164718
 20
-7.291873
 30
810.835282
 70
    64
  0
VERTEX
  5
D0
  8
TEAM-NET
 10
19.751335
 20
-1.8308
 30
830.248665
 70
    64
  0
VERTEX
  5
D1
  8
TEAM-NET
 10
0.0
 20
0.0
 30
850.0
 70
    64
  0
VERTEX
  5
D2
  8
TEAM-NET
 10
0.0
 20
-428.0
 30
850.0
 70
    64
  0
VERTEX
  5
D3
  8
TEAM-NET
 10
17.004293
 20
-426.1692
 30
827.839574
 70
    64
  0
VERTEX
  5
D4
  8
TEAM-NET
 10
33.717637
 20
-420.708127
 30
806.05832
 70
    64
  0
VERTEX
  5
D5
  8
TEAM-NET
 10
49.854063
 20
-411.71022
 30
785.02892
 70
    64
  0
VERTEX
  5
D6
  8
TEAM-NET
 10
65.137473
 20
-399.329436
 30
765.111193
 70
    64
  0
VERTEX
  5
D7
  8
TEAM-NET
 10
79.306362
 20
-383.777615
 30
746.645937
 70
    64
  0
VERTEX
  5
D8
  8
TEAM-NET
 10
92.118298
 20
-365.320851
 30
729.949097
 70
    64
  0
VERTEX
  5
D9
  8
TEAM-NET
 10
103.354063
 20
-344.274946
 30
715.306362
 70
    64
  0
VERTEX
  5
DA
  8
TEAM-NET
 10
112.821413
 20
-321.0
 30
702.968273
 70
    64
  0
VERTEX
  5
DB
  8
TEAM-NET
 10
120.358356
 20
-295.894255
 30
693.145937
 70
    64
  0
VERTEX
  5
DC
  8
TEAM-NET
 10
125.835935
 20
-269.387276
 30
686.007417
 70
    64
  0
VERTEX
  5
DD
  8
TEAM-NET
 10
129.160426
 20
-241.932605
 30
681.674856
 70
    64
  0
VERTEX
  5
DE
  8
TEAM-NET
 10
130.274946
 20
-214.0
 30
680.222385
 70
    64
  0
VERTEX
  5
DF
  8
TEAM-NET
 10
129.160426
 20
-186.067395
 30
681.674856
 70
    64
  0
VERTEX
  5
E0
  8
TEAM-NET
 10
125.835935
 20
-158.612724
 30
686.007417
 70
    64
  0
VERTEX
  5
E1
  8
TEAM-NET
 10
120.358356
 20
-132.105745
 30
693.145937
 70
    64
  0
VERTEX
  5
E2
  8
TEAM-NET
 10
112.821413
 20
-107.0
 30
702.968273
 70
    64
  0
VERTEX
  5
E3
  8
TEAM-NET
 10
103.354063
 20
-83.725054
 30
715.306362
 70
    64
  0
VERTEX
  5
E4
  8
TEAM-NET
 10
92.118298
 20
-62.679149
 30
729.949097
 70
    64
  0
VERTEX
  5
E5
  8
TEAM-NET
 10
79.306362
 20
-44.222385
 30
746.645937
 70
    64
  0
VERTEX
  5
E6
  8
TEAM-NET
 10
65.137473
 20
-28.670564
 30
765.111193
 70
    64
  0
VERTEX
  5
E7
  8
TEAM-NET
 10
49.854063
 20
-16.28978
 30
785.02892
 70
    64
  0
VERTEX
  5
E8
  8
TEAM-NET
 10
33.717637
 20
-7.291873
 30
806.05832
 70
    64
  0
VERTEX
  5
E9
  8
TEAM-NET
 10
17.004293
 20
-1.8308
 30
827.839574
 70
    64
  0
VERTEX
  5
EA
  8
TEAM-NET
 10
0.0
 20
0.0
 30
850.0
 70
    64
  0
VERTEX
  5
EB
  8
TEAM-NET
 10
0.0
 20
-428.0
 30
850.0
 70
    64
  0
VERTEX
  5
EC
  8
TEAM-NET
 10
13.966303
 20
-426.1692
 30
825.809654
 70
    64
  0
VERTEX
  5
ED
  8
TEAM-NET
 10
27.693638
 20
-420.708127
 30
802.033212
 70
    64
  0
VERTEX
  5
EE
  8
TEAM-NET
 10
40.947127
 20
-411.71022
 30
779.077495
 70
    64
  0
VERTEX
  5
EF
  8
TEAM-NET
 10
53.5
 20
-399.329436
 30
757.335282
 70
    64
  0
VERTEX
  5
F0
  8
TEAM-NET
 10
65.137473
 20
-383.777615
 30
737.178587
 70
    64
  0
VERTEX
  5
F1
  8
TEAM-NET
 10
75.660426
 20
-365.320851
 30
718.952299
 70
    64
  0
VERTEX
  5
F2
  8
TEAM-NET
 10
84.888807
 20
-344.274946
 30
702.968273
 70
    64
  0
VERTEX
  5
F3
  8
TEAM-NET
 10
92.664718
 20
-321.0
 30
689.5
 70
    64
  0
VERTEX
  5
F4
  8
TEAM-NET
 10
98.85511
 20
-295.894255
 30
678.777927
 70
    64
  0
VERTEX
  5
F5
  8
TEAM-NET
 10
103.354063
 20
-269.387276
 30
670.985511
 70
    64
  0
VERTEX
  5
F6
  8
TEAM-NET
 10
106.0846
 20
-241.932605
 30
666.256083
 70
    64
  0
VERTEX
  5
F7
  8
TEAM-NET
 10
107.0
 20
-214.0
 30
664.670564
 70
    64
  0
VERTEX
  5
F8
  8
TEAM-NET
 10
106.0846
 20
-186.067395
 30
666.256083
 70
    64
  0
VERTEX
  5
F9
  8
TEAM-NET
 10
103.354063
 20
-158.612724
 30
670.985511
 70
    64
  0
VERTEX
  5
FA
  8
TEAM-NET
 10
98.85511
 20
-132.105745
 30
678.777927
 70
    64
  0
VERTEX
  5
FB
  8
TEAM-NET
 10
92.664718
 20
-107.0
 30
689.5
 70
    64
  0
VERTEX
  5
FC
  8
TEAM-NET
 10
84.888807
 20
-83.725054
 30
702.968273
 70
    64
  0
VERTEX
  5
FD
  8
TEAM-NET
 10
75.660426
 20
-62.679149
 30
718.952299
 70
    64
  0
VERTEX
  5
FE
  8
TEAM-NET
 10
65.137473
 20
-44.222385
 30
737.178587
 70
    64
  0
VERTEX
  5
FF
  8
TEAM-NET
 10
53.5
 20
-28.670564
 30
757.335282
 70
    64
  0
VERTEX
  5
100
  8
TEAM-NET
 10
40.947127
 20
-16.28978
 30
779.077495
 70
    64
  0
VERTEX
  5
101
  8
TEAM-NET
 10
27.693638
 20
-7.291873
 30
802.033212
 70
    64
  0
VERTEX
  5
102
  8
TEAM-NET
 10
13.966303
 20
-1.8308
 30
825.809654
 70
    64
  0
VERTEX
  5
103
  8
TEAM-NET
 10
0.0
 20
0.0
 30
850.0
 70
    64
  0
VERTEX
  5
104
  8
TEAM-NET
 10
0.0
 20
-428.0
 30
850.0
 70
    64
  0
VERTEX
  5
105
  8
TEAM-NET
 10
10.689345
 20
-426.1692
 30
824.193638
 70
    64
  0
VERTEX
  5
106
  8
TEAM-NET
 10
21.195793
 20
-420.708127
 30
798.82883
 70
    64
  0
VERTEX
  5
107
  8
TEAM-NET
 10
31.339574
 20
-411.71022
 30
774.339574
 70
    64
  0
VERTEX
  5
108
  8
TEAM-NET
 10
40.947127
 20
-399.329436
 30
751.14489
 70
    64
  0
VERTEX
  5
109
  8
TEAM-NET
 10
49.854063
 20
-383.777615
 30
729.641644
 70
    64
  0
VERTEX
  5
10A
  8
TEAM-NET
 10
57.907983
 20
-365.320851
 30
710.197763
 70
    64
  0
VERTEX
  5
10B
  8
TEAM-NET
 10
64.97108
 20
-344.274946
 30
693.145937
 70
    64
  0
VERTEX
  5
10C
  8
TEAM-NET
 10
70.922505
 20
-321.0
 30
678.777927
 70
    64
  0
VERTEX
  5
10D
  8
TEAM-NET
 10
75.660426
 20
-295.894255
 30
667.339574
 70
    64
  0
VERTEX
  5
10E
  8
TEAM-NET
 10
79.103775
 20
-269.387276
 30
659.026592
 70
    64
  0
VERTEX
  5
10F
  8
TEAM-NET
 10
81.193638
 20
-241.932605
 30
653.981218
 70
    64
  0
VERTEX
  5
110
  8
TEAM-NET
 10
81.894255
 20
-214.0
 30
652.28978
 70
    64
  0
VERTEX
  5
111
  8
TEAM-NET
 10
81.193638
 20
-186.067395
 30
653.981218
 70
    64
  0
VERTEX
  5
112
  8
TEAM-NET
 10
79.103775
 20
-158.612724
 30
659.026592
 70
    64
  0
VERTEX
  5
113
  8
TEAM-NET
 10
75.660426
 20
-132.105745
 30
667.339574
 70
    64
  0
VERTEX
  5
114
  8
TEAM-NET
 10
70.922505
 20
-107.0
 30
678.777927
 70
    64
  0
VERTEX
  5
115
  8
TEAM-NET
 10
64.97108
 20
-83.725054
 30
693.145937
 70
    64
  0
VERTEX
  5
116
  8
TEAM-NET
 10
57.907983
 20
-62.679149
 30
710.197763
 70
    64
  0
VERTEX
  5
117
  8
TEAM-NET
 10
49.854063
 20
-44.222385
 30
729.641644
 70
    64
  0
VERTEX
  5
118
  8
TEAM-NET
 10
40.947127
 20
-28.670564
 30
751.14489
 70
    64
  0
VERTEX
  5
119
  8
TEAM-NET
 10
31.339574
 20
-16.28978
 30
774.339574
 70
    64
  0
VERTEX
  5
11A
  8
TEAM-NET
 10
21.195793
 20
-7.291873
 30
798.82883
 70
    64
  0
VERTEX
  5
11B
  8
TEAM-NET
 10
10.689345
 20
-1.8308
 30
824.193638
 70
    64
  0
VERTEX
  5
11C
  8
TEAM-NET
 10
0.0
 20
0.0
 30
850.0
 70
    64
  0
VERTEX
  5
11D
  8
TEAM-NET
 10
0.0
 20
-428.0
 30
850.0
 70
    64
  0
VERTEX
  5
11E
  8
TEAM-NET
 10
7.22949
 20
-426.1692
 30
823.019175
 70
    64
  0
VERTEX
  5
11F
  8
TEAM-NET
 10
14.335282
 20
-420.708127
 30
796.5
 70
    64
  0
VERTEX
  5
120
  8
TEAM-NET
 10
21.195793
 20
-411.71022
 30
770.896225
 70
    64
  0
VERTEX
  5
121
  8
TEAM-NET
 10
27.693638
 20
-399.329436
 30
746.645937
 70
    64
  0
VERTEX
  5
122
  8
TEAM-NET
 10
33.717637
 20
-383.777615
 30
724.164065
 70
    64
  0
VERTEX
  5
123
  8
TEAM-NET
 10
39.164718
 20
-365.320851
 30
703.835282
 70
    64
  0
VERTEX
  5
124
  8
TEAM-NET
 10
43.94168
 20
-344.274946
 30
686.007417
 70
    64
  0
VERTEX
  5
125
  8
TEAM-NET
 10
47.966788
 20
-321.0
 30
670.985511
 70
    64
  0
VERTEX
  5
126
  8
TEAM-NET
 10
51.17117
 20
-295.894255
 30
659.026592
 70
    64
  0
VERTEX
  5
127
  8
TEAM-NET
 10
53.5
 20
-269.387276
 30
650.335282
 70
    64
  0
VERTEX
  5
128
  8
TEAM-NET
 10
54.91343
 20
-241.932605
 30
645.06029
 70
    64
  0
VERTEX
  5
129
  8
TEAM-NET
 10
55.387276
 20
-214.0
 30
643.291873
 70
    64
  0
VERTEX
  5
12A
  8
TEAM-NET
 10
54.91343
 20
-186.067395
 30
645.06029
 70
    64
  0
VERTEX
  5
12B
  8
TEAM-NET
 10
53.5
 20
-158.612724
 30
650.335282
 70
    64
  0
VERTEX
  5
12C
  8
TEAM-NET
 10
51.17117
 20
-132.105745
 30
659.026592
 70
    64
  0
VERTEX
  5
12D
  8
TEAM-NET
 10
47.966788
 20
-107.0
 30
670.985511
 70
    64
  0
VERTEX
  5
12E
  8
TEAM-NET
 10
43.94168
 20
-83.725054
 30
686.007417
 70
    64
  0
VERTEX
  5
12F
  8
TEAM-NET
 10
39.164718
 20
-62.679149
 30
703.835282
 70
    64
  0
VERTEX
  5
130
  8
TEAM-NET
 10
33.717637
 20
-44.222385
 30
724.164065
 70
    64
  0
VERTEX
  5
131
  8
TEAM-NET
 10
27.693638
 20
-28.670564
 30
746.645937
 70
    64
  0
VERTEX
  5
132
  8
TEAM-NET
 10
21.195793
 20
-16.28978
 30
770.896225
 70
    64
  0
VERTEX
  5
133
  8
TEAM-NET
 10
14.335282
 20
-7.291873
 30
796.5
 70
    64
  0
VERTEX
  5
134
  8
TEAM-NET
 10
7.22949
 20
-1.8308
 30
823.019175
 70
    64
  0
VERTEX
  5
135
  8
TEAM-NET
 10
0.0
 20
0.0
 30
850.0
 70
    64
  0
VERTEX
  5
136
  8
TEAM-NET
 10
0.0
 20
-428.0
 30
850.0
 70
    64
  0
VERTEX
  5
137
  8
TEAM-NET
 10
3.645937
 20
-426.1692
 30
822.306362
 70
    64
  0
VERTEX
  5
138
  8
TEAM-NET
 10
7.22949
 20
-420.708127
 30
795.08657
 70
    64
  0
VERTEX
  5
139
  8
TEAM-NET
 10
10.689345
 20
-411.71022
 30
768.806362
 70
    64
  0
VERTEX
  5
13A
  8
TEAM-NET
 10
13.966303
 20
-399.329436
 30
743.9154
 70
    64
  0
VERTEX
  5
13B
  8
TEAM-NET
 10
17.004293
 20
-383.777615
 30
720.839574
 70
    64
  0
VERTEX
  5
13C
  8
TEAM-NET
 10
19.751335
 20
-365.320851
 30
699.97372
 70
    64
  0
VERTEX
  5
13D
  8
TEAM-NET
 10
22.160426
 20
-344.274946
 30
681.674856
 70
    64
  0
VERTEX
  5
13E
  8
TEAM-NET
 10
24.190346
 20
-321.0
 30
666.256083
 70
    64
  0
VERTEX
  5
13F
  8
TEAM-NET
 10
25.806362
 20
-295.894255
 30
653.981218
 70
    64
  0
VERTEX
  5
140
  8
TEAM-NET
 10
26.980825
 20
-269.387276
 30
645.06029
 70
    64
  0
VERTEX
  5
141
  8
TEAM-NET
 10
27.693638
 20
-241.932605
 30
639.645937
 70
    64
  0
VERTEX
  5
142
  8
TEAM-NET
 10
27.932605
 20
-214.0
 30
637.8308
 70
    64
  0
VERTEX
  5
143
  8
TEAM-NET
 10
27.693638
 20
-186.067395
 30
639.645937
 70
    64
  0
VERTEX
  5
144
  8
TEAM-NET
 10
26.980825
 20
-158.612724
 30
645.06029
 70
    64
  0
VERTEX
  5
145
  8
TEAM-NET
 10
25.806362
 20
-132.105745
 30
653.981218
 70
    64
  0
VERTEX
  5
146
  8
TEAM-NET
 10
24.190346
 20
-107.0
 30
666.256083
 70
    64
  0
VERTEX
  5
147
  8
TEAM-NET
 10
22.160426
 20
-83.725054
 30
681.674856
 70
    64
  0
VERTEX
  5
148
  8
TEAM-NET
 10
19.751335
 20
-62.679149
 30
699.97372
 70
    64
  0
VERTEX
  5
149
  8
TEAM-NET
 10
17.004293
 20
-44.222385
 30
720.839574
 70
    64
  0
VERTEX
  5
14A
  8
TEAM-NET
 10
13.966303
 20
-28.670564
 30
743.9154
 70
    64
  0
VERTEX
  5
14B
  8
TEAM-NET
 10
10.689345
 20
-16.28978
 30
768.806362
 70
    64
  0
VERTEX
  5
14C
  8
TEAM-NET
 10
7.22949
 20
-7.291873
 30
795.08657
 70
    64
  0
VERTEX
  5
14D
  8
TEAM-NET
 10
3.645937
 20
-1.8308
 30
822.306362
 70
    64
  0
VERTEX
  5
14E
  8
TEAM-NET
 10
0.0
 20
0.0
 30
850.0
 70
    64
  0
VERTEX
  5
14F
  8
TEAM-NET
 10
0.0
 20
-428.0
 30
850.0
 70
    64
  0
VERTEX
  5
150
  8
TEAM-NET
 10
0.0
 20
-426.1692
 30
822.067395
 70
    64
  0
VERTEX
  5
151
  8
TEAM-NET
 10
0.0
 20
-420.708127
 30
794.612724
 70
    64
  0
VERTEX
  5
152
  8
TEAM-NET
 10
0.0
 20
-411.71022
 30
768.105745
 70
    64
  0
VERTEX
  5
153
  8
TEAM-NET
 10
0.0
 20
-399.329436
 30
743.0
 70
    64
  0
VERTEX
  5
154
  8
TEAM-NET
 10
0.0
 20
-383.777615
 30
719.725054
 70
    64
  0
VERTEX
  5
155
  8
TEAM-NET
 10
0.0
 20
-365.320851
 30
698.679149
 70
    64
  0
VERTEX
  5
156
  8
TEAM-NET
 10
0.0
 20
-344.274946
 30
680.222385
 70
    64
  0
VERTEX
  5
157
  8
TEAM-NET
 10
0.0
 20
-321.0
 30
664.670564
 70
    64
  0
VERTEX
  5
158
  8
TEAM-NET
 10
0.0
 20
-295.894255
 30
652.28978
 70
    64
  0
VERTEX
  5
159
  8
TEAM-NET
 10
0.0
 20
-269.387276
 30
643.291873
 70
    64
  0
VERTEX
  5
15A
  8
TEAM-NET
 10
0.0
 20
-241.932605
 30
637.8308
 70
    64
  0
VERTEX
  5
15B
  8
TEAM-NET
 10
0.0
 20
-214.0
 30
636.0
 70
    64
  0
VERTEX
  5
15C
  8
TEAM-NET
 10
0.0
 20
-186.067395
 30
637.8308
 70
    64
  0
VERTEX
  5
15D
  8
TEAM-NET
 10
0.0
 20
-158.612724
 30
643.291873
 70
    64
  0
VERTEX
  5
15E
  8
TEAM-NET
 10
0.0
 20
-132.105745
 30
652.28978
 70
    64
  0
VERTEX
  5
15F
  8
TEAM-NET
 10
0.0
 20
-107.0
 30
664.670564
 70
    64
  0
VERTEX
  5
160
  8
TEAM-NET
 10
0.0
 20
-83.725054
 30
680.222385
 70
    64
  0
VERTEX
  5
161
  8
TEAM-NET
 10
0.0
 20
-62.679149
 30
698.679149
 70
    64
  0
VERTEX
  5
162
  8
TEAM-NET
 10
0.0
 20
-44.222385
 30
719.725054
 70
    64
  0
VERTEX
  5
163
  8
TEAM-NET
 10
0.0
 20
-28.670564
 30
743.0
 70
    64
  0
VERTEX
  5
164
  8
TEAM-NET
 10
0.0
 20
-16.28978
 30
768.105745
 70
    64
  0
VERTEX
  5
165
  8
TEAM-NET
 10
0.0
 20
-7.291873
 30
794.612724
 70
    64
  0
VERTEX
  5
166
  8
TEAM-NET
 10
0.0
 20
-1.8308
 30
822.067395
 70
    64
  0
VERTEX
  5
167
  8
TEAM-NET
 10
0.0
 20
0.0
 30
850.0
 70
    64
  0
VERTEX
  5
168
  8
TEAM-NET
 10
0.0
 20
-428.0
 30
850.0
 70
    64
  0
VERTEX
  5
169
  8
TEAM-NET
 10
-3.645937
 20
-426.1692
 30
822.306362
 70
    64
  0
VERTEX
  5
16A
  8
TEAM-NET
 10
-7.22949
 20
-420.708127
 30
795.08657
 70
    64
  0
VERTEX
  5
16B
  8
TEAM-NET
 10
-10.689345
 20
-411.71022
 30
768.806362
 70
    64
  0
VERTEX
  5
16C
  8
TEAM-NET
 10
-13.966303
 20
-399.329436
 30
743.9154
 70
    64
  0
VERTEX
  5
16D
  8
TEAM-NET
 10
-17.004293
 20
-383.777615
 30
720.839574
 70
    64
  0
VERTEX
  5
16E
  8
TEAM-NET
 10
-19.751335
 20
-365.320851
 30
699.97372
 70
    64
  0
VERTEX
  5
16F
  8
TEAM-NET
 10
-22.160426
 20
-344.274946
 30
681.674856
 70
    64
  0
VERTEX
  5
170
  8
TEAM-NET
 10
-24.190346
 20
-321.0
 30
666.256083
 70
    64
  0
VERTEX
  5
171
  8
TEAM-NET
 10
-25.806362
 20
-295.894255
 30
653.981218
 70
    64
  0
VERTEX
  5
172
  8
TEAM-NET
 10
-26.980825
 20
-269.387276
 30
645.06029
 70
    64
  0
VERTEX
  5
173
  8
TEAM-NET
 10
-27.693638
 20
-241.932605
 30
639.645937
 70
    64
  0
VERTEX
  5
174
  8
TEAM-NET
 10
-27.932605
 20
-214.0
 30
637.8308
 70
    64
  0
VERTEX
  5
175
  8
TEAM-NET
 10
-27.693638
 20
-186.067395
 30
639.645937
 70
    64
  0
VERTEX
  5
176
  8
TEAM-NET
 10
-26.980825
 20
-158.612724
 30
645.06029
 70
    64
  0
VERTEX
  5
177
  8
TEAM-NET
 10
-25.806362
 20
-132.105745
 30
653.981218
 70
    64
  0
VERTEX
  5
178
  8
TEAM-NET
 10
-24.190346
 20
-107.0
 30
666.256083
 70
    64
  0
VERTEX
  5
179
  8
TEAM-NET
 10
-22.160426
 20
-83.725054
 30
681.674856
 70
    64
  0
VERTEX
  5
17A
  8
TEAM-NET
 10
-19.751335
 20
-62.679149
 30
699.97372
 70
    64
  0
VERTEX
  5
17B
  8
TEAM-NET
 10
-17.004293
 20
-44.222385
 30
720.839574
 70
    64
  0
VERTEX
  5
17C
  8
TEAM-NET
 10
-13.966303
 20
-28.670564
 30
743.9154
 70
    64
  0
VERTEX
  5
17D
  8
TEAM-NET
 10
-10.689345
 20
-16.28978
 30
768.806362
 70
    64
  0
VERTEX
  5
17E
  8
TEAM-NET
 10
-7.22949
 20
-7.291873
 30
795.08657
 70
    64
  0
VERTEX
  5
17F
  8
TEAM-NET
 10
-3.645937
 20
-1.8308
 30
822.306362
 70
    64
  0
VERTEX
  5
180
  8
TEAM-NET
 10
0.0
 20
0.0
 30
850.0
 70
    64
  0
VERTEX
  5
181
  8
TEAM-NET
 10
0.0
 20
-428.0
 30
850.0
 70
    64
  0
VERTEX
  5
182
  8
TEAM-NET
 10
-7.22949
 20
-426.1692
 30
823.019175
 70
    64
  0
VERTEX
  5
183
  8
TEAM-NET
 10
-14.335282
 20
-420.708127
 30
796.5
 70
    64
  0
VERTEX
  5
184
  8
TEAM-NET
 10
-21.195793
 20
-411.71022
 30
770.896225
 70
    64
  0
VERTEX
  5
185
  8
TEAM-NET
 10
-27.693638
 20
-399.329436
 30
746.645937
 70
    64
  0
VERTEX
  5
186
  8
TEAM-NET
 10
-33.717637
 20
-383.777615
 30
724.164065
 70
    64
  0
VERTEX
  5
187
  8
TEAM-NET
 10
-39.164718
 20
-365.320851
 30
703.835282
 70
    64
  0
VERTEX
  5
188
  8
TEAM-NET
 10
-43.94168
 20
-344.274946
 30
686.007417
 70
    64
  0
VERTEX
  5
189
  8
TEAM-NET
 10
-47.966788
 20
-321.0
 30
670.985511
 70
    64
  0
VERTEX
  5
18A
  8
TEAM-NET
 10
-51.17117
 20
-295.894255
 30
659.026592
 70
    64
  0
VERTEX
  5
18B
  8
TEAM-NET
 10
-53.5
 20
-269.387276
 30
650.335282
 70
    64
  0
VERTEX
  5
18C
  8
TEAM-NET
 10
-54.91343
 20
-241.932605
 30
645.06029
 70
    64
  0
VERTEX
  5
18D
  8
TEAM-NET
 10
-55.387276
 20
-214.0
 30
643.291873
 70
    64
  0
VERTEX
  5
18E
  8
TEAM-NET
 10
-54.91343
 20
-186.067395
 30
645.06029
 70
    64
  0
VERTEX
  5
18F
  8
TEAM-NET
 10
-53.5
 20
-158.612724
 30
650.335282
 70
    64
  0
VERTEX
  5
190
  8
TEAM-NET
 10
-51.17117
 20
-132.105745
 30
659.026592
 70
    64
  0
VERTEX
  5
191
  8
TEAM-NET
 10
-47.966788
 20
-107.0
 30
670.985511
 70
    64
  0
VERTEX
  5
192
  8
TEAM-NET
 10
-43.94168
 20
-83.725054
 30
686.007417
 70
    64
  0
VERTEX
  5
193
  8
TEAM-NET
 10
-39.164718
 20
-62.679149
 30
703.835282
 70
    64
  0
VERTEX
  5
194
  8
TEAM-NET
 10
-33.717637
 20
-44.222385
 30
724.164065
 70
    64
  0
VERTEX
  5
195
  8
TEAM-NET
 10
-27.693638
 20
-28.670564
 30
746.645937
 70
    64
  0
VERTEX
  5
196
  8
TEAM-NET
 10
-21.195793
 20
-16.28978
 30
770.896225
 70
    64
  0
VERTEX
  5
197
  8
TEAM-NET
 10
-14.335282
 20
-7.291873
 30
796.5
 70
    64
  0
VERTEX
  5
198
  8
TEAM-NET
 10
-7.22949
 20
-1.8308
 30
823.019175
 70
    64
  0
VERTEX
  5
199
  8
TEAM-NET
 10
0.0
 20
0.0
 30
850.0
 70
    64
  0
VERTEX
  5
19A
  8
TEAM-NET
 10
0.0
 20
-428.0
 30
850.0
 70
    64
  0
VERTEX
  5
19B
  8
TEAM-NET
 10
-10.689345
 20
-426.1692
 30
824.193638
 70
    64
  0
VERTEX
  5
19C
  8
TEAM-NET
 10
-21.195793
 20
-420.708127
 30
798.82883
 70
    64
  0
VERTEX
  5
19D
  8
TEAM-NET
 10
-31.339574
 20
-411.71022
 30
774.339574
 70
    64
  0
VERTEX
  5
19E
  8
TEAM-NET
 10
-40.947127
 20
-399.329436
 30
751.14489
 70
    64
  0
VERTEX
  5
19F
  8
TEAM-NET
 10
-49.854063
 20
-383.777615
 30
729.641644
 70
    64
  0
VERTEX
  5
1A0
  8
TEAM-NET
 10
-57.907983
 20
-365.320851
 30
710.197763
 70
    64
  0
VERTEX
  5
1A1
  8
TEAM-NET
 10
-64.97108
 20
-344.274946
 30
693.145937
 70
    64
  0
VERTEX
  5
1A2
  8
TEAM-NET
 10
-70.922505
 20
-321.0
 30
678.777927
 70
    64
  0
VERTEX
  5
1A3
  8
TEAM-NET
 10
-75.660426
 20
-295.894255
 30
667.339574
 70
    64
  0
VERTEX
  5
1A4
  8
TEAM-NET
 10
-79.103775
 20
-269.387276
 30
659.026592
 70
    64
  0
VERTEX
  5
1A5
  8
TEAM-NET
 10
-81.193638
 20
-241.932605
 30
653.981218
 70
    64
  0
VERTEX
  5
1A6
  8
TEAM-NET
 10
-81.894255
 20
-214.0
 30
652.28978
 70
    64
  0
VERTEX
  5
1A7
  8
TEAM-NET
 10
-81.193638
 20
-186.067395
 30
653.981218
 70
    64
  0
VERTEX
  5
1A8
  8
TEAM-NET
 10
-79.103775
 20
-158.612724
 30
659.026592
 70
    64
  0
VERTEX
  5
1A9
  8
TEAM-NET
 10
-75.660426
 20
-132.105745
 30
667.339574
 70
    64
  0
VERTEX
  5
1AA
  8
TEAM-NET
 10
-70.922505
 20
-107.0
 30
678.777927
 70
    64
  0
VERTEX
  5
1AB
  8
TEAM-NET
 10
-64.97108
 20
-83.725054
 30
693.145937
 70
    64
  0
VERTEX
  5
1AC
  8
TEAM-NET
 10
-57.907983
 20
-62.679149
 30
710.197763
 70
    64
  0
VERTEX
  5
1AD
  8
TEAM-NET
 10
-49.854063
 20
-44.222385
 30
729.641644
 70
    64
  0
VERTEX
  5
1AE
  8
TEAM-NET
 10
-40.947127
 20
-28.670564
 30
751.14489
 70
    64
  0
VERTEX
  5
1AF
  8
TEAM-NET
 10
-31.339574
 20
-16.28978
 30
774.339574
 70
    64
  0
VERTEX
  5
1B0
  8
TEAM-NET
 10
-21.195793
 20
-7.291873
 30
798.82883
 70
    64
  0
VERTEX
  5
1B1
  8
TEAM-NET
 10
-10.689345
 20
-1.8308
 30
824.193638
 70
    64
  0
VERTEX
  5
1B2
  8
TEAM-NET
 10
0.0
 20
0.0
 30
850.0
 70
    64
  0
VERTEX
  5
1B3
  8
TEAM-NET
 10
0.0
 20
-428.0
 30
850.0
 70
    64
  0
VERTEX
  5
1B4
  8
TEAM-NET
 10
-13.966303
 20
-426.1692
 30
825.809654
 70
    64
  0
VERTEX
  5
1B5
  8
TEAM-NET
 10
-27.693638
 20
-420.708127
 30
802.033212
 70
    64
  0
VERTEX
  5
1B6
  8
TEAM-NET
 10
-40.947127
 20
-411.71022
 30
779.077495
 70
    64
  0
VERTEX
  5
1B7
  8
TEAM-NET
 10
-53.5
 20
-399.329436
 30
757.335282
 70
    64
  0
VERTEX
  5
1B8
  8
TEAM-NET
 10
-65.137473
 20
-383.777615
 30
737.178587
 70
    64
  0
VERTEX
  5
1B9
  8
TEAM-NET
 10
-75.660426
 20
-365.320851
 30
718.952299
 70
    64
  0
VERTEX
  5
1BA
  8
TEAM-NET
 10
-84.888807
 20
-344.274946
 30
702.968273
 70
    64
  0
VERTEX
  5
1BB
  8
TEAM-NET
 10
-92.664718
 20
-321.0
 30
689.5
 70
    64
  0
VERTEX
  5
1BC
  8
TEAM-NET
 10
-98.85511
 20
-295.894255
 30
678.777927
 70
    64
  0
VERTEX
  5
1BD
  8
TEAM-NET
 10
-103.354063
 20
-269.387276
 30
670.985511
 70
    64
  0
VERTEX
  5
1BE
  8
TEAM-NET
 10
-106.0846
 20
-241.932605
 30
666.256083
 70
    64
  0
VERTEX
  5
1BF
  8
TEAM-NET
 10
-107.0
 20
-214.0
 30
664.670564
 70
    64
  0
VERTEX
  5
1C0
  8
TEAM-NET
 10
-106.0846
 20
-186.067395
 30
666.256083
 70
    64
  0
VERTEX
  5
1C1
  8
TEAM-NET
 10
-103.354063
 20
-158.612724
 30
670.985511
 70
    64
  0
VERTEX
  5
1C2
  8
TEAM-NET
 10
-98.85511
 20
-132.105745
 30
678.777927
 70
    64
  0
VERTEX
  5
1C3
  8
TEAM-NET
 10
-92.664718
 20
-107.0
 30
689.5
 70
    64
  0
VERTEX
  5
1C4
  8
TEAM-NET
 10
-84.888807
 20
-83.725054
 30
702.968273
 70
    64
  0
VERTEX
  5
1C5
  8
TEAM-NET
 10
-75.660426
 20
-62.679149
 30
718.952299
 70
    64
  0
VERTEX
  5
1C6
  8
TEAM-NET
 10
-65.137473
 20
-44.222385
 30
737.178587
 70
    64
  0
VERTEX
  5
1C7
  8
TEAM-NET
 10
-53.5
 20
-28.670564
 30
757.335282
 70
    64
  0
VERTEX
  5
1C8
  8
TEAM-NET
 10
-40.947127
 20
-16.28978
 30
779.077495
 70
    64
  0
VERTEX
  5
1C9
  8
TEAM-NET
 10
-27.693638
 20
-7.291873
 30
802.033212
 70
    64
  0
VERTEX
  5
1CA
  8
TEAM-NET
 10
-13.966303
 20
-1.8308
 30
825.809654
 70
    64
  0
VERTEX
  5
1CB
  8
TEAM-NET
 10
0.0
 20
0.0
 30
850.0
 70
    64
  0
VERTEX
  5
1CC
  8
TEAM-NET
 10
0.0
 20
-428.0
 30
850.0
 70
    64
  0
VERTEX
  5
1CD
  8
TEAM-NET
 10
-17.004293
 20
-426.1692
 30
827.839574
 70
    64
  0
VERTEX
  5
1CE
  8
TEAM-NET
 10
-33.717637
 20
-420.708127
 30
806.05832
 70
    64
  0
VERTEX
  5
1CF
  8
TEAM-NET
 10
-49.854063
 20
-411.71022
 30
785.02892
 70
    64
  0
VERTEX
  5
1D0
  8
TEAM-NET
 10
-65.137473
 20
-399.329436
 30
765.111193
 70
    64
  0
VERTEX
  5
1D1
  8
TEAM-NET
 10
-79.306362
 20
-383.777615
 30
746.645937
 70
    64
  0
VERTEX
  5
1D2
  8
TEAM-NET
 10
-92.118298
 20
-365.320851
 30
729.949097
 70
    64
  0
VERTEX
  5
1D3
  8
TEAM-NET
 10
-103.354063
 20
-344.274946
 30
715.306362
 70
    64
  0
VERTEX
  5
1D4
  8
TEAM-NET
 10
-112.821413
 20
-321.0
 30
702.968273
 70
    64
  0
VERTEX
  5
1D5
  8
TEAM-NET
 10
-120.358356
 20
-295.894255
 30
693.145937
 70
    64
  0
VERTEX
  5
1D6
  8
TEAM-NET
 10
-125.835935
 20
-269.387276
 30
686.007417
 70
    64
  0
VERTEX
  5
1D7
  8
TEAM-NET
 10
-129.160426
 20
-241.932605
 30
681.674856
 70
    64
  0
VERTEX
  5
1D8
  8
TEAM-NET
 10
-130.274946
 20
-214.0
 30
680.222385
 70
    64
  0
VERTEX
  5
1D9
  8
TEAM-NET
 10
-129.160426
 20
-186.067395
 30
681.674856
 70
    64
  0
VERTEX
  5
1DA
  8
TEAM-NET
 10
-125.835935
 20
-158.612724
 30
686.007417
 70
    64
  0
VERTEX
  5
1DB
  8
TEAM-NET
 10
-120.358356
 20
-132.105745
 30
693.145937
 70
    64
  0
VERTEX
  5
1DC
  8
TEAM-NET
 10
-112.821413
 20
-107.0
 30
702.968273
 70
    64
  0
VERTEX
  5
1DD
  8
TEAM-NET
 10
-103.354063
 20
-83.725054
 30
715.306362
 70
    64
  0
VERTEX
  5
1DE
  8
TEAM-NET
 10
-92.118298
 20
-62.679149
 30
729.949097
 70
    64
  0
VERTEX
  5
1DF
  8
TEAM-NET
 10
-79.306362
 20
-44.222385
 30
746.645937
 70
    64
  0
VERTEX
  5
1E0
  8
TEAM-NET
 10
-65.137473
 20
-28.670564
 30
765.111193
 70
    64
  0
VERTEX
  5
1E1
  8
TEAM-NET
 10
-49.854063
 20
-16.28978
 30
785.02892
 70
    64
  0
VERTEX
  5
1E2
  8
TEAM-NET
 10
-33.717637
 20
-7.291873
 30
806.05832
 70
    64
  0
VERTEX
  5
1E3
  8
TEAM-NET
 10
-17.004293
 20
-1.8308
 30
827.839574
 70
    64
  0
VERTEX
  5
1E4
  8
TEAM-NET
 10
0.0
 20
0.0
 30
850.0
 70
    64
  0
VERTEX
  5
1E5
  8
TEAM-NET
 10
0.0
 20
-428.0
 30
850.0
 70
    64
  0
VERTEX
  5
1E6
  8
TEAM-NET
 10
-19.751335
 20
-426.1692
 30
830.248665
 70
    64
  0
VERTEX
  5
1E7
  8
TEAM-NET
 10
-39.164718
 20
-420.708127
 30
810.835282
 70
    64
  0
VERTEX
  5
1E8
  8
TEAM-NET
 10
-57.907983
 20
-411.71022
 30
792.092017
 70
    64
  0
VERTEX
  5
1E9
  8
TEAM-NET
 10
-75.660426
 20
-399.329436
 30
774.339574
 70
    64
  0
VERTEX
  5
1EA
  8
TEAM-NET
 10
-92.118298
 20
-383.777615
 30
757.881702
 70
    64
  0
VERTEX
  5
1EB
  8
TEAM-NET
 10
-107.0
 20
-365.320851
 30
743.0
 70
    64
  0
VERTEX
  5
1EC
  8
TEAM-NET
 10
-120.050903
 20
-344.274946
 30
729.949097
 70
    64
  0
VERTEX
  5
1ED
  8
TEAM-NET
 10
-131.047701
 20
-321.0
 30
718.952299
 70
    64
  0
VERTEX
  5
1EE
  8
TEAM-NET
 10
-139.802237
 20
-295.894255
 30
710.197763
 70
    64
  0
VERTEX
  5
1EF
  8
TEAM-NET
 10
-146.164718
 20
-269.387276
 30
703.835282
 70
    64
  0
VERTEX
  5
1F0
  8
TEAM-NET
 10
-150.02628
 20
-241.932605
 30
699.97372
 70
    64
  0
VERTEX
  5
1F1
  8
TEAM-NET
 10
-151.320851
 20
-214.0
 30
698.679149
 70
    64
  0
VERTEX
  5
1F2
  8
TEAM-NET
 10
-150.02628
 20
-186.067395
 30
699.97372
 70
    64
  0
VERTEX
  5
1F3
  8
TEAM-NET
 10
-146.164718
 20
-158.612724
 30
703.835282
 70
    64
  0
VERTEX
  5
1F4
  8
TEAM-NET
 10
-139.802237
 20
-132.105745
 30
710.197763
 70
    64
  0
VERTEX
  5
1F5
  8
TEAM-NET
 10
-131.047701
 20
-107.0
 30
718.952299
 70
    64
  0
VERTEX
  5
1F6
  8
TEAM-NET
 10
-120.050903
 20
-83.725054
 30
729.949097
 70
    64
  0
VERTEX
  5
1F7
  8
TEAM-NET
 10
-107.0
 20
-62.679149
 30
743.0
 70
    64
  0
VERTEX
  5
1F8
  8
TEAM-NET
 10
-92.118298
 20
-44.222385
 30
757.881702
 70
    64
  0
VERTEX
  5
1F9
  8
TEAM-NET
 10
-75.660426
 20
-28.670564
 30
774.339574
 70
    64
  0
VERTEX
  5
1FA
  8
TEAM-NET
 10
-57.907983
 20
-16.28978
 30
792.092017
 70
    64
  0
VERTEX
  5
1FB
  8
TEAM-NET
 10
-39.164718
 20
-7.291873
 30
810.835282
 70
    64
  0
VERTEX
  5
1FC
  8
TEAM-NET
 10
-19.751335
 20
-1.8308
 30
830.248665
 70
    64
  0
VERTEX
  5
1FD
  8
TEAM-NET
 10
0.0
 20
0.0
 30
850.0
 70
    64
  0
VERTEX
  5
1FE
  8
TEAM-NET
 10
0.0
 20
-428.0
 30
850.0
 70
    64
  0
VERTEX
  5
1FF
  8
TEAM-NET
 10
-22.160426
 20
-426.1692
 30
832.995707
 70
    64
  0
VERTEX
  5
200
  8
TEAM-NET
 10
-43.94168
 20
-420.708127
 30
816.282363
 70
    64
  0
VERTEX
  5
201
  8
TEAM-NET
 10
-64.97108
 20
-411.71022
 30
800.145937
 70
    64
  0
VERTEX
  5
202
  8
TEAM-NET
 10
-84.888807
 20
-399.329436
 30
784.862527
 70
    64
  0
VERTEX
  5
203
  8
TEAM-NET
 10
-103.354063
 20
-383.777615
 30
770.693638
 70
    64
  0
VERTEX
  5
204
  8
TEAM-NET
 10
-120.050903
 20
-365.320851
 30
757.881702
 70
    64
  0
VERTEX
  5
205
  8
TEAM-NET
 10
-134.693638
 20
-344.274946
 30
746.645937
 70
    64
  0
VERTEX
  5
206
  8
TEAM-NET
 10
-147.031727
 20
-321.0
 30
737.178587
 70
    64
  0
VERTEX
  5
207
  8
TEAM-NET
 10
-156.854063
 20
-295.894255
 30
729.641644
 70
    64
  0
VERTEX
  5
208
  8
TEAM-NET
 10
-163.992583
 20
-269.387276
 30
724.164065
 70
    64
  0
VERTEX
  5
209
  8
TEAM-NET
 10
-168.325144
 20
-241.932605
 30
720.839574
 70
    64
  0
VERTEX
  5
20A
  8
TEAM-NET
 10
-169.777615
 20
-214.0
 30
719.725054
 70
    64
  0
VERTEX
  5
20B
  8
TEAM-NET
 10
-168.325144
 20
-186.067395
 30
720.839574
 70
    64
  0
VERTEX
  5
20C
  8
TEAM-NET
 10
-163.992583
 20
-158.612724
 30
724.164065
 70
    64
  0
VERTEX
  5
20D
  8
TEAM-NET
 10
-156.854063
 20
-132.105745
 30
729.641644
 70
    64
  0
VERTEX
  5
20E
  8
TEAM-NET
 10
-147.031727
 20
-107.0
 30
737.178587
 70
    64
  0
VERTEX
  5
20F
  8
TEAM-NET
 10
-134.693638
 20
-83.725054
 30
746.645937
 70
    64
  0
VERTEX
  5
210
  8
TEAM-NET
 10
-120.050903
 20
-62.679149
 30
757.881702
 70
    64
  0
VERTEX
  5
211
  8
TEAM-NET
 10
-103.354063
 20
-44.222385
 30
770.693638
 70
    64
  0
VERTEX
  5
212
  8
TEAM-NET
 10
-84.888807
 20
-28.670564
 30
784.862527
 70
    64
  0
VERTEX
  5
213
  8
TEAM-NET
 10
-64.97108
 20
-16.28978
 30
800.145937
 70
    64
  0
VERTEX
  5
214
  8
TEAM-NET
 10
-43.94168
 20
-7.291873
 30
816.282363
 70
    64
  0
VERTEX
  5
215
  8
TEAM-NET
 10
-22.160426
 20
-1.8308
 30
832.995707
 70
    64
  0
VERTEX
  5
216
  8
TEAM-NET
 10
0.0
 20
0.0
 30
850.0
 70
    64
  0
VERTEX
  5
217
  8
TEAM-NET
 10
0.0
 20
-428.0
 30
850.0
 70
    64
  0
VERTEX
  5
218
  8
TEAM-NET
 10
-24.190346
 20
-426.1692
 30
836.033697
 70
    64
  0
VERTEX
  5
219
  8
TEAM-NET
 10
-47.966788
 20
-420.708127
 30
822.306362
 70
    64
  0
VERTEX
  5
21A
  8
TEAM-NET
 10
-70.922505
 20
-411.71022
 30
809.052873
 70
    64
  0
VERTEX
  5
21B
  8
TEAM-NET
 10
-92.664718
 20
-399.329436
 30
796.5
 70
    64
  0
VERTEX
  5
21C
  8
TEAM-NET
 10
-112.821413
 20
-383.777615
 30
784.862527
 70
    64
  0
VERTEX
  5
21D
  8
TEAM-NET
 10
-131.047701
 20
-365.320851
 30
774.339574
 70
    64
  0
VERTEX
  5
21E
  8
TEAM-NET
 10
-147.031727
 20
-344.274946
 30
765.111193
 70
    64
  0
VERTEX
  5
21F
  8
TEAM-NET
 10
-160.5
 20
-321.0
 30
757.335282
 70
    64
  0
VERTEX
  5
220
  8
TEAM-NET
 10
-171.222073
 20
-295.894255
 30
751.14489
 70
    64
  0
VERTEX
  5
221
  8
TEAM-NET
 10
-179.014489
 20
-269.387276
 30
746.645937
 70
    64
  0
VERTEX
  5
222
  8
TEAM-NET
 10
-183.743917
 20
-241.932605
 30
743.9154
 70
    64
  0
VERTEX
  5
223
  8
TEAM-NET
 10
-185.329436
 20
-214.0
 30
743.0
 70
    64
  0
VERTEX
  5
224
  8
TEAM-NET
 10
-183.743917
 20
-186.067395
 30
743.9154
 70
    64
  0
VERTEX
  5
225
  8
TEAM-NET
 10
-179.014489
 20
-158.612724
 30
746.645937
 70
    64
  0
VERTEX
  5
226
  8
TEAM-NET
 10
-171.222073
 20
-132.105745
 30
751.14489
 70
    64
  0
VERTEX
  5
227
  8
TEAM-NET
 10
-160.5
 20
-107.0
 30
757.335282
 70
    64
  0
VERTEX
  5
228
  8
TEAM-NET
 10
-147.031727
 20
-83.725054
 30
765.111193
 70
    64
  0
VERTEX
  5
229
  8
TEAM-NET
 10
-131.047701
 20
-62.679149
 30
774.339574
 70
    64
  0
VERTEX
  5
22A
  8
TEAM-NET
 10
-112.821413
 20
-44.222385
 30
784.862527
 70
    64
  0
VERTEX
  5
22B
  8
TEAM-NET
 10
-92.664718
 20
-28.670564
 30
796.5
 70
    64
  0
VERTEX
  5
22C
  8
TEAM-NET
 10
-70.922505
 20
-16.28978
 30
809.052873
 70
    64
  0
VERTEX
  5
22D
  8
TEAM-NET
 10
-47.966788
 20
-7.291873
 30
822.306362
 70
    64
  0
VERTEX
  5
22E
  8
TEAM-NET
 10
-24.190346
 20
-1.8308
 30
836.033697
 70
    64
  0
VERTEX
  5
22F
  8
TEAM-NET
 10
0.0
 20
0.0
 30
850.0
 70
    64
  0
VERTEX
  5
230
  8
TEAM-NET
 10
0.0
 20
-428.0
 30
850.0
 70
    64
  0
VERTEX
  5
231
  8
TEAM-NET
 10
-25.806362
 20
-426.1692
 30
839.310655
 70
    64
  0
VERTEX
  5
232
  8
TEAM-NET
 10
-51.17117
 20
-420.708127
 30
828.804207
 70
    64
  0
VERTEX
  5
233
  8
TEAM-NET
 10
-75.660426
 20
-411.71022
 30
818.660426
 70
    64
  0
VERTEX
  5
234
  8
TEAM-NET
 10
-98.85511
 20
-399.329436
 30
809.052873
 70
    64
  0
VERTEX
  5
235
  8
TEAM-NET
 10
-120.358356
 20
-383.777615
 30
800.145937
 70
    64
  0
VERTEX
  5
236
  8
TEAM-NET
 10
-139.802237
 20
-365.320851
 30
792.092017
 70
    64
  0
VERTEX
  5
237
  8
TEAM-NET
 10
-156.854063
 20
-344.274946
 30
785.02892
 70
    64
  0
VERTEX
  5
238
  8
TEAM-NET
 10
-171.222073
 20
-321.0
 30
779.077495
 70
    64
  0
VERTEX
  5
239
  8
TEAM-NET
 10
-182.660426
 20
-295.894255
 30
774.339574
 70
    64
  0
VERTEX
  5
23A
  8
TEAM-NET
 10
-190.973408
 20
-269.387276
 30
770.896225
 70
    64
  0
VERTEX
  5
23B
  8
TEAM-NET
 10
-196.018782
 20
-241.932605
 30
768.806362
 70
    64
  0
VERTEX
  5
23C
  8
TEAM-NET
 10
-197.71022
 20
-214.0
 30
768.105745
 70
    64
  0
VERTEX
  5
23D
  8
TEAM-NET
 10
-196.018782
 20
-186.067395
 30
768.806362
 70
    64
  0
VERTEX
  5
23E
  8
TEAM-NET
 10
-190.973408
 20
-158.612724
 30
770.896225
 70
    64
  0
VERTEX
  5
23F
  8
TEAM-NET
 10
-182.660426
 20
-132.105745
 30
774.339574
 70
    64
  0
VERTEX
  5
240
  8
TEAM-NET
 10
-171.222073
 20
-107.0
 30
779.077495
 70
    64
  0
VERTEX
  5
241
  8
TEAM-NET
 10
-156.854063
 20
-83.725054
 30
785.02892
 70
    64
  0
VERTEX
  5
242
  8
TEAM-NET
 10
-139.802237
 20
-62.679149
 30
792.092017
 70
    64
  0
VERTEX
  5
243
  8
TEAM-NET
 10
-120.358356
 20
-44.222385
 30
800.145937
 70
    64
  0
VERTEX
  5
244
  8
TEAM-NET
 10
-98.85511
 20
-28.670564
 30
809.052873
 70
    64
  0
VERTEX
  5
245
  8
TEAM-NET
 10
-75.660426
 20
-16.28978
 30
818.660426
 70
    64
  0
VERTEX
  5
246
  8
TEAM-NET
 10
-51.17117
 20
-7.291873
 30
828.804207
 70
    64
  0
VERTEX
  5
247
  8
TEAM-NET
 10
-25.806362
 20
-1.8308
 30
839.310655
 70
    64
  0
VERTEX
  5
248
  8
TEAM-NET
 10
0.0
 20
0.0
 30
850.0
 70
    64
  0
VERTEX
  5
249
  8
TEAM-NET
 10
0.0
 20
-428.0
 30
850.0
 70
    64
  0
VERTEX
  5
24A
  8
TEAM-NET
 10
-26.980825
 20
-426.1692
 30
842.77051
 70
    64
  0
VERTEX
  5
24B
  8
TEAM-NET
 10
-53.5
 20
-420.708127
 30
835.664718
 70
    64
  0
VERTEX
  5
24C
  8
TEAM-NET
 10
-79.103775
 20
-411.71022
 30
828.804207
 70
    64
  0
VERTEX
  5
24D
  8
TEAM-NET
 10
-103.354063
 20
-399.329436
 30
822.306362
 70
    64
  0
VERTEX
  5
24E
  8
TEAM-NET
 10
-125.835935
 20
-383.777615
 30
816.282363
 70
    64
  0
VERTEX
  5
24F
  8
TEAM-NET
 10
-146.164718
 20
-365.320851
 30
810.835282
 70
    64
  0
VERTEX
  5
250
  8
TEAM-NET
 10
-163.992583
 20
-344.274946
 30
806.05832
 70
    64
  0
VERTEX
  5
251
  8
TEAM-NET
 10
-179.014489
 20
-321.0
 30
802.033212
 70
    64
  0
VERTEX
  5
252
  8
TEAM-NET
 10
-190.973408
 20
-295.894255
 30
798.82883
 70
    64
  0
VERTEX
  5
253
  8
TEAM-NET
 10
-199.664718
 20
-269.387276
 30
796.5
 70
    64
  0
VERTEX
  5
254
  8
TEAM-NET
 10
-204.93971
 20
-241.932605
 30
795.08657
 70
    64
  0
VERTEX
  5
255
  8
TEAM-NET
 10
-206.708127
 20
-214.0
 30
794.612724
 70
    64
  0
VERTEX
  5
256
  8
TEAM-NET
 10
-204.93971
 20
-186.067395
 30
795.08657
 70
    64
  0
VERTEX
  5
257
  8
TEAM-NET
 10
-199.664718
 20
-158.612724
 30
796.5
 70
    64
  0
VERTEX
  5
258
  8
TEAM-NET
 10
-190.973408
 20
-132.105745
 30
798.82883
 70
    64
  0
VERTEX
  5
259
  8
TEAM-NET
 10
-179.014489
 20
-107.0
 30
802.033212
 70
    64
  0
VERTEX
  5
25A
  8
TEAM-NET
 10
-163.992583
 20
-83.725054
 30
806.05832
 70
    64
  0
VERTEX
  5
25B
  8
TEAM-NET
 10
-146.164718
 20
-62.679149
 30
810.835282
 70
    64
  0
VERTEX
  5
25C
  8
TEAM-NET
 10
-125.835935
 20
-44.222385
 30
816.282363
 70
    64
  0
VERTEX
  5
25D
  8
TEAM-NET
 10
-103.354063
 20
-28.670564
 30
822.306362
 70
    64
  0
VERTEX
  5
25E
  8
TEAM-NET
 10
-79.103775
 20
-16.28978
 30
828.804207
 70
    64
  0
VERTEX
  5
25F
  8
TEAM-NET
 10
-53.5
 20
-7.291873
 30
835.664718
 70
    64
  0
VERTEX
  5
260
  8
TEAM-NET
 10
-26.980825
 20
-1.8308
 30
842.77051
 70
    64
  0
VERTEX
  5
261
  8
TEAM-NET
 10
0.0
 20
0.0
 30
850.0
 70
    64
  0
VERTEX
  5
262
  8
TEAM-NET
 10
0.0
 20
-428.0
 30
850.0
 70
    64
  0
VERTEX
  5
263
  8
TEAM-NET
 10
-27.693638
 20
-426.1692
 30
846.354063
 70
    64
  0
VERTEX
  5
264
  8
TEAM-NET
 10
-54.91343
 20
-420.708127
 30
842.77051
 70
    64
  0
VERTEX
  5
265
  8
TEAM-NET
 10
-81.193638
 20
-411.71022
 30
839.310655
 70
    64
  0
VERTEX
  5
266
  8
TEAM-NET
 10
-106.0846
 20
-399.329436
 30
836.033697
 70
    64
  0
VERTEX
  5
267
  8
TEAM-NET
 10
-129.160426
 20
-383.777615
 30
832.995707
 70
    64
  0
VERTEX
  5
268
  8
TEAM-NET
 10
-150.02628
 20
-365.320851
 30
830.248665
 70
    64
  0
VERTEX
  5
269
  8
TEAM-NET
 10
-168.325144
 20
-344.274946
 30
827.839574
 70
    64
  0
VERTEX
  5
26A
  8
TEAM-NET
 10
-183.743917
 20
-321.0
 30
825.809654
 70
    64
  0
VERTEX
  5
26B
  8
TEAM-NET
 10
-196.018782
 20
-295.894255
 30
824.193638
 70
    64
  0
VERTEX
  5
26C
  8
TEAM-NET
 10
-204.93971
 20
-269.387276
 30
823.019175
 70
    64
  0
VERTEX
  5
26D
  8
TEAM-NET
 10
-210.354063
 20
-241.932605
 30
822.306362
 70
    64
  0
VERTEX
  5
26E
  8
TEAM-NET
 10
-212.1692
 20
-214.0
 30
822.067395
 70
    64
  0
VERTEX
  5
26F
  8
TEAM-NET
 10
-210.354063
 20
-186.067395
 30
822.306362
 70
    64
  0
VERTEX
  5
270
  8
TEAM-NET
 10
-204.93971
 20
-158.612724
 30
823.019175
 70
    64
  0
VERTEX
  5
271
  8
TEAM-NET
 10
-196.018782
 20
-132.105745
 30
824.193638
 70
    64
  0
VERTEX
  5
272
  8
TEAM-NET
 10
-183.743917
 20
-107.0
 30
825.809654
 70
    64
  0
VERTEX
  5
273
  8
TEAM-NET
 10
-168.325144
 20
-83.725054
 30
827.839574
 70
    64
  0
VERTEX
  5
274
  8
TEAM-NET
 10
-150.02628
 20
-62.679149
 30
830.248665
 70
    64
  0
VERTEX
  5
275
  8
TEAM-NET
 10
-129.160426
 20
-44.222385
 30
832.995707
 70
    64
  0
VERTEX
  5
276
  8
TEAM-NET
 10
-106.0846
 20
-28.670564
 30
836.033697
 70
    64
  0
VERTEX
  5
277
  8
TEAM-NET
 10
-81.193638
 20
-16.28978
 30
839.310655
 70
    64
  0
VERTEX
  5
278
  8
TEAM-NET
 10
-54.91343
 20
-7.291873
 30
842.77051
 70
    64
  0
VERTEX
  5
279
  8
TEAM-NET
 10
-27.693638
 20
-1.8308
 30
846.354063
 70
    64
  0
VERTEX
  5
27A
  8
TEAM-NET
 10
0.0
 20
0.0
 30
850.0
 70
    64
  0
VERTEX
  5
27B
  8
TEAM-NET
 10
0.0
 20
-428.0
 30
850.0
 70
    64
  0
VERTEX
  5
27C
  8
TEAM-NET
 10
-27.932605
 20
-426.1692
 30
850.0
 70
    64
  0
VERTEX
  5
27D
  8
TEAM-NET
 10
-55.387276
 20
-420.708127
 30
850.0
 70
    64
  0
VERTEX
  5
27E
  8
TEAM-NET
 10
-81.894255
 20
-411.71022
 30
850.0
 70
    64
  0
VERTEX
  5
27F
  8
TEAM-NET
 10
-107.0
 20
-399.329436
 30
850.0
 70
    64
  0
VERTEX
  5
280
  8
TEAM-NET
 10
-130.274946
 20
-383.777615
 30
850.0
 70
    64
  0
VERTEX
  5
281
  8
TEAM-NET
 10
-151.320851
 20
-365.320851
 30
850.0
 70
    64
  0
VERTEX
  5
282
  8
TEAM-NET
 10
-169.777615
 20
-344.274946
 30
850.0
 70
    64
  0
VERTEX
  5
283
  8
TEAM-NET
 10
-185.329436
 20
-321.0
 30
850.0
 70
    64
  0
VERTEX
  5
284
  8
TEAM-NET
 10
-197.71022
 20
-295.894255
 30
850.0
 70
    64
  0
VERTEX
  5
285
  8
TEAM-NET
 10
-206.708127
 20
-269.387276
 30
850.0
 70
    64
  0
VERTEX
  5
286
  8
TEAM-NET
 10
-212.1692
 20
-241.932605
 30
850.0
 70
    64
  0
VERTEX
  5
287
  8
TEAM-NET
 10
-214.0
 20
-214.0
 30
850.0
 70
    64
  0
VERTEX
  5
288
  8
TEAM-NET
 10
-212.1692
 20
-186.067395
 30
850.0
 70
    64
  0
VERTEX
  5
289
  8
TEAM-NET
 10
-206.708127
 20
-158.612724
 30
850.0
 70
    64
  0
VERTEX
  5
28A
  8
TEAM-NET
 10
-197.71022
 20
-132.105745
 30
850.0
 70
    64
  0
VERTEX
  5
28B
  8
TEAM-NET
 10
-185.329436
 20
-107.0
 30
850.0
 70
    64
  0
VERTEX
  5
28C
  8
TEAM-NET
 10
-169.777615
 20
-83.725054
 30
850.0
 70
    64
  0
VERTEX
  5
28D
  8
TEAM-NET
 10
-151.320851
 20
-62.679149
 30
850.0
 70
    64
  0
VERTEX
  5
28E
  8
TEAM-NET
 10
-130.274946
 20
-44.222385
 30
850.0
 70
    64
  0
VERTEX
  5
28F
  8
TEAM-NET
 10
-107.0
 20
-28.670564
 30
850.0
 70
    64
  0
VERTEX
  5
290
  8
TEAM-NET
 10
-81.894255
 20
-16.28978
 30
850.0
 70
    64
  0
VERTEX
  5
291
  8
TEAM-NET
 10
-55.387276
 20
-7.291873
 30
850.0
 70
    64
  0
VERTEX
  5
292
  8
TEAM-NET
 10
-27.932605
 20
-1.8308
 30
850.0
 70
    64
  0
VERTEX
  5
293
  8
TEAM-NET
 10
0.0
 20
0.0
 30
850.0
 70
    64
  0
SEQEND
  5
295
  8
TEAM-NET
  0
POLYLINE
  5
296
  8
TEAM-NET
 66
     1
 10
0.0
 20
0.0
 30
0.0
 70
    16
 71
    25
 72
    25
  0
VERTEX
  5
297
  8
TEAM-NET
 10
0.0
 20
-400.564103
 30
850.0
 70
    64
  0
VERTEX
  5
298
  8
TEAM-NET
 10
24.351502
 20
-398.968021
 30
850.0
 70
    64
  0
VERTEX
  5
299
  8
TEAM-NET
 10
48.286343
 20
-394.207085
 30
850.0
 70
    64
  0
VERTEX
  5
29A
  8
TEAM-NET
 10
71.394991
 20
-386.362756
 30
850.0
 70
    64
  0
VERTEX
  5
29B
  8
TEAM-NET
 10
93.282051
 20
-375.569252
 30
850.0
 70
    64
  0
VERTEX
  5
29C
  8
TEAM-NET
 10
113.57303
 20
-362.011254
 30
850.0
 70
    64
  0
VERTEX
  5
29D
  8
TEAM-NET
 10
131.920742
 20
-345.920742
 30
850.0
 70
    64
  0
VERTEX
  5
29E
  8
TEAM-NET
 10
148.011254
 20
-327.57303
 30
850.0
 70
    64
  0
VERTEX
  5
29F
  8
TEAM-NET
 10
161.569252
 20
-307.282051
 30
850.0
 70
    64
  0
VERTEX
  5
2A0
  8
TEAM-NET
 10
172.362756
 20
-285.394991
 30
850.0
 70
    64
  0
VERTEX
  5
2A1
  8
TEAM-NET
 10
180.207085
 20
-262.286343
 30
850.0
 70
    64
  0
VERTEX
  5
2A2
  8
TEAM-NET
 10
184.968021
 20
-238.351502
 30
850.0
 70
    64
  0
VERTEX
  5
2A3
  8
TEAM-NET
 10
186.564103
 20
-214.0
 30
850.0
 70
    64
  0
VERTEX
  5
2A4
  8
TEAM-NET
 10
184.968021
 20
-189.648498
 30
850.0
 70
    64
  0
VERTEX
  5
2A5
  8
TEAM-NET
 10
180.207085
 20
-165.713657
 30
850.0
 70
    64
  0
VERTEX
  5
2A6
  8
TEAM-NET
 10
172.362756
 20
-142.605009
 30
850.0
 70
    64
  0
VERTEX
  5
2A7
  8
TEAM-NET
 10
161.569252
 20
-120.717949
 30
850.0
 70
    64
  0
VERTEX
  5
2A8
  8
TEAM-NET
 10
148.011254
 20
-100.42697
 30
850.0
 70
    64
  0
VERTEX
  5
2A9
  8
TEAM-NET
 10
131.920742
 20
-82.079258
 30
850.0
 70
    64
  0
VERTEX
  5
2AA
  8
TEAM-NET
 10
113.57303
 20
-65.988746
 30
850.0
 70
    64
  0
VERTEX
  5
2AB
  8
TEAM-NET
 10
93.282051
 20
-52.430748
 30
850.0
 70
    64
  0
VERTEX
  5
2AC
  8
TEAM-NET
 10
71.394991
 20
-41.637244
 30
850.0
 70
    64
  0
VERTEX
  5
2AD
  8
TEAM-NET
 10
48.286343
 20
-33.792915
 30
850.0
 70
    64
  0
VERTEX
  5
2AE
  8
TEAM-NET
 10
24.351502
 20
-29.031979
 30
850.0
 70
    64
  0
VERTEX
  5
2AF
  8
TEAM-NET
 10
0.0
 20
-27.435897
 30
850.0
 70
    64
  0
VERTEX
  5
2B0
  8
TEAM-NET
 10
0.0
 20
-400.564103
 30
850.0
 70
    64
  0
VERTEX
  5
2B1
  8
TEAM-NET
 10
24.143171
 20
-398.968021
 30
846.821491
 70
    64
  0
VERTEX
  5
2B2
  8
TEAM-NET
 10
47.873247
 20
-394.207085
 30
843.697368
 70
    64
  0
VERTEX
  5
2B3
  8
TEAM-NET
 10
70.784197
 20
-386.362756
 30
840.681084
 70
    64
  0
VERTEX
  5
2B4
  8
TEAM-NET
 10
92.48401
 20
-375.569252
 30
837.824249
 70
    64
  0
VERTEX
  5
2B5
  8
TEAM-NET
 10
112.601397
 20
-362.011254
 30
835.175745
 70
    64
  0
VERTEX
  5
2B6
  8
TEAM-NET
 10
130.792142
 20
-345.920742
 30
832.780888
 70
    64
  0
VERTEX
  5
2B7
  8
TEAM-NET
 10
146.744997
 20
-327.57303
 30
830.680655
 70
    64
  0
VERTEX
  5
2B8
  8
TEAM-NET
 10
160.187005
 20
-307.282051
 30
828.910981
 70
    64
  0
VERTEX
  5
2B9
  8
TEAM-NET
 10
170.888169
 20
-285.394991
 30
827.502146
 70
    64
  0
VERTEX
  5
2BA
  8
TEAM-NET
 10
178.665388
 20
-262.286343
 30
826.478255
 70
    64
  0
VERTEX
  5
2BB
  8
TEAM-NET
 10
183.385594
 20
-238.351502
 30
825.856829
 70
    64
  0
VERTEX
  5
2BC
  8
TEAM-NET
 10
184.968021
 20
-214.0
 30
825.648498
 70
    64
  0
VERTEX
  5
2BD
  8
TEAM-NET
 10
183.385594
 20
-189.648498
 30
825.856829
 70
    64
  0
VERTEX
  5
2BE
  8
TEAM-NET
 10
178.665388
 20
-165.713657
 30
826.478255
 70
    64
  0
VERTEX
  5
2BF
  8
TEAM-NET
 10
170.888169
 20
-142.605009
 30
827.502146
 70
    64
  0
VERTEX
  5
2C0
  8
TEAM-NET
 10
160.187005
 20
-120.717949
 30
828.910981
 70
    64
  0
VERTEX
  5
2C1
  8
TEAM-NET
 10
146.744997
 20
-100.42697
 30
830.680655
 70
    64
  0
VERTEX
  5
2C2
  8
TEAM-NET
 10
130.792142
 20
-82.079258
 30
832.780888
 70
    64
  0
VERTEX
  5
2C3
  8
TEAM-NET
 10
112.601397
 20
-65.988746
 30
835.175745
 70
    64
  0
VERTEX
  5
2C4
  8
TEAM-NET
 10
92.48401
 20
-52.430748
 30
837.824249
 70
    64
  0
VERTEX
  5
2C5
  8
TEAM-NET
 10
70.784197
 20
-41.637244
 30
840.681084
 70
    64
  0
VERTEX
  5
2C6
  8
TEAM-NET
 10
47.873247
 20
-33.792915
 30
843.697368
 70
    64
  0
VERTEX
  5
2C7
  8
TEAM-NET
 10
24.143171
 20
-29.031979
 30
846.821491
 70
    64
  0
VERTEX
  5
2C8
  8
TEAM-NET
 10
0.0
 20
-27.435897
 30
850.0
 70
    64
  0
VERTEX
  5
2C9
  8
TEAM-NET
 10
0.0
 20
-400.564103
 30
850.0
 70
    64
  0
VERTEX
  5
2CA
  8
TEAM-NET
 10
23.521745
 20
-398.968021
 30
843.697368
 70
    64
  0
VERTEX
  5
2CB
  8
TEAM-NET
 10
46.641026
 20
-394.207085
 30
837.502575
 70
    64
  0
VERTEX
  5
2CC
  8
TEAM-NET
 10
68.962266
 20
-386.362756
 30
831.521617
 70
    64
  0
VERTEX
  5
2CD
  8
TEAM-NET
 10
90.103542
 20
-375.569252
 30
825.856829
 70
    64
  0
VERTEX
  5
2CE
  8
TEAM-NET
 10
109.703123
 20
-362.011254
 30
820.605137
 70
    64
  0
VERTEX
  5
2CF
  8
TEAM-NET
 10
127.425652
 20
-345.920742
 30
815.8564
 70
    64
  0
VERTEX
  5
2D0
  8
TEAM-NET
 10
142.967893
 20
-327.57303
 30
811.691869
 70
    64
  0
VERTEX
  5
2D1
  8
TEAM-NET
 10
156.063913
 20
-307.282051
 30
808.1828
 70
    64
  0
VERTEX
  5
2D2
  8
TEAM-NET
 10
166.489637
 20
-285.394991
 30
805.389236
 70
    64
  0
VERTEX
  5
2D3
  8
TEAM-NET
 10
174.066677
 20
-262.286343
 30
803.358974
 70
    64
  0
VERTEX
  5
2D4
  8
TEAM-NET
 10
178.665388
 20
-238.351502
 30
802.126753
 70
    64
  0
VERTEX
  5
2D5
  8
TEAM-NET
 10
180.207085
 20
-214.0
 30
801.713657
 70
    64
  0
VERTEX
  5
2D6
  8
TEAM-NET
 10
178.665388
 20
-189.648498
 30
802.126753
 70
    64
  0
VERTEX
  5
2D7
  8
TEAM-NET
 10
174.066677
 20
-165.713657
 30
803.358974
 70
    64
  0
VERTEX
  5
2D8
  8
TEAM-NET
 10
166.489637
 20
-142.605009
 30
805.389236
 70
    64
  0
VERTEX
  5
2D9
  8
TEAM-NET
 10
156.063913
 20
-120.717949
 30
808.1828
 70
    64
  0
VERTEX
  5
2DA
  8
TEAM-NET
 10
142.967893
 20
-100.42697
 30
811.691869
 70
    64
  0
VERTEX
  5
2DB
  8
TEAM-NET
 10
127.425652
 20
-82.079258
 30
815.8564
 70
    64
  0
VERTEX
  5
2DC
  8
TEAM-NET
 10
109.703123
 20
-65.988746
 30
820.605137
 70
    64
  0
VERTEX
  5
2DD
  8
TEAM-NET
 10
90.103542
 20
-52.430748
 30
825.856829
 70
    64
  0
VERTEX
  5
2DE
  8
TEAM-NET
 10
68.962266
 20
-41.637244
 30
831.521617
 70
    64
  0
VERTEX
  5
2DF
  8
TEAM-NET
 10
46.641026
 20
-33.792915
 30
837.502575
 70
    64
  0
VERTEX
  5
2E0
  8
TEAM-NET
 10
23.521745
 20
-29.031979
 30
843.697368
 70
    64
  0
VERTEX
  5
2E1
  8
TEAM-NET
 10
0.0
 20
-27.435897
 30
850.0
 70
    64
  0
VERTEX
  5
2E2
  8
TEAM-NET
 10
0.0
 20
-400.564103
 30
850.0
 70
    64
  0
VERTEX
  5
2E3
  8
TEAM-NET
 10
22.497854
 20
-398.968021
 30
840.681084
 70
    64
  0
VERTEX
  5
2E4
  8
TEAM-NET
 10
44.610764
 20
-394.207085
 30
831.521617
 70
    64
  0
VERTEX
  5
2E5
  8
TEAM-NET
 10
65.960371
 20
-386.362756
 30
822.67832
 70
    64
  0
VERTEX
  5
2E6
  8
TEAM-NET
 10
86.181378
 20
-375.569252
 30
814.302504
 70
    64
  0
VERTEX
  5
2E7
  8
TEAM-NET
 10
104.927798
 20
-362.011254
 30
806.537483
 70
    64
  0
VERTEX
  5
2E8
  8
TEAM-NET
 10
121.878873
 20
-345.920742
 30
799.516118
 70
    64
  0
VERTEX
  5
2E9
  8
TEAM-NET
 10
136.744568
 20
-327.57303
 30
793.358545
 70
    64
  0
VERTEX
  5
2EA
  8
TEAM-NET
 10
149.270525
 20
-307.282051
 30
788.170124
 70
    64
  0
VERTEX
  5
2EB
  8
TEAM-NET
 10
159.242422
 20
-285.394991
 30
784.039629
 70
    64
  0
VERTEX
  5
2EC
  8
TEAM-NET
 10
166.489637
 20
-262.286343
 30
781.037734
 70
    64
  0
VERTEX
  5
2ED
  8
TEAM-NET
 10
170.888169
 20
-238.351502
 30
779.215803
 70
    64
  0
VERTEX
  5
2EE
  8
TEAM-NET
 10
172.362756
 20
-214.0
 30
778.605009
 70
    64
  0
VERTEX
  5
2EF
  8
TEAM-NET
 10
170.888169
 20
-189.648498
 30
779.215803
 70
    64
  0
VERTEX
  5
2F0
  8
TEAM-NET
 10
166.489637
 20
-165.713657
 30
781.037734
 70
    64
  0
VERTEX
  5
2F1
  8
TEAM-NET
 10
159.242422
 20
-142.605009
 30
784.039629
 70
    64
  0
VERTEX
  5
2F2
  8
TEAM-NET
 10
149.270525
 20
-120.717949
 30
788.170124
 70
    64
  0
VERTEX
  5
2F3
  8
TEAM-NET
 10
136.744568
 20
-100.42697
 30
793.358545
 70
    64
  0
VERTEX
  5
2F4
  8
TEAM-NET
 10
121.878873
 20
-82.079258
 30
799.516118
 70
    64
  0
VERTEX
  5
2F5
  8
TEAM-NET
 10
104.927798
 20
-65.988746
 30
806.537483
 70
    64
  0
VERTEX
  5
2F6
  8
TEAM-NET
 10
86.181378
 20
-52.430748
 30
814.302504
 70
    64
  0
VERTEX
  5
2F7
  8
TEAM-NET
 10
65.960371
 20
-41.637244
 30
822.67832
 70
    64
  0
VERTEX
  5
2F8
  8
TEAM-NET
 10
44.610764
 20
-33.792915
 30
831.521617
 70
    64
  0
VERTEX
  5
2F9
  8
TEAM-NET
 10
22.497854
 20
-29.031979
 30
840.681084
 70
    64
  0
VERTEX
  5
2FA
  8
TEAM-NET
 10
0.0
 20
-27.435897
 30
850.0
 70
    64
  0
VERTEX
  5
2FB
  8
TEAM-NET
 10
0.0
 20
-400.564103
 30
850.0
 70
    64
  0
VERTEX
  5
2FC
  8
TEAM-NET
 10
21.089019
 20
-398.968021
 30
837.824249
 70
    64
  0
VERTEX
  5
2FD
  8
TEAM-NET
 10
41.8172
 20
-394.207085
 30
825.856829
 70
    64
  0
VERTEX
  5
2FE
  8
TEAM-NET
 10
61.829876
 20
-386.362756
 30
814.302504
 70
    64
  0
VERTEX
  5
2FF
  8
TEAM-NET
 10
80.784626
 20
-375.569252
 30
803.358974
 70
    64
  0
VERTEX
  5
300
  8
TEAM-NET
 10
98.357129
 20
-362.011254
 30
793.213485
 70
    64
  0
VERTEX
  5
301
  8
TEAM-NET
 10
114.246714
 20
-345.920742
 30
784.039629
 70
    64
  0
VERTEX
  5
302
  8
TEAM-NET
 10
128.181506
 20
-327.57303
 30
775.994373
 70
    64
  0
VERTEX
  5
303
  8
TEAM-NET
 10
139.923077
 20
-307.282051
 30
769.215374
 70
    64
  0
VERTEX
  5
304
  8
TEAM-NET
 10
149.270525
 20
-285.394991
 30
763.818622
 70
    64
  0
VERTEX
  5
305
  8
TEAM-NET
 10
156.063913
 20
-262.286343
 30
759.896458
 70
    64
  0
VERTEX
  5
306
  8
TEAM-NET
 10
160.187005
 20
-238.351502
 30
757.51599
 70
    64
  0
VERTEX
  5
307
  8
TEAM-NET
 10
161.569252
 20
-214.0
 30
756.717949
 70
    64
  0
VERTEX
  5
308
  8
TEAM-NET
 10
160.187005
 20
-189.648498
 30
757.51599
 70
    64
  0
VERTEX
  5
309
  8
TEAM-NET
 10
156.063913
 20
-165.713657
 30
759.896458
 70
    64
  0
VERTEX
  5
30A
  8
TEAM-NET
 10
149.270525
 20
-142.605009
 30
763.818622
 70
    64
  0
VERTEX
  5
30B
  8
TEAM-NET
 10
139.923077
 20
-120.717949
 30
769.215374
 70
    64
  0
VERTEX
  5
30C
  8
TEAM-NET
 10
128.181506
 20
-100.42697
 30
775.994373
 70
    64
  0
VERTEX
  5
30D
  8
TEAM-NET
 10
114.246714
 20
-82.079258
 30
784.039629
 70
    64
  0
VERTEX
  5
30E
  8
TEAM-NET
 10
98.357129
 20
-65.988746
 30
793.213485
 70
    64
  0
VERTEX
  5
30F
  8
TEAM-NET
 10
80.784626
 20
-52.430748
 30
803.358974
 70
    64
  0
VERTEX
  5
310
  8
TEAM-NET
 10
61.829876
 20
-41.637244
 30
814.302504
 70
    64
  0
VERTEX
  5
311
  8
TEAM-NET
 10
41.8172
 20
-33.792915
 30
825.856829
 70
    64
  0
VERTEX
  5
312
  8
TEAM-NET
 10
21.089019
 20
-29.031979
 30
837.824249
 70
    64
  0
VERTEX
  5
313
  8
TEAM-NET
 10
0.0
 20
-27.435897
 30
850.0
 70
    64
  0
VERTEX
  5
314
  8
TEAM-NET
 10
0.0
 20
-400.564103
 30
850.0
 70
    64
  0
VERTEX
  5
315
  8
TEAM-NET
 10
19.319345
 20
-398.968021
 30
835.175745
 70
    64
  0
VERTEX
  5
316
  8
TEAM-NET
 10
38.308131
 20
-394.207085
 30
820.605137
 70
    64
  0
VERTEX
  5
317
  8
TEAM-NET
 10
56.641455
 20
-386.362756
 30
806.537483
 70
    64
  0
VERTEX
  5
318
  8
TEAM-NET
 10
74.005627
 20
-375.569252
 30
793.213485
 70
    64
  0
VERTEX
  5
319
  8
TEAM-NET
 10
90.103542
 20
-362.011254
 30
780.86112
 70
    64
  0
VERTEX
  5
31A
  8
TEAM-NET
 10
104.659761
 20
-345.920742
 30
769.691741
 70
    64
  0
VERTEX
  5
31B
  8
TEAM-NET
 10
117.425223
 20
-327.57303
 30
759.896458
 70
    64
  0
VERTEX
  5
31C
  8
TEAM-NET
 10
128.181506
 20
-307.282051
 30
751.642871
 70
    64
  0
VERTEX
  5
31D
  8
TEAM-NET
 10
136.744568
 20
-285.394991
 30
745.072202
 70
    64
  0
VERTEX
  5
31E
  8
TEAM-NET
 10
142.967893
 20
-262.286343
 30
740.296877
 70
    64
  0
VERTEX
  5
31F
  8
TEAM-NET
 10
146.744997
 20
-238.351502
 30
737.398603
 70
    64
  0
VERTEX
  5
320
  8
TEAM-NET
 10
148.011254
 20
-214.0
 30
736.42697
 70
    64
  0
VERTEX
  5
321
  8
TEAM-NET
 10
146.744997
 20
-189.648498
 30
737.398603
 70
    64
  0
VERTEX
  5
322
  8
TEAM-NET
 10
142.967893
 20
-165.713657
 30
740.296877
 70
    64
  0
VERTEX
  5
323
  8
TEAM-NET
 10
136.744568
 20
-142.605009
 30
745.072202
 70
    64
  0
VERTEX
  5
324
  8
TEAM-NET
 10
128.181506
 20
-120.717949
 30
751.642871
 70
    64
  0
VERTEX
  5
325
  8
TEAM-NET
 10
117.425223
 20
-100.42697
 30
759.896458
 70
    64
  0
VERTEX
  5
326
  8
TEAM-NET
 10
104.659761
 20
-82.079258
 30
769.691741
 70
    64
  0
VERTEX
  5
327
  8
TEAM-NET
 10
90.103542
 20
-65.988746
 30
780.86112
 70
    64
  0
VERTEX
  5
328
  8
TEAM-NET
 10
74.005627
 20
-52.430748
 30
793.213485
 70
    64
  0
VERTEX
  5
329
  8
TEAM-NET
 10
56.641455
 20
-41.637244
 30
806.537483
 70
    64
  0
VERTEX
  5
32A
  8
TEAM-NET
 10
38.308131
 20
-33.792915
 30
820.605137
 70
    64
  0
VERTEX
  5
32B
  8
TEAM-NET
 10
19.319345
 20
-29.031979
 30
835.175745
 70
    64
  0
VERTEX
  5
32C
  8
TEAM-NET
 10
0.0
 20
-27.435897
 30
850.0
 70
    64
  0
VERTEX
  5
32D
  8
TEAM-NET
 10
0.0
 20
-400.564103
 30
850.0
 70
    64
  0
VERTEX
  5
32E
  8
TEAM-NET
 10
17.219112
 20
-398.968021
 30
832.780888
 70
    64
  0
VERTEX
  5
32F
  8
TEAM-NET
 10
34.1436
 20
-394.207085
 30
815.8564
 70
    64
  0
VERTEX
  5
330
  8
TEAM-NET
 10
50.483882
 20
-386.362756
 30
799.516118
 70
    64
  0
VERTEX
  5
331
  8
TEAM-NET
 10
65.960371
 20
-375.569252
 30
784.039629
 70
    64
  0
VERTEX
  5
332
  8
TEAM-NET
 10
80.308259
 20
-362.011254
 30
769.691741
 70
    64
  0
VERTEX
  5
333
  8
TEAM-NET
 10
93.282051
 20
-345.920742
 30
756.717949
 70
    64
  0
VERTEX
  5
334
  8
TEAM-NET
 10
104.659761
 20
-327.57303
 30
745.340239
 70
    64
  0
VERTEX
  5
335
  8
TEAM-NET
 10
114.246714
 20
-307.282051
 30
735.753286
 70
    64
  0
VERTEX
  5
336
  8
TEAM-NET
 10
121.878873
 20
-285.394991
 30
728.121127
 70
    64
  0
VERTEX
  5
337
  8
TEAM-NET
 10
127.425652
 20
-262.286343
 30
722.574348
 70
    64
  0
VERTEX
  5
338
  8
TEAM-NET
 10
130.792142
 20
-238.351502
 30
719.207858
 70
    64
  0
VERTEX
  5
339
  8
TEAM-NET
 10
131.920742
 20
-214.0
 30
718.079258
 70
    64
  0
VERTEX
  5
33A
  8
TEAM-NET
 10
130.792142
 20
-189.648498
 30
719.207858
 70
    64
  0
VERTEX
  5
33B
  8
TEAM-NET
 10
127.425652
 20
-165.713657
 30
722.574348
 70
    64
  0
VERTEX
  5
33C
  8
TEAM-NET
 10
121.878873
 20
-142.605009
 30
728.121127
 70
    64
  0
VERTEX
  5
33D
  8
TEAM-NET
 10
114.246714
 20
-120.717949
 30
735.753286
 70
    64
  0
VERTEX
  5
33E
  8
TEAM-NET
 10
104.659761
 20
-100.42697
 30
745.340239
 70
    64
  0
VERTEX
  5
33F
  8
TEAM-NET
 10
93.282051
 20
-82.079258
 30
756.717949
 70
    64
  0
VERTEX
  5
340
  8
TEAM-NET
 10
80.308259
 20
-65.988746
 30
769.691741
 70
    64
  0
VERTEX
  5
341
  8
TEAM-NET
 10
65.960371
 20
-52.430748
 30
784.039629
 70
    64
  0
VERTEX
  5
342
  8
TEAM-NET
 10
50.483882
 20
-41.637244
 30
799.516118
 70
    64
  0
VERTEX
  5
343
  8
TEAM-NET
 10
34.1436
 20
-33.792915
 30
815.8564
 70
    64
  0
VERTEX
  5
344
  8
TEAM-NET
 10
17.219112
 20
-29.031979
 30
832.780888
 70
    64
  0
VERTEX
  5
345
  8
TEAM-NET
 10
0.0
 20
-27.435897
 30
850.0
 70
    64
  0
VERTEX
  5
346
  8
TEAM-NET
 10
0.0
 20
-400.564103
 30
850.0
 70
    64
  0
VERTEX
  5
347
  8
TEAM-NET
 10
14.824255
 20
-398.968021
 30
830.680655
 70
    64
  0
VERTEX
  5
348
  8
TEAM-NET
 10
29.394863
 20
-394.207085
 30
811.691869
 70
    64
  0
VERTEX
  5
349
  8
TEAM-NET
 10
43.462517
 20
-386.362756
 30
793.358545
 70
    64
  0
VERTEX
  5
34A
  8
TEAM-NET
 10
56.786515
 20
-375.569252
 30
775.994373
 70
    64
  0
VERTEX
  5
34B
  8
TEAM-NET
 10
69.13888
 20
-362.011254
 30
759.896458
 70
    64
  0
VERTEX
  5
34C
  8
TEAM-NET
 10
80.308259
 20
-345.920742
 30
745.340239
 70
    64
  0
VERTEX
  5
34D
  8
TEAM-NET
 10
90.103542
 20
-327.57303
 30
732.574777
 70
    64
  0
VERTEX
  5
34E
  8
TEAM-NET
 10
98.357129
 20
-307.282051
 30
721.818494
 70
    64
  0
VERTEX
  5
34F
  8
TEAM-NET
 10
104.927798
 20
-285.394991
 30
713.255432
 70
    64
  0
VERTEX
  5
350
  8
TEAM-NET
 10
109.703123
 20
-262.286343
 30
707.032107
 70
    64
  0
VERTEX
  5
351
  8
TEAM-NET
 10
112.601397
 20
-238.351502
 30
703.255003
 70
    64
  0
VERTEX
  5
352
  8
TEAM-NET
 10
113.57303
 20
-214.0
 30
701.988746
 70
    64
  0
VERTEX
  5
353
  8
TEAM-NET
 10
112.601397
 20
-189.648498
 30
703.255003
 70
    64
  0
VERTEX
  5
354
  8
TEAM-NET
 10
109.703123
 20
-165.713657
 30
707.032107
 70
    64
  0
VERTEX
  5
355
  8
TEAM-NET
 10
104.927798
 20
-142.605009
 30
713.255432
 70
    64
  0
VERTEX
  5
356
  8
TEAM-NET
 10
98.357129
 20
-120.717949
 30
721.818494
 70
    64
  0
VERTEX
  5
357
  8
TEAM-NET
 10
90.103542
 20
-100.42697
 30
732.574777
 70
    64
  0
VERTEX
  5
358
  8
TEAM-NET
 10
80.308259
 20
-82.079258
 30
745.340239
 70
    64
  0
VERTEX
  5
359
  8
TEAM-NET
 10
69.13888
 20
-65.988746
 30
759.896458
 70
    64
  0
VERTEX
  5
35A
  8
TEAM-NET
 10
56.786515
 20
-52.430748
 30
775.994373
 70
    64
  0
VERTEX
  5
35B
  8
TEAM-NET
 10
43.462517
 20
-41.637244
 30
793.358545
 70
    64
  0
VERTEX
  5
35C
  8
TEAM-NET
 10
29.394863
 20
-33.792915
 30
811.691869
 70
    64
  0
VERTEX
  5
35D
  8
TEAM-NET
 10
14.824255
 20
-29.031979
 30
830.680655
 70
    64
  0
VERTEX
  5
35E
  8
TEAM-NET
 10
0.0
 20
-27.435897
 30
850.0
 70
    64
  0
VERTEX
  5
35F
  8
TEAM-NET
 10
0.0
 20
-400.564103
 30
850.0
 70
    64
  0
VERTEX
  5
360
  8
TEAM-NET
 10
12.175751
 20
-398.968021
 30
828.910981
 70
    64
  0
VERTEX
  5
361
  8
TEAM-NET
 10
24.143171
 20
-394.207085
 30
808.1828
 70
    64
  0
VERTEX
  5
362
  8
TEAM-NET
 10
35.697496
 20
-386.362756
 30
788.170124
 70
    64
  0
VERTEX
  5
363
  8
TEAM-NET
 10
46.641026
 20
-375.569252
 30
769.215374
 70
    64
  0
VERTEX
  5
364
  8
TEAM-NET
 10
56.786515
 20
-362.011254
 30
751.642871
 70
    64
  0
VERTEX
  5
365
  8
TEAM-NET
 10
65.960371
 20
-345.920742
 30
735.753286
 70
    64
  0
VERTEX
  5
366
  8
TEAM-NET
 10
74.005627
 20
-327.57303
 30
721.818494
 70
    64
  0
VERTEX
  5
367
  8
TEAM-NET
 10
80.784626
 20
-307.282051
 30
710.076923
 70
    64
  0
VERTEX
  5
368
  8
TEAM-NET
 10
86.181378
 20
-285.394991
 30
700.729475
 70
    64
  0
VERTEX
  5
369
  8
TEAM-NET
 10
90.103542
 20
-262.286343
 30
693.936087
 70
    64
  0
VERTEX
  5
36A
  8
TEAM-NET
 10
92.48401
 20
-238.351502
 30
689.812995
 70
    64
  0
VERTEX
  5
36B
  8
TEAM-NET
 10
93.282051
 20
-214.0
 30
688.430748
 70
    64
  0
VERTEX
  5
36C
  8
TEAM-NET
 10
92.48401
 20
-189.648498
 30
689.812995
 70
    64
  0
VERTEX
  5
36D
  8
TEAM-NET
 10
90.103542
 20
-165.713657
 30
693.936087
 70
    64
  0
VERTEX
  5
36E
  8
TEAM-NET
 10
86.181378
 20
-142.605009
 30
700.729475
 70
    64
  0
VERTEX
  5
36F
  8
TEAM-NET
 10
80.784626
 20
-120.717949
 30
710.076923
 70
    64
  0
VERTEX
  5
370
  8
TEAM-NET
 10
74.005627
 20
-100.42697
 30
721.818494
 70
    64
  0
VERTEX
  5
371
  8
TEAM-NET
 10
65.960371
 20
-82.079258
 30
735.753286
 70
    64
  0
VERTEX
  5
372
  8
TEAM-NET
 10
56.786515
 20
-65.988746
 30
751.642871
 70
    64
  0
VERTEX
  5
373
  8
TEAM-NET
 10
46.641026
 20
-52.430748
 30
769.215374
 70
    64
  0
VERTEX
  5
374
  8
TEAM-NET
 10
35.697496
 20
-41.637244
 30
788.170124
 70
    64
  0
VERTEX
  5
375
  8
TEAM-NET
 10
24.143171
 20
-33.792915
 30
808.1828
 70
    64
  0
VERTEX
  5
376
  8
TEAM-NET
 10
12.175751
 20
-29.031979
 30
828.910981
 70
    64
  0
VERTEX
  5
377
  8
TEAM-NET
 10
0.0
 20
-27.435897
 30
850.0
 70
    64
  0
VERTEX
  5
378
  8
TEAM-NET
 10
0.0
 20
-400.564103
 30
850.0
 70
    64
  0
VERTEX
  5
379
  8
TEAM-NET
 10
9.318916
 20
-398.968021
 30
827.502146
 70
    64
  0
VERTEX
  5
37A
  8
TEAM-NET
 10
18.478383
 20
-394.207085
 30
805.389236
 70
    64
  0
VERTEX
  5
37B
  8
TEAM-NET
 10
27.32168
 20
-386.362756
 30
784.039629
 70
    64
  0
VERTEX
  5
37C
  8
TEAM-NET
 10
35.697496
 20
-375.569252
 30
763.818622
 70
    64
  0
VERTEX
  5
37D
  8
TEAM-NET
 10
43.462517
 20
-362.011254
 30
745.072202
 70
    64
  0
VERTEX
  5
37E
  8
TEAM-NET
 10
50.483882
 20
-345.920742
 30
728.121127
 70
    64
  0
VERTEX
  5
37F
  8
TEAM-NET
 10
56.641455
 20
-327.57303
 30
713.255432
 70
    64
  0
VERTEX
  5
380
  8
TEAM-NET
 10
61.829876
 20
-307.282051
 30
700.729475
 70
    64
  0
VERTEX
  5
381
  8
TEAM-NET
 10
65.960371
 20
-285.394991
 30
690.757578
 70
    64
  0
VERTEX
  5
382
  8
TEAM-NET
 10
68.962266
 20
-262.286343
 30
683.510363
 70
    64
  0
VERTEX
  5
383
  8
TEAM-NET
 10
70.784197
 20
-238.351502
 30
679.111831
 70
    64
  0
VERTEX
  5
384
  8
TEAM-NET
 10
71.394991
 20
-214.0
 30
677.637244
 70
    64
  0
VERTEX
  5
385
  8
TEAM-NET
 10
70.784197
 20
-189.648498
 30
679.111831
 70
    64
  0
VERTEX
  5
386
  8
TEAM-NET
 10
68.962266
 20
-165.713657
 30
683.510363
 70
    64
  0
VERTEX
  5
387
  8
TEAM-NET
 10
65.960371
 20
-142.605009
 30
690.757578
 70
    64
  0
VERTEX
  5
388
  8
TEAM-NET
 10
61.829876
 20
-120.717949
 30
700.729475
 70
    64
  0
VERTEX
  5
389
  8
TEAM-NET
 10
56.641455
 20
-100.42697
 30
713.255432
 70
    64
  0
VERTEX
  5
38A
  8
TEAM-NET
 10
50.483882
 20
-82.079258
 30
728.121127
 70
    64
  0
VERTEX
  5
38B
  8
TEAM-NET
 10
43.462517
 20
-65.988746
 30
745.072202
 70
    64
  0
VERTEX
  5
38C
  8
TEAM-NET
 10
35.697496
 20
-52.430748
 30
763.818622
 70
    64
  0
VERTEX
  5
38D
  8
TEAM-NET
 10
27.32168
 20
-41.637244
 30
784.039629
 70
    64
  0
VERTEX
  5
38E
  8
TEAM-NET
 10
18.478383
 20
-33.792915
 30
805.389236
 70
    64
  0
VERTEX
  5
38F
  8
TEAM-NET
 10
9.318916
 20
-29.031979
 30
827.502146
 70
    64
  0
VERTEX
  5
390
  8
TEAM-NET
 10
0.0
 20
-27.435897
 30
850.0
 70
    64
  0
VERTEX
  5
391
  8
TEAM-NET
 10
0.0
 20
-400.564103
 30
850.0
 70
    64
  0
VERTEX
  5
392
  8
TEAM-NET
 10
6.302632
 20
-398.968021
 30
826.478255
 70
    64
  0
VERTEX
  5
393
  8
TEAM-NET
 10
12.497425
 20
-394.207085
 30
803.358974
 70
    64
  0
VERTEX
  5
394
  8
TEAM-NET
 10
18.478383
 20
-386.362756
 30
781.037734
 70
    64
  0
VERTEX
  5
395
  8
TEAM-NET
 10
24.143171
 20
-375.569252
 30
759.896458
 70
    64
  0
VERTEX
  5
396
  8
TEAM-NET
 10
29.394863
 20
-362.011254
 30
740.296877
 70
    64
  0
VERTEX
  5
397
  8
TEAM-NET
 10
34.1436
 20
-345.920742
 30
722.574348
 70
    64
  0
VERTEX
  5
398
  8
TEAM-NET
 10
38.308131
 20
-327.57303
 30
707.032107
 70
    64
  0
VERTEX
  5
399
  8
TEAM-NET
 10
41.8172
 20
-307.282051
 30
693.936087
 70
    64
  0
VERTEX
  5
39A
  8
TEAM-NET
 10
44.610764
 20
-285.394991
 30
683.510363
 70
    64
  0
VERTEX
  5
39B
  8
TEAM-NET
 10
46.641026
 20
-262.286343
 30
675.933323
 70
    64
  0
VERTEX
  5
39C
  8
TEAM-NET
 10
47.873247
 20
-238.351502
 30
671.334612
 70
    64
  0
VERTEX
  5
39D
  8
TEAM-NET
 10
48.286343
 20
-214.0
 30
669.792915
 70
    64
  0
VERTEX
  5
39E
  8
TEAM-NET
 10
47.873247
 20
-189.648498
 30
671.334612
 70
    64
  0
VERTEX
  5
39F
  8
TEAM-NET
 10
46.641026
 20
-165.713657
 30
675.933323
 70
    64
  0
VERTEX
  5
3A0
  8
TEAM-NET
 10
44.610764
 20
-142.605009
 30
683.510363
 70
    64
  0
VERTEX
  5
3A1
  8
TEAM-NET
 10
41.8172
 20
-120.717949
 30
693.936087
 70
    64
  0
VERTEX
  5
3A2
  8
TEAM-NET
 10
38.308131
 20
-100.42697
 30
707.032107
 70
    64
  0
VERTEX
  5
3A3
  8
TEAM-NET
 10
34.1436
 20
-82.079258
 30
722.574348
 70
    64
  0
VERTEX
  5
3A4
  8
TEAM-NET
 10
29.394863
 20
-65.988746
 30
740.296877
 70
    64
  0
VERTEX
  5
3A5
  8
TEAM-NET
 10
24.143171
 20
-52.430748
 30
759.896458
 70
    64
  0
VERTEX
  5
3A6
  8
TEAM-NET
 10
18.478383
 20
-41.637244
 30
781.037734
 70
    64
  0
VERTEX
  5
3A7
  8
TEAM-NET
 10
12.497425
 20
-33.792915
 30
803.358974
 70
    64
  0
VERTEX
  5
3A8
  8
TEAM-NET
 10
6.302632
 20
-29.031979
 30
826.478255
 70
    64
  0
VERTEX
  5
3A9
  8
TEAM-NET
 10
0.0
 20
-27.435897
 30
850.0
 70
    64
  0
VERTEX
  5
3AA
  8
TEAM-NET
 10
0.0
 20
-400.564103
 30
850.0
 70
    64
  0
VERTEX
  5
3AB
  8
TEAM-NET
 10
3.178509
 20
-398.968021
 30
825.856829
 70
    64
  0
VERTEX
  5
3AC
  8
TEAM-NET
 10
6.302632
 20
-394.207085
 30
802.126753
 70
    64
  0
VERTEX
  5
3AD
  8
TEAM-NET
 10
9.318916
 20
-386.362756
 30
779.215803
 70
    64
  0
VERTEX
  5
3AE
  8
TEAM-NET
 10
12.175751
 20
-375.569252
 30
757.51599
 70
    64
  0
VERTEX
  5
3AF
  8
TEAM-NET
 10
14.824255
 20
-362.011254
 30
737.398603
 70
    64
  0
VERTEX
  5
3B0
  8
TEAM-NET
 10
17.219112
 20
-345.920742
 30
719.207858
 70
    64
  0
VERTEX
  5
3B1
  8
TEAM-NET
 10
19.319345
 20
-327.57303
 30
703.255003
 70
    64
  0
VERTEX
  5
3B2
  8
TEAM-NET
 10
21.089019
 20
-307.282051
 30
689.812995
 70
    64
  0
VERTEX
  5
3B3
  8
TEAM-NET
 10
22.497854
 20
-285.394991
 30
679.111831
 70
    64
  0
VERTEX
  5
3B4
  8
TEAM-NET
 10
23.521745
 20
-262.286343
 30
671.334612
 70
    64
  0
VERTEX
  5
3B5
  8
TEAM-NET
 10
24.143171
 20
-238.351502
 30
666.614406
 70
    64
  0
VERTEX
  5
3B6
  8
TEAM-NET
 10
24.351502
 20
-214.0
 30
665.031979
 70
    64
  0
VERTEX
  5
3B7
  8
TEAM-NET
 10
24.143171
 20
-189.648498
 30
666.614406
 70
    64
  0
VERTEX
  5
3B8
  8
TEAM-NET
 10
23.521745
 20
-165.713657
 30
671.334612
 70
    64
  0
VERTEX
  5
3B9
  8
TEAM-NET
 10
22.497854
 20
-142.605009
 30
679.111831
 70
    64
  0
VERTEX
  5
3BA
  8
TEAM-NET
 10
21.089019
 20
-120.717949
 30
689.812995
 70
    64
  0
VERTEX
  5
3BB
  8
TEAM-NET
 10
19.319345
 20
-100.42697
 30
703.255003
 70
    64
  0
VERTEX
  5
3BC
  8
TEAM-NET
 10
17.219112
 20
-82.079258
 30
719.207858
 70
    64
  0
VERTEX
  5
3BD
  8
TEAM-NET
 10
14.824255
 20
-65.988746
 30
737.398603
 70
    64
  0
VERTEX
  5
3BE
  8
TEAM-NET
 10
12.175751
 20
-52.430748
 30
757.51599
 70
    64
  0
VERTEX
  5
3BF
  8
TEAM-NET
 10
9.318916
 20
-41.637244
 30
779.215803
 70
    64
  0
VERTEX
  5
3C0
  8
TEAM-NET
 10
6.302632
 20
-33.792915
 30
802.126753
 70
    64
  0
VERTEX
  5
3C1
  8
TEAM-NET
 10
3.178509
 20
-29.031979
 30
825.856829
 70
    64
  0
VERTEX
  5
3C2
  8
TEAM-NET
 10
0.0
 20
-27.435897
 30
850.0
 70
    64
  0
VERTEX
  5
3C3
  8
TEAM-NET
 10
0.0
 20
-400.564103
 30
850.0
 70
    64
  0
VERTEX
  5
3C4
  8
TEAM-NET
 10
0.0
 20
-398.968021
 30
825.648498
 70
    64
  0
VERTEX
  5
3C5
  8
TEAM-NET
 10
0.0
 20
-394.207085
 30
801.713657
 70
    64
  0
VERTEX
  5
3C6
  8
TEAM-NET
 10
0.0
 20
-386.362756
 30
778.605009
 70
    64
  0
VERTEX
  5
3C7
  8
TEAM-NET
 10
0.0
 20
-375.569252
 30
756.717949
 70
    64
  0
VERTEX
  5
3C8
  8
TEAM-NET
 10
0.0
 20
-362.011254
 30
736.42697
 70
    64
  0
VERTEX
  5
3C9
  8
TEAM-NET
 10
0.0
 20
-345.920742
 30
718.079258
 70
    64
  0
VERTEX
  5
3CA
  8
TEAM-NET
 10
0.0
 20
-327.57303
 30
701.988746
 70
    64
  0
VERTEX
  5
3CB
  8
TEAM-NET
 10
0.0
 20
-307.282051
 30
688.430748
 70
    64
  0
VERTEX
  5
3CC
  8
TEAM-NET
 10
0.0
 20
-285.394991
 30
677.637244
 70
    64
  0
VERTEX
  5
3CD
  8
TEAM-NET
 10
0.0
 20
-262.286343
 30
669.792915
 70
    64
  0
VERTEX
  5
3CE
  8
TEAM-NET
 10
0.0
 20
-238.351502
 30
665.031979
 70
    64
  0
VERTEX
  5
3CF
  8
TEAM-NET
 10
0.0
 20
-214.0
 30
663.435897
 70
    64
  0
VERTEX
  5
3D0
  8
TEAM-NET
 10
0.0
 20
-189.648498
 30
665.031979
 70
    64
  0
VERTEX
  5
3D1
  8
TEAM-NET
 10
0.0
 20
-165.713657
 30
669.792915
 70
    64
  0
VERTEX
  5
3D2
  8
TEAM-NET
 10
0.0
 20
-142.605009
 30
677.637244
 70
    64
  0
VERTEX
  5
3D3
  8
TEAM-NET
 10
0.0
 20
-120.717949
 30
688.430748
 70
    64
  0
VERTEX
  5
3D4
  8
TEAM-NET
 10
0.0
 20
-100.42697
 30
701.988746
 70
    64
  0
VERTEX
  5
3D5
  8
TEAM-NET
 10
0.0
 20
-82.079258
 30
718.079258
 70
    64
  0
VERTEX
  5
3D6
  8
TEAM-NET
 10
0.0
 20
-65.988746
 30
736.42697
 70
    64
  0
VERTEX
  5
3D7
  8
TEAM-NET
 10
0.0
 20
-52.430748
 30
756.717949
 70
    64
  0
VERTEX
  5
3D8
  8
TEAM-NET
 10
0.0
 20
-41.637244
 30
778.605009
 70
    64
  0
VERTEX
  5
3D9
  8
TEAM-NET
 10
0.0
 20
-33.792915
 30
801.713657
 70
    64
  0
VERTEX
  5
3DA
  8
TEAM-NET
 10
0.0
 20
-29.031979
 30
825.648498
 70
    64
  0
VERTEX
  5
3DB
  8
TEAM-NET
 10
0.0
 20
-27.435897
 30
850.0
 70
    64
  0
VERTEX
  5
3DC
  8
TEAM-NET
 10
0.0
 20
-400.564103
 30
850.0
 70
    64
  0
VERTEX
  5
3DD
  8
TEAM-NET
 10
-3.178509
 20
-398.968021
 30
825.856829
 70
    64
  0
VERTEX
  5
3DE
  8
TEAM-NET
 10
-6.302632
 20
-394.207085
 30
802.126753
 70
    64
  0
VERTEX
  5
3DF
  8
TEAM-NET
 10
-9.318916
 20
-386.362756
 30
779.215803
 70
    64
  0
VERTEX
  5
3E0
  8
TEAM-NET
 10
-12.175751
 20
-375.569252
 30
757.51599
 70
    64
  0
VERTEX
  5
3E1
  8
TEAM-NET
 10
-14.824255
 20
-362.011254
 30
737.398603
 70
    64
  0
VERTEX
  5
3E2
  8
TEAM-NET
 10
-17.219112
 20
-345.920742
 30
719.207858
 70
    64
  0
VERTEX
  5
3E3
  8
TEAM-NET
 10
-19.319345
 20
-327.57303
 30
703.255003
 70
    64
  0
VERTEX
  5
3E4
  8
TEAM-NET
 10
-21.089019
 20
-307.282051
 30
689.812995
 70
    64
  0
VERTEX
  5
3E5
  8
TEAM-NET
 10
-22.497854
 20
-285.394991
 30
679.111831
 70
    64
  0
VERTEX
  5
3E6
  8
TEAM-NET
 10
-23.521745
 20
-262.286343
 30
671.334612
 70
    64
  0
VERTEX
  5
3E7
  8
TEAM-NET
 10
-24.143171
 20
-238.351502
 30
666.614406
 70
    64
  0
VERTEX
  5
3E8
  8
TEAM-NET
 10
-24.351502
 20
-214.0
 30
665.031979
 70
    64
  0
VERTEX
  5
3E9
  8
TEAM-NET
 10
-24.143171
 20
-189.648498
 30
666.614406
 70
    64
  0
VERTEX
  5
3EA
  8
TEAM-NET
 10
-23.521745
 20
-165.713657
 30
671.334612
 70
    64
  0
VERTEX
  5
3EB
  8
TEAM-NET
 10
-22.497854
 20
-142.605009
 30
679.111831
 70
    64
  0
VERTEX
  5
3EC
  8
TEAM-NET
 10
-21.089019
 20
-120.717949
 30
689.812995
 70
    64
  0
VERTEX
  5
3ED
  8
TEAM-NET
 10
-19.319345
 20
-100.42697
 30
703.255003
 70
    64
  0
VERTEX
  5
3EE
  8
TEAM-NET
 10
-17.219112
 20
-82.079258
 30
719.207858
 70
    64
  0
VERTEX
  5
3EF
  8
TEAM-NET
 10
-14.824255
 20
-65.988746
 30
737.398603
 70
    64
  0
VERTEX
  5
3F0
  8
TEAM-NET
 10
-12.175751
 20
-52.430748
 30
757.51599
 70
    64
  0
VERTEX
  5
3F1
  8
TEAM-NET
 10
-9.318916
 20
-41.637244
 30
779.215803
 70
    64
  0
VERTEX
  5
3F2
  8
TEAM-NET
 10
-6.302632
 20
-33.792915
 30
802.126753
 70
    64
  0
VERTEX
  5
3F3
  8
TEAM-NET
 10
-3.178509
 20
-29.031979
 30
825.856829
 70
    64
  0
VERTEX
  5
3F4
  8
TEAM-NET
 10
0.0
 20
-27.435897
 30
850.0
 70
    64
  0
VERTEX
  5
3F5
  8
TEAM-NET
 10
0.0
 20
-400.564103
 30
850.0
 70
    64
  0
VERTEX
  5
3F6
  8
TEAM-NET
 10
-6.302632
 20
-398.968021
 30
826.478255
 70
    64
  0
VERTEX
  5
3F7
  8
TEAM-NET
 10
-12.497425
 20
-394.207085
 30
803.358974
 70
    64
  0
VERTEX
  5
3F8
  8
TEAM-NET
 10
-18.478383
 20
-386.362756
 30
781.037734
 70
    64
  0
VERTEX
  5
3F9
  8
TEAM-NET
 10
-24.143171
 20
-375.569252
 30
759.896458
 70
    64
  0
VERTEX
  5
3FA
  8
TEAM-NET
 10
-29.394863
 20
-362.011254
 30
740.296877
 70
    64
  0
VERTEX
  5
3FB
  8
TEAM-NET
 10
-34.1436
 20
-345.920742
 30
722.574348
 70
    64
  0
VERTEX
  5
3FC
  8
TEAM-NET
 10
-38.308131
 20
-327.57303
 30
707.032107
 70
    64
  0
VERTEX
  5
3FD
  8
TEAM-NET
 10
-41.8172
 20
-307.282051
 30
693.936087
 70
    64
  0
VERTEX
  5
3FE
  8
TEAM-NET
 10
-44.610764
 20
-285.394991
 30
683.510363
 70
    64
  0
VERTEX
  5
3FF
  8
TEAM-NET
 10
-46.641026
 20
-262.286343
 30
675.933323
 70
    64
  0
VERTEX
  5
400
  8
TEAM-NET
 10
-47.873247
 20
-238.351502
 30
671.334612
 70
    64
  0
VERTEX
  5
401
  8
TEAM-NET
 10
-48.286343
 20
-214.0
 30
669.792915
 70
    64
  0
VERTEX
  5
402
  8
TEAM-NET
 10
-47.873247
 20
-189.648498
 30
671.334612
 70
    64
  0
VERTEX
  5
403
  8
TEAM-NET
 10
-46.641026
 20
-165.713657
 30
675.933323
 70
    64
  0
VERTEX
  5
404
  8
TEAM-NET
 10
-44.610764
 20
-142.605009
 30
683.510363
 70
    64
  0
VERTEX
  5
405
  8
TEAM-NET
 10
-41.8172
 20
-120.717949
 30
693.936087
 70
    64
  0
VERTEX
  5
406
  8
TEAM-NET
 10
-38.308131
 20
-100.42697
 30
707.032107
 70
    64
  0
VERTEX
  5
407
  8
TEAM-NET
 10
-34.1436
 20
-82.079258
 30
722.574348
 70
    64
  0
VERTEX
  5
408
  8
TEAM-NET
 10
-29.394863
 20
-65.988746
 30
740.296877
 70
    64
  0
VERTEX
  5
409
  8
TEAM-NET
 10
-24.143171
 20
-52.430748
 30
759.896458
 70
    64
  0
VERTEX
  5
40A
  8
TEAM-NET
 10
-18.478383
 20
-41.637244
 30
781.037734
 70
    64
  0
VERTEX
  5
40B
  8
TEAM-NET
 10
-12.497425
 20
-33.792915
 30
803.358974
 70
    64
  0
VERTEX
  5
40C
  8
TEAM-NET
 10
-6.302632
 20
-29.031979
 30
826.478255
 70
    64
  0
VERTEX
  5
40D
  8
TEAM-NET
 10
0.0
 20
-27.435897
 30
850.0
 70
    64
  0
VERTEX
  5
40E
  8
TEAM-NET
 10
0.0
 20
-400.564103
 30
850.0
 70
    64
  0
VERTEX
  5
40F
  8
TEAM-NET
 10
-9.318916
 20
-398.968021
 30
827.502146
 70
    64
  0
VERTEX
  5
410
  8
TEAM-NET
 10
-18.478383
 20
-394.207085
 30
805.389236
 70
    64
  0
VERTEX
  5
411
  8
TEAM-NET
 10
-27.32168
 20
-386.362756
 30
784.039629
 70
    64
  0
VERTEX
  5
412
  8
TEAM-NET
 10
-35.697496
 20
-375.569252
 30
763.818622
 70
    64
  0
VERTEX
  5
413
  8
TEAM-NET
 10
-43.462517
 20
-362.011254
 30
745.072202
 70
    64
  0
VERTEX
  5
414
  8
TEAM-NET
 10
-50.483882
 20
-345.920742
 30
728.121127
 70
    64
  0
VERTEX
  5
415
  8
TEAM-NET
 10
-56.641455
 20
-327.57303
 30
713.255432
 70
    64
  0
VERTEX
  5
416
  8
TEAM-NET
 10
-61.829876
 20
-307.282051
 30
700.729475
 70
    64
  0
VERTEX
  5
417
  8
TEAM-NET
 10
-65.960371
 20
-285.394991
 30
690.757578
 70
    64
  0
VERTEX
  5
418
  8
TEAM-NET
 10
-68.962266
 20
-262.286343
 30
683.510363
 70
    64
  0
VERTEX
  5
419
  8
TEAM-NET
 10
-70.784197
 20
-238.351502
 30
679.111831
 70
    64
  0
VERTEX
  5
41A
  8
TEAM-NET
 10
-71.394991
 20
-214.0
 30
677.637244
 70
    64
  0
VERTEX
  5
41B
  8
TEAM-NET
 10
-70.784197
 20
-189.648498
 30
679.111831
 70
    64
  0
VERTEX
  5
41C
  8
TEAM-NET
 10
-68.962266
 20
-165.713657
 30
683.510363
 70
    64
  0
VERTEX
  5
41D
  8
TEAM-NET
 10
-65.960371
 20
-142.605009
 30
690.757578
 70
    64
  0
VERTEX
  5
41E
  8
TEAM-NET
 10
-61.829876
 20
-120.717949
 30
700.729475
 70
    64
  0
VERTEX
  5
41F
  8
TEAM-NET
 10
-56.641455
 20
-100.42697
 30
713.255432
 70
    64
  0
VERTEX
  5
420
  8
TEAM-NET
 10
-50.483882
 20
-82.079258
 30
728.121127
 70
    64
  0
VERTEX
  5
421
  8
TEAM-NET
 10
-43.462517
 20
-65.988746
 30
745.072202
 70
    64
  0
VERTEX
  5
422
  8
TEAM-NET
 10
-35.697496
 20
-52.430748
 30
763.818622
 70
    64
  0
VERTEX
  5
423
  8
TEAM-NET
 10
-27.32168
 20
-41.637244
 30
784.039629
 70
    64
  0
VERTEX
  5
424
  8
TEAM-NET
 10
-18.478383
 20
-33.792915
 30
805.389236
 70
    64
  0
VERTEX
  5
425
  8
TEAM-NET
 10
-9.318916
 20
-29.031979
 30
827.502146
 70
    64
  0
VERTEX
  5
426
  8
TEAM-NET
 10
0.0
 20
-27.435897
 30
850.0
 70
    64
  0
VERTEX
  5
427
  8
TEAM-NET
 10
0.0
 20
-400.564103
 30
850.0
 70
    64
  0
VERTEX
  5
428
  8
TEAM-NET
 10
-12.175751
 20
-398.968021
 30
828.910981
 70
    64
  0
VERTEX
  5
429
  8
TEAM-NET
 10
-24.143171
 20
-394.207085
 30
808.1828
 70
    64
  0
VERTEX
  5
42A
  8
TEAM-NET
 10
-35.697496
 20
-386.362756
 30
788.170124
 70
    64
  0
VERTEX
  5
42B
  8
TEAM-NET
 10
-46.641026
 20
-375.569252
 30
769.215374
 70
    64
  0
VERTEX
  5
42C
  8
TEAM-NET
 10
-56.786515
 20
-362.011254
 30
751.642871
 70
    64
  0
VERTEX
  5
42D
  8
TEAM-NET
 10
-65.960371
 20
-345.920742
 30
735.753286
 70
    64
  0
VERTEX
  5
42E
  8
TEAM-NET
 10
-74.005627
 20
-327.57303
 30
721.818494
 70
    64
  0
VERTEX
  5
42F
  8
TEAM-NET
 10
-80.784626
 20
-307.282051
 30
710.076923
 70
    64
  0
VERTEX
  5
430
  8
TEAM-NET
 10
-86.181378
 20
-285.394991
 30
700.729475
 70
    64
  0
VERTEX
  5
431
  8
TEAM-NET
 10
-90.103542
 20
-262.286343
 30
693.936087
 70
    64
  0
VERTEX
  5
432
  8
TEAM-NET
 10
-92.48401
 20
-238.351502
 30
689.812995
 70
    64
  0
VERTEX
  5
433
  8
TEAM-NET
 10
-93.282051
 20
-214.0
 30
688.430748
 70
    64
  0
VERTEX
  5
434
  8
TEAM-NET
 10
-92.48401
 20
-189.648498
 30
689.812995
 70
    64
  0
VERTEX
  5
435
  8
TEAM-NET
 10
-90.103542
 20
-165.713657
 30
693.936087
 70
    64
  0
VERTEX
  5
436
  8
TEAM-NET
 10
-86.181378
 20
-142.605009
 30
700.729475
 70
    64
  0
VERTEX
  5
437
  8
TEAM-NET
 10
-80.784626
 20
-120.717949
 30
710.076923
 70
    64
  0
VERTEX
  5
438
  8
TEAM-NET
 10
-74.005627
 20
-100.42697
 30
721.818494
 70
    64
  0
VERTEX
  5
439
  8
TEAM-NET
 10
-65.960371
 20
-82.079258
 30
735.753286
 70
    64
  0
VERTEX
  5
43A
  8
TEAM-NET
 10
-56.786515
 20
-65.988746
 30
751.642871
 70
    64
  0
VERTEX
  5
43B
  8
TEAM-NET
 10
-46.641026
 20
-52.430748
 30
769.215374
 70
    64
  0
VERTEX
  5
43C
  8
TEAM-NET
 10
-35.697496
 20
-41.637244
 30
788.170124
 70
    64
  0
VERTEX
  5
43D
  8
TEAM-NET
 10
-24.143171
 20
-33.792915
 30
808.1828
 70
    64
  0
VERTEX
  5
43E
  8
TEAM-NET
 10
-12.175751
 20
-29.031979
 30
828.910981
 70
    64
  0
VERTEX
  5
43F
  8
TEAM-NET
 10
0.0
 20
-27.435897
 30
850.0
 70
    64
  0
VERTEX
  5
440
  8
TEAM-NET
 10
0.0
 20
-400.564103
 30
850.0
 70
    64
  0
VERTEX
  5
441
  8
TEAM-NET
 10
-14.824255
 20
-398.968021
 30
830.680655
 70
    64
  0
VERTEX
  5
442
  8
TEAM-NET
 10
-29.394863
 20
-394.207085
 30
811.691869
 70
    64
  0
VERTEX
  5
443
  8
TEAM-NET
 10
-43.462517
 20
-386.362756
 30
793.358545
 70
    64
  0
VERTEX
  5
444
  8
TEAM-NET
 10
-56.786515
 20
-375.569252
 30
775.994373
 70
    64
  0
VERTEX
  5
445
  8
TEAM-NET
 10
-69.13888
 20
-362.011254
 30
759.896458
 70
    64
  0
VERTEX
  5
446
  8
TEAM-NET
 10
-80.308259
 20
-345.920742
 30
745.340239
 70
    64
  0
VERTEX
  5
447
  8
TEAM-NET
 10
-90.103542
 20
-327.57303
 30
732.574777
 70
    64
  0
VERTEX
  5
448
  8
TEAM-NET
 10
-98.357129
 20
-307.282051
 30
721.818494
 70
    64
  0
VERTEX
  5
449
  8
TEAM-NET
 10
-104.927798
 20
-285.394991
 30
713.255432
 70
    64
  0
VERTEX
  5
44A
  8
TEAM-NET
 10
-109.703123
 20
-262.286343
 30
707.032107
 70
    64
  0
VERTEX
  5
44B
  8
TEAM-NET
 10
-112.601397
 20
-238.351502
 30
703.255003
 70
    64
  0
VERTEX
  5
44C
  8
TEAM-NET
 10
-113.57303
 20
-214.0
 30
701.988746
 70
    64
  0
VERTEX
  5
44D
  8
TEAM-NET
 10
-112.601397
 20
-189.648498
 30
703.255003
 70
    64
  0
VERTEX
  5
44E
  8
TEAM-NET
 10
-109.703123
 20
-165.713657
 30
707.032107
 70
    64
  0
VERTEX
  5
44F
  8
TEAM-NET
 10
-104.927798
 20
-142.605009
 30
713.255432
 70
    64
  0
VERTEX
  5
450
  8
TEAM-NET
 10
-98.357129
 20
-120.717949
 30
721.818494
 70
    64
  0
VERTEX
  5
451
  8
TEAM-NET
 10
-90.103542
 20
-100.42697
 30
732.574777
 70
    64
  0
VERTEX
  5
452
  8
TEAM-NET
 10
-80.308259
 20
-82.079258
 30
745.340239
 70
    64
  0
VERTEX
  5
453
  8
TEAM-NET
 10
-69.13888
 20
-65.988746
 30
759.896458
 70
    64
  0
VERTEX
  5
454
  8
TEAM-NET
 10
-56.786515
 20
-52.430748
 30
775.994373
 70
    64
  0
VERTEX
  5
455
  8
TEAM-NET
 10
-43.462517
 20
-41.637244
 30
793.358545
 70
    64
  0
VERTEX
  5
456
  8
TEAM-NET
 10
-29.394863
 20
-33.792915
 30
811.691869
 70
    64
  0
VERTEX
  5
457
  8
TEAM-NET
 10
-14.824255
 20
-29.031979
 30
830.680655
 70
    64
  0
VERTEX
  5
458
  8
TEAM-NET
 10
0.0
 20
-27.435897
 30
850.0
 70
    64
  0
VERTEX
  5
459
  8
TEAM-NET
 10
0.0
 20
-400.564103
 30
850.0
 70
    64
  0
VERTEX
  5
45A
  8
TEAM-NET
 10
-17.219112
 20
-398.968021
 30
832.780888
 70
    64
  0
VERTEX
  5
45B
  8
TEAM-NET
 10
-34.1436
 20
-394.207085
 30
815.8564
 70
    64
  0
VERTEX
  5
45C
  8
TEAM-NET
 10
-50.483882
 20
-386.362756
 30
799.516118
 70
    64
  0
VERTEX
  5
45D
  8
TEAM-NET
 10
-65.960371
 20
-375.569252
 30
784.039629
 70
    64
  0
VERTEX
  5
45E
  8
TEAM-NET
 10
-80.308259
 20
-362.011254
 30
769.691741
 70
    64
  0
VERTEX
  5
45F
  8
TEAM-NET
 10
-93.282051
 20
-345.920742
 30
756.717949
 70
    64
  0
VERTEX
  5
460
  8
TEAM-NET
 10
-104.659761
 20
-327.57303
 30
745.340239
 70
    64
  0
VERTEX
  5
461
  8
TEAM-NET
 10
-114.246714
 20
-307.282051
 30
735.753286
 70
    64
  0
VERTEX
  5
462
  8
TEAM-NET
 10
-121.878873
 20
-285.394991
 30
728.121127
 70
    64
  0
VERTEX
  5
463
  8
TEAM-NET
 10
-127.425652
 20
-262.286343
 30
722.574348
 70
    64
  0
VERTEX
  5
464
  8
TEAM-NET
 10
-130.792142
 20
-238.351502
 30
719.207858
 70
    64
  0
VERTEX
  5
465
  8
TEAM-NET
 10
-131.920742
 20
-214.0
 30
718.079258
 70
    64
  0
VERTEX
  5
466
  8
TEAM-NET
 10
-130.792142
 20
-189.648498
 30
719.207858
 70
    64
  0
VERTEX
  5
467
  8
TEAM-NET
 10
-127.425652
 20
-165.713657
 30
722.574348
 70
    64
  0
VERTEX
  5
468
  8
TEAM-NET
 10
-121.878873
 20
-142.605009
 30
728.121127
 70
    64
  0
VERTEX
  5
469
  8
TEAM-NET
 10
-114.246714
 20
-120.717949
 30
735.753286
 70
    64
  0
VERTEX
  5
46A
  8
TEAM-NET
 10
-104.659761
 20
-100.42697
 30
745.340239
 70
    64
  0
VERTEX
  5
46B
  8
TEAM-NET
 10
-93.282051
 20
-82.079258
 30
756.717949
 70
    64
  0
VERTEX
  5
46C
  8
TEAM-NET
 10
-80.308259
 20
-65.988746
 30
769.691741
 70
    64
  0
VERTEX
  5
46D
  8
TEAM-NET
 10
-65.960371
 20
-52.430748
 30
784.039629
 70
    64
  0
VERTEX
  5
46E
  8
TEAM-NET
 10
-50.483882
 20
-41.637244
 30
799.516118
 70
    64
  0
VERTEX
  5
46F
  8
TEAM-NET
 10
-34.1436
 20
-33.792915
 30
815.8564
 70
    64
  0
VERTEX
  5
470
  8
TEAM-NET
 10
-17.219112
 20
-29.031979
 30
832.780888
 70
    64
  0
VERTEX
  5
471
  8
TEAM-NET
 10
0.0
 20
-27.435897
 30
850.0
 70
    64
  0
VERTEX
  5
472
  8
TEAM-NET
 10
0.0
 20
-400.564103
 30
850.0
 70
    64
  0
VERTEX
  5
473
  8
TEAM-NET
 10
-19.319345
 20
-398.968021
 30
835.175745
 70
    64
  0
VERTEX
  5
474
  8
TEAM-NET
 10
-38.308131
 20
-394.207085
 30
820.605137
 70
    64
  0
VERTEX
  5
475
  8
TEAM-NET
 10
-56.641455
 20
-386.362756
 30
806.537483
 70
    64
  0
VERTEX
  5
476
  8
TEAM-NET
 10
-74.005627
 20
-375.569252
 30
793.213485
 70
    64
  0
VERTEX
  5
477
  8
TEAM-NET
 10
-90.103542
 20
-362.011254
 30
780.86112
 70
    64
  0
VERTEX
  5
478
  8
TEAM-NET
 10
-104.659761
 20
-345.920742
 30
769.691741
 70
    64
  0
VERTEX
  5
479
  8
TEAM-NET
 10
-117.425223
 20
-327.57303
 30
759.896458
 70
    64
  0
VERTEX
  5
47A
  8
TEAM-NET
 10
-128.181506
 20
-307.282051
 30
751.642871
 70
    64
  0
VERTEX
  5
47B
  8
TEAM-NET
 10
-136.744568
 20
-285.394991
 30
745.072202
 70
    64
  0
VERTEX
  5
47C
  8
TEAM-NET
 10
-142.967893
 20
-262.286343
 30
740.296877
 70
    64
  0
VERTEX
  5
47D
  8
TEAM-NET
 10
-146.744997
 20
-238.351502
 30
737.398603
 70
    64
  0
VERTEX
  5
47E
  8
TEAM-NET
 10
-148.011254
 20
-214.0
 30
736.42697
 70
    64
  0
VERTEX
  5
47F
  8
TEAM-NET
 10
-146.744997
 20
-189.648498
 30
737.398603
 70
    64
  0
VERTEX
  5
480
  8
TEAM-NET
 10
-142.967893
 20
-165.713657
 30
740.296877
 70
    64
  0
VERTEX
  5
481
  8
TEAM-NET
 10
-136.744568
 20
-142.605009
 30
745.072202
 70
    64
  0
VERTEX
  5
482
  8
TEAM-NET
 10
-128.181506
 20
-120.717949
 30
751.642871
 70
    64
  0
VERTEX
  5
483
  8
TEAM-NET
 10
-117.425223
 20
-100.42697
 30
759.896458
 70
    64
  0
VERTEX
  5
484
  8
TEAM-NET
 10
-104.659761
 20
-82.079258
 30
769.691741
 70
    64
  0
VERTEX
  5
485
  8
TEAM-NET
 10
-90.103542
 20
-65.988746
 30
780.86112
 70
    64
  0
VERTEX
  5
486
  8
TEAM-NET
 10
-74.005627
 20
-52.430748
 30
793.213485
 70
    64
  0
VERTEX
  5
487
  8
TEAM-NET
 10
-56.641455
 20
-41.637244
 30
806.537483
 70
    64
  0
VERTEX
  5
488
  8
TEAM-NET
 10
-38.308131
 20
-33.792915
 30
820.605137
 70
    64
  0
VERTEX
  5
489
  8
TEAM-NET
 10
-19.319345
 20
-29.031979
 30
835.175745
 70
    64
  0
VERTEX
  5
48A
  8
TEAM-NET
 10
0.0
 20
-27.435897
 30
850.0
 70
    64
  0
VERTEX
  5
48B
  8
TEAM-NET
 10
0.0
 20
-400.564103
 30
850.0
 70
    64
  0
VERTEX
  5
48C
  8
TEAM-NET
 10
-21.089019
 20
-398.968021
 30
837.824249
 70
    64
  0
VERTEX
  5
48D
  8
TEAM-NET
 10
-41.8172
 20
-394.207085
 30
825.856829
 70
    64
  0
VERTEX
  5
48E
  8
TEAM-NET
 10
-61.829876
 20
-386.362756
 30
814.302504
 70
    64
  0
VERTEX
  5
48F
  8
TEAM-NET
 10
-80.784626
 20
-375.569252
 30
803.358974
 70
    64
  0
VERTEX
  5
490
  8
TEAM-NET
 10
-98.357129
 20
-362.011254
 30
793.213485
 70
    64
  0
VERTEX
  5
491
  8
TEAM-NET
 10
-114.246714
 20
-345.920742
 30
784.039629
 70
    64
  0
VERTEX
  5
492
  8
TEAM-NET
 10
-128.181506
 20
-327.57303
 30
775.994373
 70
    64
  0
VERTEX
  5
493
  8
TEAM-NET
 10
-139.923077
 20
-307.282051
 30
769.215374
 70
    64
  0
VERTEX
  5
494
  8
TEAM-NET
 10
-149.270525
 20
-285.394991
 30
763.818622
 70
    64
  0
VERTEX
  5
495
  8
TEAM-NET
 10
-156.063913
 20
-262.286343
 30
759.896458
 70
    64
  0
VERTEX
  5
496
  8
TEAM-NET
 10
-160.187005
 20
-238.351502
 30
757.51599
 70
    64
  0
VERTEX
  5
497
  8
TEAM-NET
 10
-161.569252
 20
-214.0
 30
756.717949
 70
    64
  0
VERTEX
  5
498
  8
TEAM-NET
 10
-160.187005
 20
-189.648498
 30
757.51599
 70
    64
  0
VERTEX
  5
499
  8
TEAM-NET
 10
-156.063913
 20
-165.713657
 30
759.896458
 70
    64
  0
VERTEX
  5
49A
  8
TEAM-NET
 10
-149.270525
 20
-142.605009
 30
763.818622
 70
    64
  0
VERTEX
  5
49B
  8
TEAM-NET
 10
-139.923077
 20
-120.717949
 30
769.215374
 70
    64
  0
VERTEX
  5
49C
  8
TEAM-NET
 10
-128.181506
 20
-100.42697
 30
775.994373
 70
    64
  0
VERTEX
  5
49D
  8
TEAM-NET
 10
-114.246714
 20
-82.079258
 30
784.039629
 70
    64
  0
VERTEX
  5
49E
  8
TEAM-NET
 10
-98.357129
 20
-65.988746
 30
793.213485
 70
    64
  0
VERTEX
  5
49F
  8
TEAM-NET
 10
-80.784626
 20
-52.430748
 30
803.358974
 70
    64
  0
VERTEX
  5
4A0
  8
TEAM-NET
 10
-61.829876
 20
-41.637244
 30
814.302504
 70
    64
  0
VERTEX
  5
4A1
  8
TEAM-NET
 10
-41.8172
 20
-33.792915
 30
825.856829
 70
    64
  0
VERTEX
  5
4A2
  8
TEAM-NET
 10
-21.089019
 20
-29.031979
 30
837.824249
 70
    64
  0
VERTEX
  5
4A3
  8
TEAM-NET
 10
0.0
 20
-27.435897
 30
850.0
 70
    64
  0
VERTEX
  5
4A4
  8
TEAM-NET
 10
0.0
 20
-400.564103
 30
850.0
 70
    64
  0
VERTEX
  5
4A5
  8
TEAM-NET
 10
-22.497854
 20
-398.968021
 30
840.681084
 70
    64
  0
VERTEX
  5
4A6
  8
TEAM-NET
 10
-44.610764
 20
-394.207085
 30
831.521617
 70
    64
  0
VERTEX
  5
4A7
  8
TEAM-NET
 10
-65.960371
 20
-386.362756
 30
822.67832
 70
    64
  0
VERTEX
  5
4A8
  8
TEAM-NET
 10
-86.181378
 20
-375.569252
 30
814.302504
 70
    64
  0
VERTEX
  5
4A9
  8
TEAM-NET
 10
-104.927798
 20
-362.011254
 30
806.537483
 70
    64
  0
VERTEX
  5
4AA
  8
TEAM-NET
 10
-121.878873
 20
-345.920742
 30
799.516118
 70
    64
  0
VERTEX
  5
4AB
  8
TEAM-NET
 10
-136.744568
 20
-327.57303
 30
793.358545
 70
    64
  0
VERTEX
  5
4AC
  8
TEAM-NET
 10
-149.270525
 20
-307.282051
 30
788.170124
 70
    64
  0
VERTEX
  5
4AD
  8
TEAM-NET
 10
-159.242422
 20
-285.394991
 30
784.039629
 70
    64
  0
VERTEX
  5
4AE
  8
TEAM-NET
 10
-166.489637
 20
-262.286343
 30
781.037734
 70
    64
  0
VERTEX
  5
4AF
  8
TEAM-NET
 10
-170.888169
 20
-238.351502
 30
779.215803
 70
    64
  0
VERTEX
  5
4B0
  8
TEAM-NET
 10
-172.362756
 20
-214.0
 30
778.605009
 70
    64
  0
VERTEX
  5
4B1
  8
TEAM-NET
 10
-170.888169
 20
-189.648498
 30
779.215803
 70
    64
  0
VERTEX
  5
4B2
  8
TEAM-NET
 10
-166.489637
 20
-165.713657
 30
781.037734
 70
    64
  0
VERTEX
  5
4B3
  8
TEAM-NET
 10
-159.242422
 20
-142.605009
 30
784.039629
 70
    64
  0
VERTEX
  5
4B4
  8
TEAM-NET
 10
-149.270525
 20
-120.717949
 30
788.170124
 70
    64
  0
VERTEX
  5
4B5
  8
TEAM-NET
 10
-136.744568
 20
-100.42697
 30
793.358545
 70
    64
  0
VERTEX
  5
4B6
  8
TEAM-NET
 10
-121.878873
 20
-82.079258
 30
799.516118
 70
    64
  0
VERTEX
  5
4B7
  8
TEAM-NET
 10
-104.927798
 20
-65.988746
 30
806.537483
 70
    64
  0
VERTEX
  5
4B8
  8
TEAM-NET
 10
-86.181378
 20
-52.430748
 30
814.302504
 70
    64
  0
VERTEX
  5
4B9
  8
TEAM-NET
 10
-65.960371
 20
-41.637244
 30
822.67832
 70
    64
  0
VERTEX
  5
4BA
  8
TEAM-NET
 10
-44.610764
 20
-33.792915
 30
831.521617
 70
    64
  0
VERTEX
  5
4BB
  8
TEAM-NET
 10
-22.497854
 20
-29.031979
 30
840.681084
 70
    64
  0
VERTEX
  5
4BC
  8
TEAM-NET
 10
0.0
 20
-27.435897
 30
850.0
 70
    64
  0
VERTEX
  5
4BD
  8
TEAM-NET
 10
0.0
 20
-400.564103
 30
850.0
 70
    64
  0
VERTEX
  5
4BE
  8
TEAM-NET
 10
-23.521745
 20
-398.968021
 30
843.697368
 70
    64
  0
VERTEX
  5
4BF
  8
TEAM-NET
 10
-46.641026
 20
-394.207085
 30
837.502575
 70
    64
  0
VERTEX
  5
4C0
  8
TEAM-NET
 10
-68.962266
 20
-386.362756
 30
831.521617
 70
    64
  0
VERTEX
  5
4C1
  8
TEAM-NET
 10
-90.103542
 20
-375.569252
 30
825.856829
 70
    64
  0
VERTEX
  5
4C2
  8
TEAM-NET
 10
-109.703123
 20
-362.011254
 30
820.605137
 70
    64
  0
VERTEX
  5
4C3
  8
TEAM-NET
 10
-127.425652
 20
-345.920742
 30
815.8564
 70
    64
  0
VERTEX
  5
4C4
  8
TEAM-NET
 10
-142.967893
 20
-327.57303
 30
811.691869
 70
    64
  0
VERTEX
  5
4C5
  8
TEAM-NET
 10
-156.063913
 20
-307.282051
 30
808.1828
 70
    64
  0
VERTEX
  5
4C6
  8
TEAM-NET
 10
-166.489637
 20
-285.394991
 30
805.389236
 70
    64
  0
VERTEX
  5
4C7
  8
TEAM-NET
 10
-174.066677
 20
-262.286343
 30
803.358974
 70
    64
  0
VERTEX
  5
4C8
  8
TEAM-NET
 10
-178.665388
 20
-238.351502
 30
802.126753
 70
    64
  0
VERTEX
  5
4C9
  8
TEAM-NET
 10
-180.207085
 20
-214.0
 30
801.713657
 70
    64
  0
VERTEX
  5
4CA
  8
TEAM-NET
 10
-178.665388
 20
-189.648498
 30
802.126753
 70
    64
  0
VERTEX
  5
4CB
  8
TEAM-NET
 10
-174.066677
 20
-165.713657
 30
803.358974
 70
    64
  0
VERTEX
  5
4CC
  8
TEAM-NET
 10
-166.489637
 20
-142.605009
 30
805.389236
 70
    64
  0
VERTEX
  5
4CD
  8
TEAM-NET
 10
-156.063913
 20
-120.717949
 30
808.1828
 70
    64
  0
VERTEX
  5
4CE
  8
TEAM-NET
 10
-142.967893
 20
-100.42697
 30
811.691869
 70
    64
  0
VERTEX
  5
4CF
  8
TEAM-NET
 10
-127.425652
 20
-82.079258
 30
815.8564
 70
    64
  0
VERTEX
  5
4D0
  8
TEAM-NET
 10
-109.703123
 20
-65.988746
 30
820.605137
 70
    64
  0
VERTEX
  5
4D1
  8
TEAM-NET
 10
-90.103542
 20
-52.430748
 30
825.856829
 70
    64
  0
VERTEX
  5
4D2
  8
TEAM-NET
 10
-68.962266
 20
-41.637244
 30
831.521617
 70
    64
  0
VERTEX
  5
4D3
  8
TEAM-NET
 10
-46.641026
 20
-33.792915
 30
837.502575
 70
    64
  0
VERTEX
  5
4D4
  8
TEAM-NET
 10
-23.521745
 20
-29.031979
 30
843.697368
 70
    64
  0
VERTEX
  5
4D5
  8
TEAM-NET
 10
0.0
 20
-27.435897
 30
850.0
 70
    64
  0
VERTEX
  5
4D6
  8
TEAM-NET
 10
0.0
 20
-400.564103
 30
850.0
 70
    64
  0
VERTEX
  5
4D7
  8
TEAM-NET
 10
-24.143171
 20
-398.968021
 30
846.821491
 70
    64
  0
VERTEX
  5
4D8
  8
TEAM-NET
 10
-47.873247
 20
-394.207085
 30
843.697368
 70
    64
  0
VERTEX
  5
4D9
  8
TEAM-NET
 10
-70.784197
 20
-386.362756
 30
840.681084
 70
    64
  0
VERTEX
  5
4DA
  8
TEAM-NET
 10
-92.48401
 20
-375.569252
 30
837.824249
 70
    64
  0
VERTEX
  5
4DB
  8
TEAM-NET
 10
-112.601397
 20
-362.011254
 30
835.175745
 70
    64
  0
VERTEX
  5
4DC
  8
TEAM-NET
 10
-130.792142
 20
-345.920742
 30
832.780888
 70
    64
  0
VERTEX
  5
4DD
  8
TEAM-NET
 10
-146.744997
 20
-327.57303
 30
830.680655
 70
    64
  0
VERTEX
  5
4DE
  8
TEAM-NET
 10
-160.187005
 20
-307.282051
 30
828.910981
 70
    64
  0
VERTEX
  5
4DF
  8
TEAM-NET
 10
-170.888169
 20
-285.394991
 30
827.502146
 70
    64
  0
VERTEX
  5
4E0
  8
TEAM-NET
 10
-178.665388
 20
-262.286343
 30
826.478255
 70
    64
  0
VERTEX
  5
4E1
  8
TEAM-NET
 10
-183.385594
 20
-238.351502
 30
825.856829
 70
    64
  0
VERTEX
  5
4E2
  8
TEAM-NET
 10
-184.968021
 20
-214.0
 30
825.648498
 70
    64
  0
VERTEX
  5
4E3
  8
TEAM-NET
 10
-183.385594
 20
-189.648498
 30
825.856829
 70
    64
  0
VERTEX
  5
4E4
  8
TEAM-NET
 10
-178.665388
 20
-165.713657
 30
826.478255
 70
    64
  0
VERTEX
  5
4E5
  8
TEAM-NET
 10
-170.888169
 20
-142.605009
 30
827.502146
 70
    64
  0
VERTEX
  5
4E6
  8
TEAM-NET
 10
-160.187005
 20
-120.717949
 30
828.910981
 70
    64
  0
VERTEX
  5
4E7
  8
TEAM-NET
 10
-146.744997
 20
-100.42697
 30
830.680655
 70
    64
  0
VERTEX
  5
4E8
  8
TEAM-NET
 10
-130.792142
 20
-82.079258
 30
832.780888
 70
    64
  0
VERTEX
  5
4E9
  8
TEAM-NET
 10
-112.601397
 20
-65.988746
 30
835.175745
 70
    64
  0
VERTEX
  5
4EA
  8
TEAM-NET
 10
-92.48401
 20
-52.430748
 30
837.824249
 70
    64
  0
VERTEX
  5
4EB
  8
TEAM-NET
 10
-70.784197
 20
-41.637244
 30
840.681084
 70
    64
  0
VERTEX
  5
4EC
  8
TEAM-NET
 10
-47.873247
 20
-33.792915
 30
843.697368
 70
    64
  0
VERTEX
  5
4ED
  8
TEAM-NET
 10
-24.143171
 20
-29.031979
 30
846.821491
 70
    64
  0
VERTEX
  5
4EE
  8
TEAM-NET
 10
0.0
 20
-27.435897
 30
850.0
 70
    64
  0
VERTEX
  5
4EF
  8
TEAM-NET
 10
0.0
 20
-400.564103
 30
850.0
 70
    64
  0
VERTEX
  5
4F0
  8
TEAM-NET
 10
-24.351502
 20
-398.968021
 30
850.0
 70
    64
  0
VERTEX
  5
4F1
  8
TEAM-NET
 10
-48.286343
 20
-394.207085
 30
850.0
 70
    64
  0
VERTEX
  5
4F2
  8
TEAM-NET
 10
-71.394991
 20
-386.362756
 30
850.0
 70
    64
  0
VERTEX
  5
4F3
  8
TEAM-NET
 10
-93.282051
 20
-375.569252
 30
850.0
 70
    64
  0
VERTEX
  5
4F4
  8
TEAM-NET
 10
-113.57303
 20
-362.011254
 30
850.0
 70
    64
  0
VERTEX
  5
4F5
  8
TEAM-NET
 10
-131.920742
 20
-345.920742
 30
850.0
 70
    64
  0
VERTEX
  5
4F6
  8
TEAM-NET
 10
-148.011254
 20
-327.57303
 30
850.0
 70
    64
  0
VERTEX
  5
4F7
  8
TEAM-NET
 10
-161.569252
 20
-307.282051
 30
850.0
 70
    64
  0
VERTEX
  5
4F8
  8
TEAM-NET
 10
-172.362756
 20
-285.394991
 30
850.0
 70
    64
  0
VERTEX
  5
4F9
  8
TEAM-NET
 10
-180.207085
 20
-262.286343
 30
850.0
 70
    64
  0
VERTEX
  5
4FA
  8
TEAM-NET
 10
-184.968021
 20
-238.351502
 30
850.0
 70
    64
  0
VERTEX
  5
4FB
  8
TEAM-NET
 10
-186.564103
 20
-214.0
 30
850.0
 70
    64
  0
VERTEX
  5
4FC
  8
TEAM-NET
 10
-184.968021
 20
-189.648498
 30
850.0
 70
    64
  0
VERTEX
  5
4FD
  8
TEAM-NET
 10
-180.207085
 20
-165.713657
 30
850.0
 70
    64
  0
VERTEX
  5
4FE
  8
TEAM-NET
 10
-172.362756
 20
-142.605009
 30
850.0
 70
    64
  0
VERTEX
  5
4FF
  8
TEAM-NET
 10
-161.569252
 20
-120.717949
 30
850.0
 70
    64
  0
VERTEX
  5
500
  8
TEAM-NET
 10
-148.011254
 20
-100.42697
 30
850.0
 70
    64
  0
VERTEX
  5
501
  8
TEAM-NET
 10
-131.920742
 20
-82.079258
 30
850.0
 70
    64
  0
VERTEX
  5
502
  8
TEAM-NET
 10
-113.57303
 20
-65.988746
 30
850.0
 70
    64
  0
VERTEX
  5
503
  8
TEAM-NET
 10
-93.282051
 20
-52.430748
 30
850.0
 70
    64
  0
VERTEX
  5
504
  8
TEAM-NET
 10
-71.394991
 20
-41.637244
 30
850.0
 70
    64
  0
VERTEX
  5
505
  8
TEAM-NET
 10
-48.286343
 20
-33.792915
 30
850.0
 70
    64
  0
VERTEX
  5
506
  8
TEAM-NET
 10
-24.351502
 20
-29.031979
 30
850.0
 70
    64
  0
VERTEX
  5
507
  8
TEAM-NET
 10
0.0
 20
-27.435897
 30
850.0
 70
    64
  0
SEQEND
  5
508
  8
TEAM-NET
  0
LINE
  5
509
  8
TEAM-AXE
 10
0.0
 20
-257.897436
 30
685.384615
 11
0.0
 21
-170.102564
 31
685.384615
  0
LINE
  5
50C
  8
TEAM-AXE
 10
-43.897436
 20
-214.0
 30
685.384615
 11
43.897436
 21
-214.0
 31
685.384615
  0
CIRCLE
  5
50D
  8
TEAM-DET1
 10
0.0
 20
-214.0
 30
685.384615
 40
32.923077
  0
CIRCLE
  5
50F
  8
TEAM-BODY
 10
0.0
 20
-214.0
 30
685.384615
 40
21.948718
  0
ARC
  5
511
  8
TEAM-BODY
 10
0.0
 20
-214.0
 30
850.0
 40
186.564103
 50
270.0
 51
90.0
  0
TEXT
  5
512
  8
TEAM-TXT
 10
-119.441498
 20
-306.500127
 30
850.0
 40
30.0
  1
team 233006
 41
0.8
 51
15.0
  7
TEAM
  0
ARC
  5
515
  8
TEAM-BODY
 10
0.0
 20
-214.0
 30
850.0
 40
186.564103
 50
90.0
 51
270.0
  0
ARC
  5
516
  8
TEAM-BODY
 10
0.0
 20
-214.0
 30
850.0
 40
214.0
 50
270.0
 51
90.0
  0
POLYLINE
  5
517
  8
TEAM-NET
 66
     1
 10
0.0
 20
0.0
 30
0.0
 70
    16
 71
     2
 72
    25
  0
VERTEX
  5
518
  8
TEAM-NET
 10
0.0
 20
-428.0
 30
850.0
 70
    64
  0
VERTEX
  5
519
  8
TEAM-NET
 10
-27.932605
 20
-426.1692
 30
850.0
 70
    64
  0
VERTEX
  5
51A
  8
TEAM-NET
 10
-55.387276
 20
-420.708127
 30
850.0
 70
    64
  0
VERTEX
  5
51B
  8
TEAM-NET
 10
-81.894255
 20
-411.71022
 30
850.0
 70
    64
  0
VERTEX
  5
51C
  8
TEAM-NET
 10
-107.0
 20
-399.329436
 30
850.0
 70
    64
  0
VERTEX
  5
51D
  8
TEAM-NET
 10
-130.274946
 20
-383.777615
 30
850.0
 70
    64
  0
VERTEX
  5
51E
  8
TEAM-NET
 10
-151.320851
 20
-365.320851
 30
850.0
 70
    64
  0
VERTEX
  5
51F
  8
TEAM-NET
 10
-169.777615
 20
-344.274946
 30
850.0
 70
    64
  0
VERTEX
  5
520
  8
TEAM-NET
 10
-185.329436
 20
-321.0
 30
850.0
 70
    64
  0
VERTEX
  5
521
  8
TEAM-NET
 10
-197.71022
 20
-295.894255
 30
850.0
 70
    64
  0
VERTEX
  5
522
  8
TEAM-NET
 10
-206.708127
 20
-269.387276
 30
850.0
 70
    64
  0
VERTEX
  5
523
  8
TEAM-NET
 10
-212.1692
 20
-241.932605
 30
850.0
 70
    64
  0
VERTEX
  5
524
  8
TEAM-NET
 10
-214.0
 20
-214.0
 30
850.0
 70
    64
  0
VERTEX
  5
525
  8
TEAM-NET
 10
-212.1692
 20
-186.067395
 30
850.0
 70
    64
  0
VERTEX
  5
526
  8
TEAM-NET
 10
-206.708127
 20
-158.612724
 30
850.0
 70
    64
  0
VERTEX
  5
527
  8
TEAM-NET
 10
-197.71022
 20
-132.105745
 30
850.0
 70
    64
  0
VERTEX
  5
528
  8
TEAM-NET
 10
-185.329436
 20
-107.0
 30
850.0
 70
    64
  0
VERTEX
  5
529
  8
TEAM-NET
 10
-169.777615
 20
-83.725054
 30
850.0
 70
    64
  0
VERTEX
  5
52A
  8
TEAM-NET
 10
-151.320851
 20
-62.679149
 30
850.0
 70
    64
  0
VERTEX
  5
52B
  8
TEAM-NET
 10
-130.274946
 20
-44.222385
 30
850.0
 70
    64
  0
VERTEX
  5
52C
  8
TEAM-NET
 10
-107.0
 20
-28.670564
 30
850.0
 70
    64
  0
VERTEX
  5
52D
  8
TEAM-NET
 10
-81.894255
 20
-16.28978
 30
850.0
 70
    64
  0
VERTEX
  5
52E
  8
TEAM-NET
 10
-55.387276
 20
-7.291873
 30
850.0
 70
    64
  0
VERTEX
  5
52F
  8
TEAM-NET
 10
-27.932605
 20
-1.8308
 30
850.0
 70
    64
  0
VERTEX
  5
530
  8
TEAM-NET
 10
0.0
 20
0.0
 30
850.0
 70
    64
  0
VERTEX
  5
531
  8
TEAM-NET
 10
0.0
 20
-400.564103
 30
850.0
 70
    64
  0
VERTEX
  5
532
  8
TEAM-NET
 10
-24.351502
 20
-398.968021
 30
850.0
 70
    64
  0
VERTEX
  5
533
  8
TEAM-NET
 10
-48.286343
 20
-394.207085
 30
850.0
 70
    64
  0
VERTEX
  5
534
  8
TEAM-NET
 10
-71.394991
 20
-386.362756
 30
850.0
 70
    64
  0
VERTEX
  5
535
  8
TEAM-NET
 10
-93.282051
 20
-375.569252
 30
850.0
 70
    64
  0
VERTEX
  5
536
  8
TEAM-NET
 10
-113.57303
 20
-362.011254
 30
850.0
 70
    64
  0
VERTEX
  5
537
  8
TEAM-NET
 10
-131.920742
 20
-345.920742
 30
850.0
 70
    64
  0
VERTEX
  5
538
  8
TEAM-NET
 10
-148.011254
 20
-327.57303
 30
850.0
 70
    64
  0
VERTEX
  5
539
  8
TEAM-NET
 10
-161.569252
 20
-307.282051
 30
850.0
 70
    64
  0
VERTEX
  5
53A
  8
TEAM-NET
 10
-172.362756
 20
-285.394991
 30
850.0
 70
    64
  0
VERTEX
  5
53B
  8
TEAM-NET
 10
-180.207085
 20
-262.286343
 30
850.0
 70
    64
  0
VERTEX
  5
53C
  8
TEAM-NET
 10
-184.968021
 20
-238.351502
 30
850.0
 70
    64
  0
VERTEX
  5
53D
  8
TEAM-NET
 10
-186.564103
 20
-214.0
 30
850.0
 70
    64
  0
VERTEX
  5
53E
  8
TEAM-NET
 10
-184.968021
 20
-189.648498
 30
850.0
 70
    64
  0
VERTEX
  5
53F
  8
TEAM-NET
 10
-180.207085
 20
-165.713657
 30
850.0
 70
    64
  0
VERTEX
  5
540
  8
TEAM-NET
 10
-172.362756
 20
-142.605009
 30
850.0
 70
    64
  0
VERTEX
  5
541
  8
TEAM-NET
 10
-161.569252
 20
-120.717949
 30
850.0
 70
    64
  0
VERTEX
  5
542
  8
TEAM-NET
 10
-148.011254
 20
-100.42697
 30
850.0
 70
    64
  0
VERTEX
  5
543
  8
TEAM-NET
 10
-131.920742
 20
-82.079258
 30
850.0
 70
    64
  0
VERTEX
  5
544
  8
TEAM-NET
 10
-113.57303
 20
-65.988746
 30
850.0
 70
    64
  0
VERTEX
  5
545
  8
TEAM-NET
 10
-93.282051
 20
-52.430748
 30
850.0
 70
    64
  0
VERTEX
  5
546
  8
TEAM-NET
 10
-71.394991
 20
-41.637244
 30
850.0
 70
    64
  0
VERTEX
  5
547
  8
TEAM-NET
 10
-48.286343
 20
-33.792915
 30
850.0
 70
    64
  0
VERTEX
  5
548
  8
TEAM-NET
 10
-24.351502
 20
-29.031979
 30
850.0
 70
    64
  0
VERTEX
  5
549
  8
TEAM-NET
 10
0.0
 20
-27.435897
 30
850.0
 70
    64
  0
SEQEND
  5
54A
  8
TEAM-NET
  0
ARC
  5
54B
  8
TEAM-BODY
 10
0.0
 20
-214.0
 30
850.0
 40
214.0
 50
90.0
 51
270.0
  0
POLYLINE
  5
54C
  8
TEAM-NET
 66
     1
 10
0.0
 20
0.0
 30
0.0
 70
    16
 71
     2
 72
    25
  0
VERTEX
  5
54D
  8
TEAM-NET
 10
0.0
 20
-428.0
 30
850.0
 70
    64
  0
VERTEX
  5
54E
  8
TEAM-NET
 10
27.932605
 20
-426.1692
 30
850.0
 70
    64
  0
VERTEX
  5
54F
  8
TEAM-NET
 10
55.387276
 20
-420.708127
 30
850.0
 70
    64
  0
VERTEX
  5
550
  8
TEAM-NET
 10
81.894255
 20
-411.71022
 30
850.0
 70
    64
  0
VERTEX
  5
551
  8
TEAM-NET
 10
107.0
 20
-399.329436
 30
850.0
 70
    64
  0
VERTEX
  5
552
  8
TEAM-NET
 10
130.274946
 20
-383.777615
 30
850.0
 70
    64
  0
VERTEX
  5
553
  8
TEAM-NET
 10
151.320851
 20
-365.320851
 30
850.0
 70
    64
  0
VERTEX
  5
554
  8
TEAM-NET
 10
169.777615
 20
-344.274946
 30
850.0
 70
    64
  0
VERTEX
  5
555
  8
TEAM-NET
 10
185.329436
 20
-321.0
 30
850.0
 70
    64
  0
VERTEX
  5
556
  8
TEAM-NET
 10
197.71022
 20
-295.894255
 30
850.0
 70
    64
  0
VERTEX
  5
557
  8
TEAM-NET
 10
206.708127
 20
-269.387276
 30
850.0
 70
    64
  0
VERTEX
  5
558
  8
TEAM-NET
 10
212.1692
 20
-241.932605
 30
850.0
 70
    64
  0
VERTEX
  5
559
  8
TEAM-NET
 10
214.0
 20
-214.0
 30
850.0
 70
    64
  0
VERTEX
  5
55A
  8
TEAM-NET
 10
212.1692
 20
-186.067395
 30
850.0
 70
    64
  0
VERTEX
  5
55B
  8
TEAM-NET
 10
206.708127
 20
-158.612724
 30
850.0
 70
    64
  0
VERTEX
  5
55C
  8
TEAM-NET
 10
197.71022
 20
-132.105745
 30
850.0
 70
    64
  0
VERTEX
  5
55D
  8
TEAM-NET
 10
185.329436
 20
-107.0
 30
850.0
 70
    64
  0
VERTEX
  5
55E
  8
TEAM-NET
 10
169.777615
 20
-83.725054
 30
850.0
 70
    64
  0
VERTEX
  5
55F
  8
TEAM-NET
 10
151.320851
 20
-62.679149
 30
850.0
 70
    64
  0
VERTEX
  5
560
  8
TEAM-NET
 10
130.274946
 20
-44.222385
 30
850.0
 70
    64
  0
VERTEX
  5
561
  8
TEAM-NET
 10
107.0
 20
-28.670564
 30
850.0
 70
    64
  0
VERTEX
  5
562
  8
TEAM-NET
 10
81.894255
 20
-16.28978
 30
850.0
 70
    64
  0
VERTEX
  5
563
  8
TEAM-NET
 10
55.387276
 20
-7.291873
 30
850.0
 70
    64
  0
VERTEX
  5
564
  8
TEAM-NET
 10
27.932605
 20
-1.8308
 30
850.0
 70
    64
  0
VERTEX
  5
565
  8
TEAM-NET
 10
0.0
 20
0.0
 30
850.0
 70
    64
  0
VERTEX
  5
566
  8
TEAM-NET
 10
0.0
 20
-400.564103
 30
850.0
 70
    64
  0
VERTEX
  5
567
  8
TEAM-NET
 10
24.351502
 20
-398.968021
 30
850.0
 70
    64
  0
VERTEX
  5
568
  8
TEAM-NET
 10
48.286343
 20
-394.207085
 30
850.0
 70
    64
  0
VERTEX
  5
569
  8
TEAM-NET
 10
71.394991
 20
-386.362756
 30
850.0
 70
    64
  0
VERTEX
  5
56A
  8
TEAM-NET
 10
93.282051
 20
-375.569252
 30
850.0
 70
    64
  0
VERTEX
  5
56B
  8
TEAM-NET
 10
113.57303
 20
-362.011254
 30
850.0
 70
    64
  0
VERTEX
  5
56C
  8
TEAM-NET
 10
131.920742
 20
-345.920742
 30
850.0
 70
    64
  0
VERTEX
  5
56D
  8
TEAM-NET
 10
148.011254
 20
-327.57303
 30
850.0
 70
    64
  0
VERTEX
  5
56E
  8
TEAM-NET
 10
161.569252
 20
-307.282051
 30
850.0
 70
    64
  0
VERTEX
  5
56F
  8
TEAM-NET
 10
172.362756
 20
-285.394991
 30
850.0
 70
    64
  0
VERTEX
  5
570
  8
TEAM-NET
 10
180.207085
 20
-262.286343
 30
850.0
 70
    64
  0
VERTEX
  5
571
  8
TEAM-NET
 10
184.968021
 20
-238.351502
 30
850.0
 70
    64
  0
VERTEX
  5
572
  8
TEAM-NET
 10
186.564103
 20
-214.0
 30
850.0
 70
    64
  0
VERTEX
  5
573
  8
TEAM-NET
 10
184.968021
 20
-189.648498
 30
850.0
 70
    64
  0
VERTEX
  5
574
  8
TEAM-NET
 10
180.207085
 20
-165.713657
 30
850.0
 70
    64
  0
VERTEX
  5
575
  8
TEAM-NET
 10
172.362756
 20
-142.605009
 30
850.0
 70
    64
  0
VERTEX
  5
576
  8
TEAM-NET
 10
161.569252
 20
-120.717949
 30
850.0
 70
    64
  0
VERTEX
  5
577
  8
TEAM-NET
 10
148.011254
 20
-100.42697
 30
850.0
 70
    64
  0
VERTEX
  5
578
  8
TEAM-NET
 10
131.920742
 20
-82.079258
 30
850.0
 70
    64
  0
VERTEX
  5
579
  8
TEAM-NET
 10
113.57303
 20
-65.988746
 30
850.0
 70
    64
  0
VERTEX
  5
57A
  8
TEAM-NET
 10
93.282051
 20
-52.430748
 30
850.0
 70
    64
  0
VERTEX
  5
57B
  8
TEAM-NET
 10
71.394991
 20
-41.637244
 30
850.0
 70
    64
  0
VERTEX
  5
57C
  8
TEAM-NET
 10
48.286343
 20
-33.792915
 30
850.0
 70
    64
  0
VERTEX
  5
57D
  8
TEAM-NET
 10
24.351502
 20
-29.031979
 30
850.0
 70
    64
  0
VERTEX
  5
57E
  8
TEAM-NET
 10
0.0
 20
-27.435897
 30
850.0
 70
    64
  0
SEQEND
  5
57F
  8
TEAM-NET
  0
ENDSEC
  0
EOF
