  0
SECTION
  2
HEADER
  9
$ACADVER
  1
AC1009
  9
$INSBASE
 10
0.0
 20
0.0
 30
0.0
  9
$EXTMIN
 10
-169.520133
 20
-339.020106
 30
-0.051878
  9
$EXTMAX
 10
169.520136
 20
8.713503
 30
850.051885
  9
$LIMMIN
 10
-169.520133
 20
-339.020106
  9
$LIMMAX
 10
169.520136
 20
8.713503
  9
$ORTHOMODE
 70
     1
  9
$REGENMODE
 70
     1
  9
$FILLMODE
 70
     1
  9
$QTEXTMODE
 70
     0
  9
$MIRRTEXT
 70
     0
  9
$DRAGMODE
 70
     2
  9
$LTSCALE
 40
25.0
  9
$OSMODE
 70
     0
  9
$ATTMODE
 70
     1
  9
$TEXTSIZE
 40
200.0
  9
$TRACEWID
 40
1.0
  9
$TEXTSTYLE
  7
STANDARD
  9
$CLAYER
  8
TEAM-MAS
  9
$CELTYPE
  6
BYLAYER
  9
$CECOLOR
 62
   256
  9
$DIMSCALE
 40
1.0
  9
$DIMASZ
 40
20.0
  9
$DIMEXO
 40
10.0
  9
$DIMDLI
 40
1.0
  9
$DIMRND
 40
0.0
  9
$DIMDLE
 40
0.0
  9
$DIMEXE
 40
1.0
  9
$DIMTP
 40
0.0
  9
$DIMTM
 40
0.0
  9
$DIMTXT
 40
35.0
  9
$DIMCEN
 40
1.0
  9
$DIMTSZ
 40
0.0
  9
$DIMTOL
 70
     0
  9
$DIMLIM
 70
     0
  9
$DIMTIH
 70
     0
  9
$DIMTOH
 70
     0
  9
$DIMSE1
 70
     0
  9
$DIMSE2
 70
     0
  9
$DIMTAD
 70
     0
  9
$DIMZIN
 70
     0
  9
$DIMBLK
  1

  9
$DIMASO
 70
     1
  9
$DIMSHO
 70
     0
  9
$DIMPOST
  1

  9
$DIMAPOST
  1

  9
$DIMALT
 70
     0
  9
$DIMALTD
 70
     2
  9
$DIMALTF
 40
25.4
  9
$DIMLFAC
 40
1.0
  9
$DIMTOFL
 70
     0
  9
$DIMTVP
 40
0.0
  9
$DIMTIX
 70
     0
  9
$DIMSOXD
 70
     0
  9
$DIMSAH
 70
     0
  9
$DIMBLK1
  1

  9
$DIMBLK2
  1

  9
$DIMSTYLE
  2
TEAM
  9
$DIMCLRD
 70
     9
  9
$DIMCLRE
 70
     9
  9
$DIMCLRT
 70
    11
  9
$DIMTFAC
 40
1.0
  9
$DIMGAP
 40
15.0
  9
$LUNITS
 70
     2
  9
$LUPREC
 70
     1
  9
$SKETCHINC
 40
1.0
  9
$FILLETRAD
 40
50.0
  9
$AUNITS
 70
     0
  9
$AUPREC
 70
     0
  9
$MENU
  1
ROPLANS
  9
$ELEVATION
 40
0.0
  9
$PELEVATION
 40
0.0
  9
$THICKNESS
 40
0.0
  9
$LIMCHECK
 70
     0
  9
$BLIPMODE
 70
     1
  9
$CHAMFERA
 40
0.0
  9
$CHAMFERB
 40
0.0
  9
$SKPOLY
 70
     0
  9
$TDCREATE
 40
2450392.957851
  9
$TDUPDATE
 40
2455505.473099
  9
$TDINDWG
 40
2.023557
  9
$TDUSRTIMER
 40
2.023557
  9
$USRTIMER
 70
     1
  9
$ANGBASE
 50
0.0
  9
$ANGDIR
 70
     0
  9
$PDMODE
 70
     0
  9
$PDSIZE
 40
0.0
  9
$PLINEWID
 40
0.0
  9
$COORDS
 70
     2
  9
$SPLFRAME
 70
     0
  9
$SPLINETYPE
 70
     6
  9
$SPLINESEGS
 70
     8
  9
$ATTDIA
 70
     0
  9
$ATTREQ
 70
     0
  9
$HANDLING
 70
     1
  9
$HANDSEED
  5
5E5
  9
$SURFTAB1
 70
    24
  9
$SURFTAB2
 70
    24
  9
$SURFTYPE
 70
     6
  9
$SURFU
 70
     6
  9
$SURFV
 70
     6
  9
$UCSNAME
  2

  9
$UCSORG
 10
0.0
 20
0.0
 30
0.0
  9
$UCSXDIR
 10
1.0
 20
0.0
 30
0.0
  9
$UCSYDIR
 10
0.0
 20
1.0
 30
0.0
  9
$PUCSNAME
  2

  9
$PUCSORG
 10
0.0
 20
0.0
 30
0.0
  9
$PUCSXDIR
 10
1.0
 20
0.0
 30
0.0
  9
$PUCSYDIR
 10
0.0
 20
1.0
 30
0.0
  9
$USERI1
 70
     0
  9
$USERI2
 70
     0
  9
$USERI3
 70
     0
  9
$USERI4
 70
     0
  9
$USERI5
 70
     0
  9
$USERR1
 40
0.0
  9
$USERR2
 40
0.0
  9
$USERR3
 40
0.0
  9
$USERR4
 40
0.0
  9
$USERR5
 40
0.0
  9
$WORLDVIEW
 70
     1
  9
$SHADEDGE
 70
     0
  9
$SHADEDIF
 70
    70
  9
$TILEMODE
 70
     1
  9
$MAXACTVP
 70
    16
  9
$PLIMCHECK
 70
     0
  9
$PEXTMIN
 10
-0.805942
 20
0.005011
 30
0.0
  9
$PEXTMAX
 10
20.250094
 20
11.356329
 30
0.0
  9
$PLIMMIN
 10
0.0
 20
0.0
  9
$PLIMMAX
 10
12.0
 20
9.0
  9
$UNITMODE
 70
     0
  9
$VISRETAIN
 70
     0
  9
$PLINEGEN
 70
     0
  9
$PSLTSCALE
 70
     0
  0
ENDSEC
  0
SECTION
  2
TABLES
  0
TABLE
  2
VPORT
 70
     2
  0
VPORT
  2
*ACTIVE
 70
     0
 10
0.0
 20
0.0
 11
1.0
 21
1.0
 12
0.000002
 22
-165.153302
 13
0.0
 23
0.0
 14
1.0
 24
1.0
 15
50.0
 25
50.0
 16
0.0
 26
0.0
 36
1.0
 17
0.0
 27
0.0
 37
0.0
 40
349.869127
 41
1.865779
 42
50.0
 43
0.0
 44
0.0
 50
0.0
 51
0.0
 71
     0
 72
   100
 73
     1
 74
     1
 75
     0
 76
     0
 77
     0
 78
     0
  0
ENDTAB
  0
TABLE
  2
LTYPE
 70
     2
  0
LTYPE
  2
CONTINUOUS
 70
     0
  3
Solid Line
 72
    65
 73
     0
 40
0.0
  0
LTYPE
  2
31
 70
     0
  3

 72
    65
 73
     4
 40
2.1
 49
1.5
 49
-0.3
 49
0.0
 49
-0.3
  0
ENDTAB
  0
TABLE
  2
LAYER
 70
     8
  0
LAYER
  2
0
 70
     0
 62
     7
  6
CONTINUOUS
  0
LAYER
  2
TEAM-BODY
 70
     0
 62
     2
  6
CONTINUOUS
  0
LAYER
  2
TEAM-AXE
 70
     0
 62
    10
  6
31
  0
LAYER
  2
TEAM-MAS
 70
     0
 62
     9
  6
CONTINUOUS
  0
LAYER
  2
TEAM-TXT
 70
     0
 62
    11
  6
CONTINUOUS
  0
LAYER
  2
TEAM-DET1
 70
     0
 62
     4
  6
CONTINUOUS
  0
LAYER
  2
TEAM-NET
 70
     0
 62
    15
  6
CONTINUOUS
  0
LAYER
  2
TEAM-INSP
 70
     0
 62
     5
  6
CONTINUOUS
  0
ENDTAB
  0
TABLE
  2
STYLE
 70
     2
  0
STYLE
  2
STANDARD
 70
     0
 40
0.0
 41
1.0
 50
0.0
 71
     0
 42
200.0
  3
txt
  4

  0
STYLE
  2
TEAM
 70
     0
 40
0.0
 41
0.8
 50
15.0
 71
     0
 42
7.0
  3
ROMANS.shx
  4

  0
ENDTAB
  0
TABLE
  2
VIEW
 70
     0
  0
ENDTAB
  0
TABLE
  2
UCS
 70
     0
  0
ENDTAB
  0
TABLE
  2
APPID
 70
     1
  0
APPID
  2
ACAD
 70
     0
  0
ENDTAB
  0
TABLE
  2
DIMSTYLE
 70
     1
  0
DIMSTYLE
  2
TEAM
 70
     0
  3

  4

  5

  6

  7

 40
1.0
 41
20.0
 42
10.0
 43
1.0
 44
1.0
 45
0.0
 46
0.0
 47
0.0
 48
0.0
140
35.0
141
1.0
142
0.0
143
25.4
144
1.0
145
0.0
146
1.0
147
15.0
 71
     0
 72
     0
 73
     0
 74
     0
 75
     0
 76
     0
 77
     0
 78
     0
170
     0
171
     2
172
     0
173
     0
174
     0
175
     0
176
     9
177
     9
178
    11
  0
ENDTAB
  0
ENDSEC
  0
SECTION
  2
BLOCKS
  0
BLOCK
  8
0
  2
$MODEL_SPACE
 70
     0
 10
0.0
 20
0.0
 30
0.0
  3
$MODEL_SPACE
  1

  0
ENDBLK
  5
5DE
  8
0
  0
BLOCK
 67
     1
  8
0
  2
$PAPER_SPACE
 70
     0
 10
0.0
 20
0.0
 30
0.0
  3
$PAPER_SPACE
  1

  0
ENDBLK
  5
5DC
 67
     1
  8
0
  0
ENDSEC
  0
SECTION
  2
ENTITIES
  0
CIRCLE
  5
20
  8
TEAM-INSP
 10
0.0
 20
0.0
 30
0.0
 40
8.692279
  0
POLYLINE
  5
22
  8
TEAM-NET
 66
     1
 10
0.0
 20
0.0
 30
0.0
 70
    16
 71
    25
 72
    25
  0
VERTEX
  5
23
  8
TEAM-NET
 10
0.0
 20
-338.998886
 30
850.0
 70
    64
  0
VERTEX
  5
24
  8
TEAM-NET
 10
22.124117
 20
-337.548794
 30
850.0
 70
    64
  0
VERTEX
  5
25
  8
TEAM-NET
 10
43.869684
 20
-333.223332
 30
850.0
 70
    64
  0
VERTEX
  5
26
  8
TEAM-NET
 10
64.864629
 20
-326.096509
 30
850.0
 70
    64
  0
VERTEX
  5
27
  8
TEAM-NET
 10
84.749721
 20
-316.290266
 30
850.0
 70
    64
  0
VERTEX
  5
28
  8
TEAM-NET
 10
103.184723
 20
-303.972392
 30
850.0
 70
    64
  0
VERTEX
  5
29
  8
TEAM-NET
 10
119.854205
 20
-289.353648
 30
850.0
 70
    64
  0
VERTEX
  5
2A
  8
TEAM-NET
 10
134.472949
 20
-272.684166
 30
850.0
 70
    64
  0
VERTEX
  5
2B
  8
TEAM-NET
 10
146.790823
 20
-254.249164
 30
850.0
 70
    64
  0
VERTEX
  5
2C
  8
TEAM-NET
 10
156.597066
 20
-234.364071
 30
850.0
 70
    64
  0
VERTEX
  5
2D
  8
TEAM-NET
 10
163.723889
 20
-213.369127
 30
850.0
 70
    64
  0
VERTEX
  5
2E
  8
TEAM-NET
 10
168.049352
 20
-191.62356
 30
850.0
 70
    64
  0
VERTEX
  5
2F
  8
TEAM-NET
 10
169.499443
 20
-169.499443
 30
850.0
 70
    64
  0
VERTEX
  5
30
  8
TEAM-NET
 10
168.049352
 20
-147.375326
 30
850.0
 70
    64
  0
VERTEX
  5
31
  8
TEAM-NET
 10
163.723889
 20
-125.629759
 30
850.0
 70
    64
  0
VERTEX
  5
32
  8
TEAM-NET
 10
156.597066
 20
-104.634814
 30
850.0
 70
    64
  0
VERTEX
  5
33
  8
TEAM-NET
 10
146.790823
 20
-84.749721
 30
850.0
 70
    64
  0
VERTEX
  5
34
  8
TEAM-NET
 10
134.472949
 20
-66.31472
 30
850.0
 70
    64
  0
VERTEX
  5
35
  8
TEAM-NET
 10
119.854205
 20
-49.645237
 30
850.0
 70
    64
  0
VERTEX
  5
36
  8
TEAM-NET
 10
103.184723
 20
-35.026494
 30
850.0
 70
    64
  0
VERTEX
  5
37
  8
TEAM-NET
 10
84.749721
 20
-22.708619
 30
850.0
 70
    64
  0
VERTEX
  5
38
  8
TEAM-NET
 10
64.864629
 20
-12.902377
 30
850.0
 70
    64
  0
VERTEX
  5
39
  8
TEAM-NET
 10
43.869684
 20
-5.775553
 30
850.0
 70
    64
  0
VERTEX
  5
3A
  8
TEAM-NET
 10
22.124117
 20
-1.450091
 30
850.0
 70
    64
  0
VERTEX
  5
3B
  8
TEAM-NET
 10
0.0
 20
0.0
 30
850.0
 70
    64
  0
VERTEX
  5
3C
  8
TEAM-NET
 10
0.0
 20
-338.998886
 30
850.0
 70
    64
  0
VERTEX
  5
3D
  8
TEAM-NET
 10
21.934842
 20
-337.548794
 30
847.112223
 70
    64
  0
VERTEX
  5
3E
  8
TEAM-NET
 10
43.494373
 20
-333.223332
 30
844.273857
 70
    64
  0
VERTEX
  5
3F
  8
TEAM-NET
 10
64.309703
 20
-326.096509
 30
841.533467
 70
    64
  0
VERTEX
  5
40
  8
TEAM-NET
 10
84.024676
 20
-316.290266
 30
838.937942
 70
    64
  0
VERTEX
  5
41
  8
TEAM-NET
 10
102.301963
 20
-303.972392
 30
836.531691
 70
    64
  0
VERTEX
  5
42
  8
TEAM-NET
 10
118.828836
 20
-289.353648
 30
834.355887
 70
    64
  0
VERTEX
  5
43
  8
TEAM-NET
 10
133.322514
 20
-272.684166
 30
832.447758
 70
    64
  0
VERTEX
  5
44
  8
TEAM-NET
 10
145.535008
 20
-254.249164
 30
830.839953
 70
    64
  0
VERTEX
  5
45
  8
TEAM-NET
 10
155.257356
 20
-234.364071
 30
829.559981
 70
    64
  0
VERTEX
  5
46
  8
TEAM-NET
 10
162.323209
 20
-213.369127
 30
828.629744
 70
    64
  0
VERTEX
  5
47
  8
TEAM-NET
 10
166.611666
 20
-191.62356
 30
828.065158
 70
    64
  0
VERTEX
  5
48
  8
TEAM-NET
 10
168.049352
 20
-169.499443
 30
827.875883
 70
    64
  0
VERTEX
  5
49
  8
TEAM-NET
 10
166.611666
 20
-147.375326
 30
828.065158
 70
    64
  0
VERTEX
  5
4A
  8
TEAM-NET
 10
162.323209
 20
-125.629759
 30
828.629744
 70
    64
  0
VERTEX
  5
4B
  8
TEAM-NET
 10
155.257356
 20
-104.634814
 30
829.559981
 70
    64
  0
VERTEX
  5
4C
  8
TEAM-NET
 10
145.535008
 20
-84.749721
 30
830.839953
 70
    64
  0
VERTEX
  5
4D
  8
TEAM-NET
 10
133.322514
 20
-66.31472
 30
832.447758
 70
    64
  0
VERTEX
  5
4E
  8
TEAM-NET
 10
118.828836
 20
-49.645237
 30
834.355887
 70
    64
  0
VERTEX
  5
4F
  8
TEAM-NET
 10
102.301963
 20
-35.026494
 30
836.531691
 70
    64
  0
VERTEX
  5
50
  8
TEAM-NET
 10
84.024676
 20
-22.708619
 30
838.937942
 70
    64
  0
VERTEX
  5
51
  8
TEAM-NET
 10
64.309703
 20
-12.902377
 30
841.533467
 70
    64
  0
VERTEX
  5
52
  8
TEAM-NET
 10
43.494373
 20
-5.775553
 30
844.273857
 70
    64
  0
VERTEX
  5
53
  8
TEAM-NET
 10
21.934842
 20
-1.450091
 30
847.112223
 70
    64
  0
VERTEX
  5
54
  8
TEAM-NET
 10
0.0
 20
0.0
 30
850.0
 70
    64
  0
VERTEX
  5
55
  8
TEAM-NET
 10
0.0
 20
-338.998886
 30
850.0
 70
    64
  0
VERTEX
  5
56
  8
TEAM-NET
 10
21.370256
 20
-337.548794
 30
844.273857
 70
    64
  0
VERTEX
  5
57
  8
TEAM-NET
 10
42.374861
 20
-333.223332
 30
838.64569
 70
    64
  0
VERTEX
  5
58
  8
TEAM-NET
 10
62.65442
 20
-326.096509
 30
833.211799
 70
    64
  0
VERTEX
  5
59
  8
TEAM-NET
 10
81.861945
 20
-316.290266
 30
828.065158
 70
    64
  0
VERTEX
  5
5A
  8
TEAM-NET
 10
99.668789
 20
-303.972392
 30
823.293829
 70
    64
  0
VERTEX
  5
5B
  8
TEAM-NET
 10
115.770272
 20
-289.353648
 30
818.979449
 70
    64
  0
VERTEX
  5
5C
  8
TEAM-NET
 10
129.890894
 20
-272.684166
 30
815.19584
 70
    64
  0
VERTEX
  5
5D
  8
TEAM-NET
 10
141.789047
 20
-254.249164
 30
812.007739
 70
    64
  0
VERTEX
  5
5E
  8
TEAM-NET
 10
151.26115
 20
-234.364071
 30
809.469697
 70
    64
  0
VERTEX
  5
5F
  8
TEAM-NET
 10
158.145133
 20
-213.369127
 30
807.625139
 70
    64
  0
VERTEX
  5
60
  8
TEAM-NET
 10
162.323209
 20
-191.62356
 30
806.505627
 70
    64
  0
VERTEX
  5
61
  8
TEAM-NET
 10
163.723889
 20
-169.499443
 30
806.130316
 70
    64
  0
VERTEX
  5
62
  8
TEAM-NET
 10
162.323209
 20
-147.375326
 30
806.505627
 70
    64
  0
VERTEX
  5
63
  8
TEAM-NET
 10
158.145133
 20
-125.629759
 30
807.625139
 70
    64
  0
VERTEX
  5
64
  8
TEAM-NET
 10
151.26115
 20
-104.634814
 30
809.469697
 70
    64
  0
VERTEX
  5
65
  8
TEAM-NET
 10
141.789047
 20
-84.749721
 30
812.007739
 70
    64
  0
VERTEX
  5
66
  8
TEAM-NET
 10
129.890894
 20
-66.31472
 30
815.19584
 70
    64
  0
VERTEX
  5
67
  8
TEAM-NET
 10
115.770272
 20
-49.645237
 30
818.979449
 70
    64
  0
VERTEX
  5
68
  8
TEAM-NET
 10
99.668789
 20
-35.026494
 30
823.293829
 70
    64
  0
VERTEX
  5
69
  8
TEAM-NET
 10
81.861945
 20
-22.708619
 30
828.065158
 70
    64
  0
VERTEX
  5
6A
  8
TEAM-NET
 10
62.65442
 20
-12.902377
 30
833.211799
 70
    64
  0
VERTEX
  5
6B
  8
TEAM-NET
 10
42.374861
 20
-5.775553
 30
838.64569
 70
    64
  0
VERTEX
  5
6C
  8
TEAM-NET
 10
21.370256
 20
-1.450091
 30
844.273857
 70
    64
  0
VERTEX
  5
6D
  8
TEAM-NET
 10
0.0
 20
0.0
 30
850.0
 70
    64
  0
VERTEX
  5
6E
  8
TEAM-NET
 10
0.0
 20
-338.998886
 30
850.0
 70
    64
  0
VERTEX
  5
6F
  8
TEAM-NET
 10
20.440019
 20
-337.548794
 30
841.533467
 70
    64
  0
VERTEX
  5
70
  8
TEAM-NET
 10
40.530303
 20
-333.223332
 30
833.211799
 70
    64
  0
VERTEX
  5
71
  8
TEAM-NET
 10
59.927103
 20
-326.096509
 30
825.177381
 70
    64
  0
VERTEX
  5
72
  8
TEAM-NET
 10
78.298533
 20
-316.290266
 30
817.567686
 70
    64
  0
VERTEX
  5
73
  8
TEAM-NET
 10
95.330254
 20
-303.972392
 30
810.512916
 70
    64
  0
VERTEX
  5
74
  8
TEAM-NET
 10
110.730847
 20
-289.353648
 30
804.133781
 70
    64
  0
VERTEX
  5
75
  8
TEAM-NET
 10
124.236805
 20
-272.684166
 30
798.53943
 70
    64
  0
VERTEX
  5
76
  8
TEAM-NET
 10
135.617037
 20
-254.249164
 30
793.825584
 70
    64
  0
VERTEX
  5
77
  8
TEAM-NET
 10
144.676824
 20
-234.364071
 30
790.072897
 70
    64
  0
VERTEX
  5
78
  8
TEAM-NET
 10
151.26115
 20
-213.369127
 30
787.34558
 70
    64
  0
VERTEX
  5
79
  8
TEAM-NET
 10
155.257356
 20
-191.62356
 30
785.690297
 70
    64
  0
VERTEX
  5
7A
  8
TEAM-NET
 10
156.597066
 20
-169.499443
 30
785.135371
 70
    64
  0
VERTEX
  5
7B
  8
TEAM-NET
 10
155.257356
 20
-147.375326
 30
785.690297
 70
    64
  0
VERTEX
  5
7C
  8
TEAM-NET
 10
151.26115
 20
-125.629759
 30
787.34558
 70
    64
  0
VERTEX
  5
7D
  8
TEAM-NET
 10
144.676824
 20
-104.634814
 30
790.072897
 70
    64
  0
VERTEX
  5
7E
  8
TEAM-NET
 10
135.617037
 20
-84.749721
 30
793.825584
 70
    64
  0
VERTEX
  5
7F
  8
TEAM-NET
 10
124.236805
 20
-66.31472
 30
798.53943
 70
    64
  0
VERTEX
  5
80
  8
TEAM-NET
 10
110.730847
 20
-49.645237
 30
804.133781
 70
    64
  0
VERTEX
  5
81
  8
TEAM-NET
 10
95.330254
 20
-35.026494
 30
810.512916
 70
    64
  0
VERTEX
  5
82
  8
TEAM-NET
 10
78.298533
 20
-22.708619
 30
817.567686
 70
    64
  0
VERTEX
  5
83
  8
TEAM-NET
 10
59.927103
 20
-12.902377
 30
825.177381
 70
    64
  0
VERTEX
  5
84
  8
TEAM-NET
 10
40.530303
 20
-5.775553
 30
833.211799
 70
    64
  0
VERTEX
  5
85
  8
TEAM-NET
 10
20.440019
 20
-1.450091
 30
841.533467
 70
    64
  0
VERTEX
  5
86
  8
TEAM-NET
 10
0.0
 20
0.0
 30
850.0
 70
    64
  0
VERTEX
  5
87
  8
TEAM-NET
 10
0.0
 20
-338.998886
 30
850.0
 70
    64
  0
VERTEX
  5
88
  8
TEAM-NET
 10
19.160047
 20
-337.548794
 30
838.937942
 70
    64
  0
VERTEX
  5
89
  8
TEAM-NET
 10
37.992261
 20
-333.223332
 30
828.065158
 70
    64
  0
VERTEX
  5
8A
  8
TEAM-NET
 10
56.174416
 20
-326.096509
 30
817.567686
 70
    64
  0
VERTEX
  5
8B
  8
TEAM-NET
 10
73.395412
 20
-316.290266
 30
807.625139
 70
    64
  0
VERTEX
  5
8C
  8
TEAM-NET
 10
89.360591
 20
-303.972392
 30
798.407638
 70
    64
  0
VERTEX
  5
8D
  8
TEAM-NET
 10
103.796787
 20
-289.353648
 30
790.072897
 70
    64
  0
VERTEX
  5
8E
  8
TEAM-NET
 10
116.45699
 20
-272.684166
 30
782.763525
 70
    64
  0
VERTEX
  5
8F
  8
TEAM-NET
 10
127.124582
 20
-254.249164
 30
776.604588
 70
    64
  0
VERTEX
  5
90
  8
TEAM-NET
 10
135.617037
 20
-234.364071
 30
771.701467
 70
    64
  0
VERTEX
  5
91
  8
TEAM-NET
 10
141.789047
 20
-213.369127
 30
768.138055
 70
    64
  0
VERTEX
  5
92
  8
TEAM-NET
 10
145.535008
 20
-191.62356
 30
765.975324
 70
    64
  0
VERTEX
  5
93
  8
TEAM-NET
 10
146.790823
 20
-169.499443
 30
765.250279
 70
    64
  0
VERTEX
  5
94
  8
TEAM-NET
 10
145.535008
 20
-147.375326
 30
765.975324
 70
    64
  0
VERTEX
  5
95
  8
TEAM-NET
 10
141.789047
 20
-125.629759
 30
768.138055
 70
    64
  0
VERTEX
  5
96
  8
TEAM-NET
 10
135.617037
 20
-104.634814
 30
771.701467
 70
    64
  0
VERTEX
  5
97
  8
TEAM-NET
 10
127.124582
 20
-84.749721
 30
776.604588
 70
    64
  0
VERTEX
  5
98
  8
TEAM-NET
 10
116.45699
 20
-66.31472
 30
782.763525
 70
    64
  0
VERTEX
  5
99
  8
TEAM-NET
 10
103.796787
 20
-49.645237
 30
790.072897
 70
    64
  0
VERTEX
  5
9A
  8
TEAM-NET
 10
89.360591
 20
-35.026494
 30
798.407638
 70
    64
  0
VERTEX
  5
9B
  8
TEAM-NET
 10
73.395412
 20
-22.708619
 30
807.625139
 70
    64
  0
VERTEX
  5
9C
  8
TEAM-NET
 10
56.174416
 20
-12.902377
 30
817.567686
 70
    64
  0
VERTEX
  5
9D
  8
TEAM-NET
 10
37.992261
 20
-5.775553
 30
828.065158
 70
    64
  0
VERTEX
  5
9E
  8
TEAM-NET
 10
19.160047
 20
-1.450091
 30
838.937942
 70
    64
  0
VERTEX
  5
9F
  8
TEAM-NET
 10
0.0
 20
0.0
 30
850.0
 70
    64
  0
VERTEX
  5
A0
  8
TEAM-NET
 10
0.0
 20
-338.998886
 30
850.0
 70
    64
  0
VERTEX
  5
A1
  8
TEAM-NET
 10
17.552242
 20
-337.548794
 30
836.531691
 70
    64
  0
VERTEX
  5
A2
  8
TEAM-NET
 10
34.80416
 20
-333.223332
 30
823.293829
 70
    64
  0
VERTEX
  5
A3
  8
TEAM-NET
 10
51.46057
 20
-326.096509
 30
810.512916
 70
    64
  0
VERTEX
  5
A4
  8
TEAM-NET
 10
67.236475
 20
-316.290266
 30
798.407638
 70
    64
  0
VERTEX
  5
A5
  8
TEAM-NET
 10
81.861945
 20
-303.972392
 30
787.185121
 70
    64
  0
VERTEX
  5
A6
  8
TEAM-NET
 10
95.086734
 20
-289.353648
 30
777.037383
 70
    64
  0
VERTEX
  5
A7
  8
TEAM-NET
 10
106.684563
 20
-272.684166
 30
768.138055
 70
    64
  0
VERTEX
  5
A8
  8
TEAM-NET
 10
116.45699
 20
-254.249164
 30
760.639409
 70
    64
  0
VERTEX
  5
A9
  8
TEAM-NET
 10
124.236805
 20
-234.364071
 30
754.669746
 70
    64
  0
VERTEX
  5
AA
  8
TEAM-NET
 10
129.890894
 20
-213.369127
 30
750.331211
 70
    64
  0
VERTEX
  5
AB
  8
TEAM-NET
 10
133.322514
 20
-191.62356
 30
747.698037
 70
    64
  0
VERTEX
  5
AC
  8
TEAM-NET
 10
134.472949
 20
-169.499443
 30
746.815277
 70
    64
  0
VERTEX
  5
AD
  8
TEAM-NET
 10
133.322514
 20
-147.375326
 30
747.698037
 70
    64
  0
VERTEX
  5
AE
  8
TEAM-NET
 10
129.890894
 20
-125.629759
 30
750.331211
 70
    64
  0
VERTEX
  5
AF
  8
TEAM-NET
 10
124.236805
 20
-104.634814
 30
754.669746
 70
    64
  0
VERTEX
  5
B0
  8
TEAM-NET
 10
116.45699
 20
-84.749721
 30
760.639409
 70
    64
  0
VERTEX
  5
B1
  8
TEAM-NET
 10
106.684563
 20
-66.31472
 30
768.138055
 70
    64
  0
VERTEX
  5
B2
  8
TEAM-NET
 10
95.086734
 20
-49.645237
 30
777.037383
 70
    64
  0
VERTEX
  5
B3
  8
TEAM-NET
 10
81.861945
 20
-35.026494
 30
787.185121
 70
    64
  0
VERTEX
  5
B4
  8
TEAM-NET
 10
67.236475
 20
-22.708619
 30
798.407638
 70
    64
  0
VERTEX
  5
B5
  8
TEAM-NET
 10
51.46057
 20
-12.902377
 30
810.512916
 70
    64
  0
VERTEX
  5
B6
  8
TEAM-NET
 10
34.80416
 20
-5.775553
 30
823.293829
 70
    64
  0
VERTEX
  5
B7
  8
TEAM-NET
 10
17.552242
 20
-1.450091
 30
836.531691
 70
    64
  0
VERTEX
  5
B8
  8
TEAM-NET
 10
0.0
 20
0.0
 30
850.0
 70
    64
  0
VERTEX
  5
B9
  8
TEAM-NET
 10
0.0
 20
-338.998886
 30
850.0
 70
    64
  0
VERTEX
  5
BA
  8
TEAM-NET
 10
15.644113
 20
-337.548794
 30
834.355887
 70
    64
  0
VERTEX
  5
BB
  8
TEAM-NET
 10
31.020551
 20
-333.223332
 30
818.979449
 70
    64
  0
VERTEX
  5
BC
  8
TEAM-NET
 10
45.866219
 20
-326.096509
 30
804.133781
 70
    64
  0
VERTEX
  5
BD
  8
TEAM-NET
 10
59.927103
 20
-316.290266
 30
790.072897
 70
    64
  0
VERTEX
  5
BE
  8
TEAM-NET
 10
72.962617
 20
-303.972392
 30
777.037383
 70
    64
  0
VERTEX
  5
BF
  8
TEAM-NET
 10
84.749721
 20
-289.353648
 30
765.250279
 70
    64
  0
VERTEX
  5
C0
  8
TEAM-NET
 10
95.086734
 20
-272.684166
 30
754.913266
 70
    64
  0
VERTEX
  5
C1
  8
TEAM-NET
 10
103.796787
 20
-254.249164
 30
746.203213
 70
    64
  0
VERTEX
  5
C2
  8
TEAM-NET
 10
110.730847
 20
-234.364071
 30
739.269153
 70
    64
  0
VERTEX
  5
C3
  8
TEAM-NET
 10
115.770272
 20
-213.369127
 30
734.229728
 70
    64
  0
VERTEX
  5
C4
  8
TEAM-NET
 10
118.828836
 20
-191.62356
 30
731.171164
 70
    64
  0
VERTEX
  5
C5
  8
TEAM-NET
 10
119.854205
 20
-169.499443
 30
730.145795
 70
    64
  0
VERTEX
  5
C6
  8
TEAM-NET
 10
118.828836
 20
-147.375326
 30
731.171164
 70
    64
  0
VERTEX
  5
C7
  8
TEAM-NET
 10
115.770272
 20
-125.629759
 30
734.229728
 70
    64
  0
VERTEX
  5
C8
  8
TEAM-NET
 10
110.730847
 20
-104.634814
 30
739.269153
 70
    64
  0
VERTEX
  5
C9
  8
TEAM-NET
 10
103.796787
 20
-84.749721
 30
746.203213
 70
    64
  0
VERTEX
  5
CA
  8
TEAM-NET
 10
95.086734
 20
-66.31472
 30
754.913266
 70
    64
  0
VERTEX
  5
CB
  8
TEAM-NET
 10
84.749721
 20
-49.645237
 30
765.250279
 70
    64
  0
VERTEX
  5
CC
  8
TEAM-NET
 10
72.962617
 20
-35.026494
 30
777.037383
 70
    64
  0
VERTEX
  5
CD
  8
TEAM-NET
 10
59.927103
 20
-22.708619
 30
790.072897
 70
    64
  0
VERTEX
  5
CE
  8
TEAM-NET
 10
45.866219
 20
-12.902377
 30
804.133781
 70
    64
  0
VERTEX
  5
CF
  8
TEAM-NET
 10
31.020551
 20
-5.775553
 30
818.979449
 70
    64
  0
VERTEX
  5
D0
  8
TEAM-NET
 10
15.644113
 20
-1.450091
 30
834.355887
 70
    64
  0
VERTEX
  5
D1
  8
TEAM-NET
 10
0.0
 20
0.0
 30
850.0
 70
    64
  0
VERTEX
  5
D2
  8
TEAM-NET
 10
0.0
 20
-338.998886
 30
850.0
 70
    64
  0
VERTEX
  5
D3
  8
TEAM-NET
 10
13.468309
 20
-337.548794
 30
832.447758
 70
    64
  0
VERTEX
  5
D4
  8
TEAM-NET
 10
26.706171
 20
-333.223332
 30
815.19584
 70
    64
  0
VERTEX
  5
D5
  8
TEAM-NET
 10
39.487084
 20
-326.096509
 30
798.53943
 70
    64
  0
VERTEX
  5
D6
  8
TEAM-NET
 10
51.592362
 20
-316.290266
 30
782.763525
 70
    64
  0
VERTEX
  5
D7
  8
TEAM-NET
 10
62.814879
 20
-303.972392
 30
768.138055
 70
    64
  0
VERTEX
  5
D8
  8
TEAM-NET
 10
72.962617
 20
-289.353648
 30
754.913266
 70
    64
  0
VERTEX
  5
D9
  8
TEAM-NET
 10
81.861945
 20
-272.684166
 30
743.315437
 70
    64
  0
VERTEX
  5
DA
  8
TEAM-NET
 10
89.360591
 20
-254.249164
 30
733.54301
 70
    64
  0
VERTEX
  5
DB
  8
TEAM-NET
 10
95.330254
 20
-234.364071
 30
725.763195
 70
    64
  0
VERTEX
  5
DC
  8
TEAM-NET
 10
99.668789
 20
-213.369127
 30
720.109106
 70
    64
  0
VERTEX
  5
DD
  8
TEAM-NET
 10
102.301963
 20
-191.62356
 30
716.677486
 70
    64
  0
VERTEX
  5
DE
  8
TEAM-NET
 10
103.184723
 20
-169.499443
 30
715.527051
 70
    64
  0
VERTEX
  5
DF
  8
TEAM-NET
 10
102.301963
 20
-147.375326
 30
716.677486
 70
    64
  0
VERTEX
  5
E0
  8
TEAM-NET
 10
99.668789
 20
-125.629759
 30
720.109106
 70
    64
  0
VERTEX
  5
E1
  8
TEAM-NET
 10
95.330254
 20
-104.634814
 30
725.763195
 70
    64
  0
VERTEX
  5
E2
  8
TEAM-NET
 10
89.360591
 20
-84.749721
 30
733.54301
 70
    64
  0
VERTEX
  5
E3
  8
TEAM-NET
 10
81.861945
 20
-66.31472
 30
743.315437
 70
    64
  0
VERTEX
  5
E4
  8
TEAM-NET
 10
72.962617
 20
-49.645237
 30
754.913266
 70
    64
  0
VERTEX
  5
E5
  8
TEAM-NET
 10
62.814879
 20
-35.026494
 30
768.138055
 70
    64
  0
VERTEX
  5
E6
  8
TEAM-NET
 10
51.592362
 20
-22.708619
 30
782.763525
 70
    64
  0
VERTEX
  5
E7
  8
TEAM-NET
 10
39.487084
 20
-12.902377
 30
798.53943
 70
    64
  0
VERTEX
  5
E8
  8
TEAM-NET
 10
26.706171
 20
-5.775553
 30
815.19584
 70
    64
  0
VERTEX
  5
E9
  8
TEAM-NET
 10
13.468309
 20
-1.450091
 30
832.447758
 70
    64
  0
VERTEX
  5
EA
  8
TEAM-NET
 10
0.0
 20
0.0
 30
850.0
 70
    64
  0
VERTEX
  5
EB
  8
TEAM-NET
 10
0.0
 20
-338.998886
 30
850.0
 70
    64
  0
VERTEX
  5
EC
  8
TEAM-NET
 10
11.062058
 20
-337.548794
 30
830.839953
 70
    64
  0
VERTEX
  5
ED
  8
TEAM-NET
 10
21.934842
 20
-333.223332
 30
812.007739
 70
    64
  0
VERTEX
  5
EE
  8
TEAM-NET
 10
32.432314
 20
-326.096509
 30
793.825584
 70
    64
  0
VERTEX
  5
EF
  8
TEAM-NET
 10
42.374861
 20
-316.290266
 30
776.604588
 70
    64
  0
VERTEX
  5
F0
  8
TEAM-NET
 10
51.592362
 20
-303.972392
 30
760.639409
 70
    64
  0
VERTEX
  5
F1
  8
TEAM-NET
 10
59.927103
 20
-289.353648
 30
746.203213
 70
    64
  0
VERTEX
  5
F2
  8
TEAM-NET
 10
67.236475
 20
-272.684166
 30
733.54301
 70
    64
  0
VERTEX
  5
F3
  8
TEAM-NET
 10
73.395412
 20
-254.249164
 30
722.875418
 70
    64
  0
VERTEX
  5
F4
  8
TEAM-NET
 10
78.298533
 20
-234.364071
 30
714.382963
 70
    64
  0
VERTEX
  5
F5
  8
TEAM-NET
 10
81.861945
 20
-213.369127
 30
708.210953
 70
    64
  0
VERTEX
  5
F6
  8
TEAM-NET
 10
84.024676
 20
-191.62356
 30
704.464992
 70
    64
  0
VERTEX
  5
F7
  8
TEAM-NET
 10
84.749721
 20
-169.499443
 30
703.209177
 70
    64
  0
VERTEX
  5
F8
  8
TEAM-NET
 10
84.024676
 20
-147.375326
 30
704.464992
 70
    64
  0
VERTEX
  5
F9
  8
TEAM-NET
 10
81.861945
 20
-125.629759
 30
708.210953
 70
    64
  0
VERTEX
  5
FA
  8
TEAM-NET
 10
78.298533
 20
-104.634814
 30
714.382963
 70
    64
  0
VERTEX
  5
FB
  8
TEAM-NET
 10
73.395412
 20
-84.749721
 30
722.875418
 70
    64
  0
VERTEX
  5
FC
  8
TEAM-NET
 10
67.236475
 20
-66.31472
 30
733.54301
 70
    64
  0
VERTEX
  5
FD
  8
TEAM-NET
 10
59.927103
 20
-49.645237
 30
746.203213
 70
    64
  0
VERTEX
  5
FE
  8
TEAM-NET
 10
51.592362
 20
-35.026494
 30
760.639409
 70
    64
  0
VERTEX
  5
FF
  8
TEAM-NET
 10
42.374861
 20
-22.708619
 30
776.604588
 70
    64
  0
VERTEX
  5
100
  8
TEAM-NET
 10
32.432314
 20
-12.902377
 30
793.825584
 70
    64
  0
VERTEX
  5
101
  8
TEAM-NET
 10
21.934842
 20
-5.775553
 30
812.007739
 70
    64
  0
VERTEX
  5
102
  8
TEAM-NET
 10
11.062058
 20
-1.450091
 30
830.839953
 70
    64
  0
VERTEX
  5
103
  8
TEAM-NET
 10
0.0
 20
0.0
 30
850.0
 70
    64
  0
VERTEX
  5
104
  8
TEAM-NET
 10
0.0
 20
-338.998886
 30
850.0
 70
    64
  0
VERTEX
  5
105
  8
TEAM-NET
 10
8.466533
 20
-337.548794
 30
829.559981
 70
    64
  0
VERTEX
  5
106
  8
TEAM-NET
 10
16.788201
 20
-333.223332
 30
809.469697
 70
    64
  0
VERTEX
  5
107
  8
TEAM-NET
 10
24.822619
 20
-326.096509
 30
790.072897
 70
    64
  0
VERTEX
  5
108
  8
TEAM-NET
 10
32.432314
 20
-316.290266
 30
771.701467
 70
    64
  0
VERTEX
  5
109
  8
TEAM-NET
 10
39.487084
 20
-303.972392
 30
754.669746
 70
    64
  0
VERTEX
  5
10A
  8
TEAM-NET
 10
45.866219
 20
-289.353648
 30
739.269153
 70
    64
  0
VERTEX
  5
10B
  8
TEAM-NET
 10
51.46057
 20
-272.684166
 30
725.763195
 70
    64
  0
VERTEX
  5
10C
  8
TEAM-NET
 10
56.174416
 20
-254.249164
 30
714.382963
 70
    64
  0
VERTEX
  5
10D
  8
TEAM-NET
 10
59.927103
 20
-234.364071
 30
705.323176
 70
    64
  0
VERTEX
  5
10E
  8
TEAM-NET
 10
62.65442
 20
-213.369127
 30
698.73885
 70
    64
  0
VERTEX
  5
10F
  8
TEAM-NET
 10
64.309703
 20
-191.62356
 30
694.742644
 70
    64
  0
VERTEX
  5
110
  8
TEAM-NET
 10
64.864629
 20
-169.499443
 30
693.402934
 70
    64
  0
VERTEX
  5
111
  8
TEAM-NET
 10
64.309703
 20
-147.375326
 30
694.742644
 70
    64
  0
VERTEX
  5
112
  8
TEAM-NET
 10
62.65442
 20
-125.629759
 30
698.73885
 70
    64
  0
VERTEX
  5
113
  8
TEAM-NET
 10
59.927103
 20
-104.634814
 30
705.323176
 70
    64
  0
VERTEX
  5
114
  8
TEAM-NET
 10
56.174416
 20
-84.749721
 30
714.382963
 70
    64
  0
VERTEX
  5
115
  8
TEAM-NET
 10
51.46057
 20
-66.31472
 30
725.763195
 70
    64
  0
VERTEX
  5
116
  8
TEAM-NET
 10
45.866219
 20
-49.645237
 30
739.269153
 70
    64
  0
VERTEX
  5
117
  8
TEAM-NET
 10
39.487084
 20
-35.026494
 30
754.669746
 70
    64
  0
VERTEX
  5
118
  8
TEAM-NET
 10
32.432314
 20
-22.708619
 30
771.701467
 70
    64
  0
VERTEX
  5
119
  8
TEAM-NET
 10
24.822619
 20
-12.902377
 30
790.072897
 70
    64
  0
VERTEX
  5
11A
  8
TEAM-NET
 10
16.788201
 20
-5.775553
 30
809.469697
 70
    64
  0
VERTEX
  5
11B
  8
TEAM-NET
 10
8.466533
 20
-1.450091
 30
829.559981
 70
    64
  0
VERTEX
  5
11C
  8
TEAM-NET
 10
0.0
 20
0.0
 30
850.0
 70
    64
  0
VERTEX
  5
11D
  8
TEAM-NET
 10
0.0
 20
-338.998886
 30
850.0
 70
    64
  0
VERTEX
  5
11E
  8
TEAM-NET
 10
5.726143
 20
-337.548794
 30
828.629744
 70
    64
  0
VERTEX
  5
11F
  8
TEAM-NET
 10
11.35431
 20
-333.223332
 30
807.625139
 70
    64
  0
VERTEX
  5
120
  8
TEAM-NET
 10
16.788201
 20
-326.096509
 30
787.34558
 70
    64
  0
VERTEX
  5
121
  8
TEAM-NET
 10
21.934842
 20
-316.290266
 30
768.138055
 70
    64
  0
VERTEX
  5
122
  8
TEAM-NET
 10
26.706171
 20
-303.972392
 30
750.331211
 70
    64
  0
VERTEX
  5
123
  8
TEAM-NET
 10
31.020551
 20
-289.353648
 30
734.229728
 70
    64
  0
VERTEX
  5
124
  8
TEAM-NET
 10
34.80416
 20
-272.684166
 30
720.109106
 70
    64
  0
VERTEX
  5
125
  8
TEAM-NET
 10
37.992261
 20
-254.249164
 30
708.210953
 70
    64
  0
VERTEX
  5
126
  8
TEAM-NET
 10
40.530303
 20
-234.364071
 30
698.73885
 70
    64
  0
VERTEX
  5
127
  8
TEAM-NET
 10
42.374861
 20
-213.369127
 30
691.854867
 70
    64
  0
VERTEX
  5
128
  8
TEAM-NET
 10
43.494373
 20
-191.62356
 30
687.676791
 70
    64
  0
VERTEX
  5
129
  8
TEAM-NET
 10
43.869684
 20
-169.499443
 30
686.276111
 70
    64
  0
VERTEX
  5
12A
  8
TEAM-NET
 10
43.494373
 20
-147.375326
 30
687.676791
 70
    64
  0
VERTEX
  5
12B
  8
TEAM-NET
 10
42.374861
 20
-125.629759
 30
691.854867
 70
    64
  0
VERTEX
  5
12C
  8
TEAM-NET
 10
40.530303
 20
-104.634814
 30
698.73885
 70
    64
  0
VERTEX
  5
12D
  8
TEAM-NET
 10
37.992261
 20
-84.749721
 30
708.210953
 70
    64
  0
VERTEX
  5
12E
  8
TEAM-NET
 10
34.80416
 20
-66.31472
 30
720.109106
 70
    64
  0
VERTEX
  5
12F
  8
TEAM-NET
 10
31.020551
 20
-49.645237
 30
734.229728
 70
    64
  0
VERTEX
  5
130
  8
TEAM-NET
 10
26.706171
 20
-35.026494
 30
750.331211
 70
    64
  0
VERTEX
  5
131
  8
TEAM-NET
 10
21.934842
 20
-22.708619
 30
768.138055
 70
    64
  0
VERTEX
  5
132
  8
TEAM-NET
 10
16.788201
 20
-12.902377
 30
787.34558
 70
    64
  0
VERTEX
  5
133
  8
TEAM-NET
 10
11.35431
 20
-5.775553
 30
807.625139
 70
    64
  0
VERTEX
  5
134
  8
TEAM-NET
 10
5.726143
 20
-1.450091
 30
828.629744
 70
    64
  0
VERTEX
  5
135
  8
TEAM-NET
 10
0.0
 20
0.0
 30
850.0
 70
    64
  0
VERTEX
  5
136
  8
TEAM-NET
 10
0.0
 20
-338.998886
 30
850.0
 70
    64
  0
VERTEX
  5
137
  8
TEAM-NET
 10
2.887777
 20
-337.548794
 30
828.065158
 70
    64
  0
VERTEX
  5
138
  8
TEAM-NET
 10
5.726143
 20
-333.223332
 30
806.505627
 70
    64
  0
VERTEX
  5
139
  8
TEAM-NET
 10
8.466533
 20
-326.096509
 30
785.690297
 70
    64
  0
VERTEX
  5
13A
  8
TEAM-NET
 10
11.062058
 20
-316.290266
 30
765.975324
 70
    64
  0
VERTEX
  5
13B
  8
TEAM-NET
 10
13.468309
 20
-303.972392
 30
747.698037
 70
    64
  0
VERTEX
  5
13C
  8
TEAM-NET
 10
15.644113
 20
-289.353648
 30
731.171164
 70
    64
  0
VERTEX
  5
13D
  8
TEAM-NET
 10
17.552242
 20
-272.684166
 30
716.677486
 70
    64
  0
VERTEX
  5
13E
  8
TEAM-NET
 10
19.160047
 20
-254.249164
 30
704.464992
 70
    64
  0
VERTEX
  5
13F
  8
TEAM-NET
 10
20.440019
 20
-234.364071
 30
694.742644
 70
    64
  0
VERTEX
  5
140
  8
TEAM-NET
 10
21.370256
 20
-213.369127
 30
687.676791
 70
    64
  0
VERTEX
  5
141
  8
TEAM-NET
 10
21.934842
 20
-191.62356
 30
683.388334
 70
    64
  0
VERTEX
  5
142
  8
TEAM-NET
 10
22.124117
 20
-169.499443
 30
681.950648
 70
    64
  0
VERTEX
  5
143
  8
TEAM-NET
 10
21.934842
 20
-147.375326
 30
683.388334
 70
    64
  0
VERTEX
  5
144
  8
TEAM-NET
 10
21.370256
 20
-125.629759
 30
687.676791
 70
    64
  0
VERTEX
  5
145
  8
TEAM-NET
 10
20.440019
 20
-104.634814
 30
694.742644
 70
    64
  0
VERTEX
  5
146
  8
TEAM-NET
 10
19.160047
 20
-84.749721
 30
704.464992
 70
    64
  0
VERTEX
  5
147
  8
TEAM-NET
 10
17.552242
 20
-66.31472
 30
716.677486
 70
    64
  0
VERTEX
  5
148
  8
TEAM-NET
 10
15.644113
 20
-49.645237
 30
731.171164
 70
    64
  0
VERTEX
  5
149
  8
TEAM-NET
 10
13.468309
 20
-35.026494
 30
747.698037
 70
    64
  0
VERTEX
  5
14A
  8
TEAM-NET
 10
11.062058
 20
-22.708619
 30
765.975324
 70
    64
  0
VERTEX
  5
14B
  8
TEAM-NET
 10
8.466533
 20
-12.902377
 30
785.690297
 70
    64
  0
VERTEX
  5
14C
  8
TEAM-NET
 10
5.726143
 20
-5.775553
 30
806.505627
 70
    64
  0
VERTEX
  5
14D
  8
TEAM-NET
 10
2.887777
 20
-1.450091
 30
828.065158
 70
    64
  0
VERTEX
  5
14E
  8
TEAM-NET
 10
0.0
 20
0.0
 30
850.0
 70
    64
  0
VERTEX
  5
14F
  8
TEAM-NET
 10
0.0
 20
-338.998886
 30
850.0
 70
    64
  0
VERTEX
  5
150
  8
TEAM-NET
 10
0.0
 20
-337.548794
 30
827.875883
 70
    64
  0
VERTEX
  5
151
  8
TEAM-NET
 10
0.0
 20
-333.223332
 30
806.130316
 70
    64
  0
VERTEX
  5
152
  8
TEAM-NET
 10
0.0
 20
-326.096509
 30
785.135371
 70
    64
  0
VERTEX
  5
153
  8
TEAM-NET
 10
0.0
 20
-316.290266
 30
765.250279
 70
    64
  0
VERTEX
  5
154
  8
TEAM-NET
 10
0.0
 20
-303.972392
 30
746.815277
 70
    64
  0
VERTEX
  5
155
  8
TEAM-NET
 10
0.0
 20
-289.353648
 30
730.145795
 70
    64
  0
VERTEX
  5
156
  8
TEAM-NET
 10
0.0
 20
-272.684166
 30
715.527051
 70
    64
  0
VERTEX
  5
157
  8
TEAM-NET
 10
0.0
 20
-254.249164
 30
703.209177
 70
    64
  0
VERTEX
  5
158
  8
TEAM-NET
 10
0.0
 20
-234.364071
 30
693.402934
 70
    64
  0
VERTEX
  5
159
  8
TEAM-NET
 10
0.0
 20
-213.369127
 30
686.276111
 70
    64
  0
VERTEX
  5
15A
  8
TEAM-NET
 10
0.0
 20
-191.62356
 30
681.950648
 70
    64
  0
VERTEX
  5
15B
  8
TEAM-NET
 10
0.0
 20
-169.499443
 30
680.500557
 70
    64
  0
VERTEX
  5
15C
  8
TEAM-NET
 10
0.0
 20
-147.375326
 30
681.950648
 70
    64
  0
VERTEX
  5
15D
  8
TEAM-NET
 10
0.0
 20
-125.629759
 30
686.276111
 70
    64
  0
VERTEX
  5
15E
  8
TEAM-NET
 10
0.0
 20
-104.634814
 30
693.402934
 70
    64
  0
VERTEX
  5
15F
  8
TEAM-NET
 10
0.0
 20
-84.749721
 30
703.209177
 70
    64
  0
VERTEX
  5
160
  8
TEAM-NET
 10
0.0
 20
-66.31472
 30
715.527051
 70
    64
  0
VERTEX
  5
161
  8
TEAM-NET
 10
0.0
 20
-49.645237
 30
730.145795
 70
    64
  0
VERTEX
  5
162
  8
TEAM-NET
 10
0.0
 20
-35.026494
 30
746.815277
 70
    64
  0
VERTEX
  5
163
  8
TEAM-NET
 10
0.0
 20
-22.708619
 30
765.250279
 70
    64
  0
VERTEX
  5
164
  8
TEAM-NET
 10
0.0
 20
-12.902377
 30
785.135371
 70
    64
  0
VERTEX
  5
165
  8
TEAM-NET
 10
0.0
 20
-5.775553
 30
806.130316
 70
    64
  0
VERTEX
  5
166
  8
TEAM-NET
 10
0.0
 20
-1.450091
 30
827.875883
 70
    64
  0
VERTEX
  5
167
  8
TEAM-NET
 10
0.0
 20
0.0
 30
850.0
 70
    64
  0
VERTEX
  5
168
  8
TEAM-NET
 10
0.0
 20
-338.998886
 30
850.0
 70
    64
  0
VERTEX
  5
169
  8
TEAM-NET
 10
-2.887777
 20
-337.548794
 30
828.065158
 70
    64
  0
VERTEX
  5
16A
  8
TEAM-NET
 10
-5.726143
 20
-333.223332
 30
806.505627
 70
    64
  0
VERTEX
  5
16B
  8
TEAM-NET
 10
-8.466533
 20
-326.096509
 30
785.690297
 70
    64
  0
VERTEX
  5
16C
  8
TEAM-NET
 10
-11.062058
 20
-316.290266
 30
765.975324
 70
    64
  0
VERTEX
  5
16D
  8
TEAM-NET
 10
-13.468309
 20
-303.972392
 30
747.698037
 70
    64
  0
VERTEX
  5
16E
  8
TEAM-NET
 10
-15.644113
 20
-289.353648
 30
731.171164
 70
    64
  0
VERTEX
  5
16F
  8
TEAM-NET
 10
-17.552242
 20
-272.684166
 30
716.677486
 70
    64
  0
VERTEX
  5
170
  8
TEAM-NET
 10
-19.160047
 20
-254.249164
 30
704.464992
 70
    64
  0
VERTEX
  5
171
  8
TEAM-NET
 10
-20.440019
 20
-234.364071
 30
694.742644
 70
    64
  0
VERTEX
  5
172
  8
TEAM-NET
 10
-21.370256
 20
-213.369127
 30
687.676791
 70
    64
  0
VERTEX
  5
173
  8
TEAM-NET
 10
-21.934842
 20
-191.62356
 30
683.388334
 70
    64
  0
VERTEX
  5
174
  8
TEAM-NET
 10
-22.124117
 20
-169.499443
 30
681.950648
 70
    64
  0
VERTEX
  5
175
  8
TEAM-NET
 10
-21.934842
 20
-147.375326
 30
683.388334
 70
    64
  0
VERTEX
  5
176
  8
TEAM-NET
 10
-21.370256
 20
-125.629759
 30
687.676791
 70
    64
  0
VERTEX
  5
177
  8
TEAM-NET
 10
-20.440019
 20
-104.634814
 30
694.742644
 70
    64
  0
VERTEX
  5
178
  8
TEAM-NET
 10
-19.160047
 20
-84.749721
 30
704.464992
 70
    64
  0
VERTEX
  5
179
  8
TEAM-NET
 10
-17.552242
 20
-66.31472
 30
716.677486
 70
    64
  0
VERTEX
  5
17A
  8
TEAM-NET
 10
-15.644113
 20
-49.645237
 30
731.171164
 70
    64
  0
VERTEX
  5
17B
  8
TEAM-NET
 10
-13.468309
 20
-35.026494
 30
747.698037
 70
    64
  0
VERTEX
  5
17C
  8
TEAM-NET
 10
-11.062058
 20
-22.708619
 30
765.975324
 70
    64
  0
VERTEX
  5
17D
  8
TEAM-NET
 10
-8.466533
 20
-12.902377
 30
785.690297
 70
    64
  0
VERTEX
  5
17E
  8
TEAM-NET
 10
-5.726143
 20
-5.775553
 30
806.505627
 70
    64
  0
VERTEX
  5
17F
  8
TEAM-NET
 10
-2.887777
 20
-1.450091
 30
828.065158
 70
    64
  0
VERTEX
  5
180
  8
TEAM-NET
 10
0.0
 20
0.0
 30
850.0
 70
    64
  0
VERTEX
  5
181
  8
TEAM-NET
 10
0.0
 20
-338.998886
 30
850.0
 70
    64
  0
VERTEX
  5
182
  8
TEAM-NET
 10
-5.726143
 20
-337.548794
 30
828.629744
 70
    64
  0
VERTEX
  5
183
  8
TEAM-NET
 10
-11.35431
 20
-333.223332
 30
807.625139
 70
    64
  0
VERTEX
  5
184
  8
TEAM-NET
 10
-16.788201
 20
-326.096509
 30
787.34558
 70
    64
  0
VERTEX
  5
185
  8
TEAM-NET
 10
-21.934842
 20
-316.290266
 30
768.138055
 70
    64
  0
VERTEX
  5
186
  8
TEAM-NET
 10
-26.706171
 20
-303.972392
 30
750.331211
 70
    64
  0
VERTEX
  5
187
  8
TEAM-NET
 10
-31.020551
 20
-289.353648
 30
734.229728
 70
    64
  0
VERTEX
  5
188
  8
TEAM-NET
 10
-34.80416
 20
-272.684166
 30
720.109106
 70
    64
  0
VERTEX
  5
189
  8
TEAM-NET
 10
-37.992261
 20
-254.249164
 30
708.210953
 70
    64
  0
VERTEX
  5
18A
  8
TEAM-NET
 10
-40.530303
 20
-234.364071
 30
698.73885
 70
    64
  0
VERTEX
  5
18B
  8
TEAM-NET
 10
-42.374861
 20
-213.369127
 30
691.854867
 70
    64
  0
VERTEX
  5
18C
  8
TEAM-NET
 10
-43.494373
 20
-191.62356
 30
687.676791
 70
    64
  0
VERTEX
  5
18D
  8
TEAM-NET
 10
-43.869684
 20
-169.499443
 30
686.276111
 70
    64
  0
VERTEX
  5
18E
  8
TEAM-NET
 10
-43.494373
 20
-147.375326
 30
687.676791
 70
    64
  0
VERTEX
  5
18F
  8
TEAM-NET
 10
-42.374861
 20
-125.629759
 30
691.854867
 70
    64
  0
VERTEX
  5
190
  8
TEAM-NET
 10
-40.530303
 20
-104.634814
 30
698.73885
 70
    64
  0
VERTEX
  5
191
  8
TEAM-NET
 10
-37.992261
 20
-84.749721
 30
708.210953
 70
    64
  0
VERTEX
  5
192
  8
TEAM-NET
 10
-34.80416
 20
-66.31472
 30
720.109106
 70
    64
  0
VERTEX
  5
193
  8
TEAM-NET
 10
-31.020551
 20
-49.645237
 30
734.229728
 70
    64
  0
VERTEX
  5
194
  8
TEAM-NET
 10
-26.706171
 20
-35.026494
 30
750.331211
 70
    64
  0
VERTEX
  5
195
  8
TEAM-NET
 10
-21.934842
 20
-22.708619
 30
768.138055
 70
    64
  0
VERTEX
  5
196
  8
TEAM-NET
 10
-16.788201
 20
-12.902377
 30
787.34558
 70
    64
  0
VERTEX
  5
197
  8
TEAM-NET
 10
-11.35431
 20
-5.775553
 30
807.625139
 70
    64
  0
VERTEX
  5
198
  8
TEAM-NET
 10
-5.726143
 20
-1.450091
 30
828.629744
 70
    64
  0
VERTEX
  5
199
  8
TEAM-NET
 10
0.0
 20
0.0
 30
850.0
 70
    64
  0
VERTEX
  5
19A
  8
TEAM-NET
 10
0.0
 20
-338.998886
 30
850.0
 70
    64
  0
VERTEX
  5
19B
  8
TEAM-NET
 10
-8.466533
 20
-337.548794
 30
829.559981
 70
    64
  0
VERTEX
  5
19C
  8
TEAM-NET
 10
-16.788201
 20
-333.223332
 30
809.469697
 70
    64
  0
VERTEX
  5
19D
  8
TEAM-NET
 10
-24.822619
 20
-326.096509
 30
790.072897
 70
    64
  0
VERTEX
  5
19E
  8
TEAM-NET
 10
-32.432314
 20
-316.290266
 30
771.701467
 70
    64
  0
VERTEX
  5
19F
  8
TEAM-NET
 10
-39.487084
 20
-303.972392
 30
754.669746
 70
    64
  0
VERTEX
  5
1A0
  8
TEAM-NET
 10
-45.866219
 20
-289.353648
 30
739.269153
 70
    64
  0
VERTEX
  5
1A1
  8
TEAM-NET
 10
-51.46057
 20
-272.684166
 30
725.763195
 70
    64
  0
VERTEX
  5
1A2
  8
TEAM-NET
 10
-56.174416
 20
-254.249164
 30
714.382963
 70
    64
  0
VERTEX
  5
1A3
  8
TEAM-NET
 10
-59.927103
 20
-234.364071
 30
705.323176
 70
    64
  0
VERTEX
  5
1A4
  8
TEAM-NET
 10
-62.65442
 20
-213.369127
 30
698.73885
 70
    64
  0
VERTEX
  5
1A5
  8
TEAM-NET
 10
-64.309703
 20
-191.62356
 30
694.742644
 70
    64
  0
VERTEX
  5
1A6
  8
TEAM-NET
 10
-64.864629
 20
-169.499443
 30
693.402934
 70
    64
  0
VERTEX
  5
1A7
  8
TEAM-NET
 10
-64.309703
 20
-147.375326
 30
694.742644
 70
    64
  0
VERTEX
  5
1A8
  8
TEAM-NET
 10
-62.65442
 20
-125.629759
 30
698.73885
 70
    64
  0
VERTEX
  5
1A9
  8
TEAM-NET
 10
-59.927103
 20
-104.634814
 30
705.323176
 70
    64
  0
VERTEX
  5
1AA
  8
TEAM-NET
 10
-56.174416
 20
-84.749721
 30
714.382963
 70
    64
  0
VERTEX
  5
1AB
  8
TEAM-NET
 10
-51.46057
 20
-66.31472
 30
725.763195
 70
    64
  0
VERTEX
  5
1AC
  8
TEAM-NET
 10
-45.866219
 20
-49.645237
 30
739.269153
 70
    64
  0
VERTEX
  5
1AD
  8
TEAM-NET
 10
-39.487084
 20
-35.026494
 30
754.669746
 70
    64
  0
VERTEX
  5
1AE
  8
TEAM-NET
 10
-32.432314
 20
-22.708619
 30
771.701467
 70
    64
  0
VERTEX
  5
1AF
  8
TEAM-NET
 10
-24.822619
 20
-12.902377
 30
790.072897
 70
    64
  0
VERTEX
  5
1B0
  8
TEAM-NET
 10
-16.788201
 20
-5.775553
 30
809.469697
 70
    64
  0
VERTEX
  5
1B1
  8
TEAM-NET
 10
-8.466533
 20
-1.450091
 30
829.559981
 70
    64
  0
VERTEX
  5
1B2
  8
TEAM-NET
 10
0.0
 20
0.0
 30
850.0
 70
    64
  0
VERTEX
  5
1B3
  8
TEAM-NET
 10
0.0
 20
-338.998886
 30
850.0
 70
    64
  0
VERTEX
  5
1B4
  8
TEAM-NET
 10
-11.062058
 20
-337.548794
 30
830.839953
 70
    64
  0
VERTEX
  5
1B5
  8
TEAM-NET
 10
-21.934842
 20
-333.223332
 30
812.007739
 70
    64
  0
VERTEX
  5
1B6
  8
TEAM-NET
 10
-32.432314
 20
-326.096509
 30
793.825584
 70
    64
  0
VERTEX
  5
1B7
  8
TEAM-NET
 10
-42.374861
 20
-316.290266
 30
776.604588
 70
    64
  0
VERTEX
  5
1B8
  8
TEAM-NET
 10
-51.592362
 20
-303.972392
 30
760.639409
 70
    64
  0
VERTEX
  5
1B9
  8
TEAM-NET
 10
-59.927103
 20
-289.353648
 30
746.203213
 70
    64
  0
VERTEX
  5
1BA
  8
TEAM-NET
 10
-67.236475
 20
-272.684166
 30
733.54301
 70
    64
  0
VERTEX
  5
1BB
  8
TEAM-NET
 10
-73.395412
 20
-254.249164
 30
722.875418
 70
    64
  0
VERTEX
  5
1BC
  8
TEAM-NET
 10
-78.298533
 20
-234.364071
 30
714.382963
 70
    64
  0
VERTEX
  5
1BD
  8
TEAM-NET
 10
-81.861945
 20
-213.369127
 30
708.210953
 70
    64
  0
VERTEX
  5
1BE
  8
TEAM-NET
 10
-84.024676
 20
-191.62356
 30
704.464992
 70
    64
  0
VERTEX
  5
1BF
  8
TEAM-NET
 10
-84.749721
 20
-169.499443
 30
703.209177
 70
    64
  0
VERTEX
  5
1C0
  8
TEAM-NET
 10
-84.024676
 20
-147.375326
 30
704.464992
 70
    64
  0
VERTEX
  5
1C1
  8
TEAM-NET
 10
-81.861945
 20
-125.629759
 30
708.210953
 70
    64
  0
VERTEX
  5
1C2
  8
TEAM-NET
 10
-78.298533
 20
-104.634814
 30
714.382963
 70
    64
  0
VERTEX
  5
1C3
  8
TEAM-NET
 10
-73.395412
 20
-84.749721
 30
722.875418
 70
    64
  0
VERTEX
  5
1C4
  8
TEAM-NET
 10
-67.236475
 20
-66.31472
 30
733.54301
 70
    64
  0
VERTEX
  5
1C5
  8
TEAM-NET
 10
-59.927103
 20
-49.645237
 30
746.203213
 70
    64
  0
VERTEX
  5
1C6
  8
TEAM-NET
 10
-51.592362
 20
-35.026494
 30
760.639409
 70
    64
  0
VERTEX
  5
1C7
  8
TEAM-NET
 10
-42.374861
 20
-22.708619
 30
776.604588
 70
    64
  0
VERTEX
  5
1C8
  8
TEAM-NET
 10
-32.432314
 20
-12.902377
 30
793.825584
 70
    64
  0
VERTEX
  5
1C9
  8
TEAM-NET
 10
-21.934842
 20
-5.775553
 30
812.007739
 70
    64
  0
VERTEX
  5
1CA
  8
TEAM-NET
 10
-11.062058
 20
-1.450091
 30
830.839953
 70
    64
  0
VERTEX
  5
1CB
  8
TEAM-NET
 10
0.0
 20
0.0
 30
850.0
 70
    64
  0
VERTEX
  5
1CC
  8
TEAM-NET
 10
0.0
 20
-338.998886
 30
850.0
 70
    64
  0
VERTEX
  5
1CD
  8
TEAM-NET
 10
-13.468309
 20
-337.548794
 30
832.447758
 70
    64
  0
VERTEX
  5
1CE
  8
TEAM-NET
 10
-26.706171
 20
-333.223332
 30
815.19584
 70
    64
  0
VERTEX
  5
1CF
  8
TEAM-NET
 10
-39.487084
 20
-326.096509
 30
798.53943
 70
    64
  0
VERTEX
  5
1D0
  8
TEAM-NET
 10
-51.592362
 20
-316.290266
 30
782.763525
 70
    64
  0
VERTEX
  5
1D1
  8
TEAM-NET
 10
-62.814879
 20
-303.972392
 30
768.138055
 70
    64
  0
VERTEX
  5
1D2
  8
TEAM-NET
 10
-72.962617
 20
-289.353648
 30
754.913266
 70
    64
  0
VERTEX
  5
1D3
  8
TEAM-NET
 10
-81.861945
 20
-272.684166
 30
743.315437
 70
    64
  0
VERTEX
  5
1D4
  8
TEAM-NET
 10
-89.360591
 20
-254.249164
 30
733.54301
 70
    64
  0
VERTEX
  5
1D5
  8
TEAM-NET
 10
-95.330254
 20
-234.364071
 30
725.763195
 70
    64
  0
VERTEX
  5
1D6
  8
TEAM-NET
 10
-99.668789
 20
-213.369127
 30
720.109106
 70
    64
  0
VERTEX
  5
1D7
  8
TEAM-NET
 10
-102.301963
 20
-191.62356
 30
716.677486
 70
    64
  0
VERTEX
  5
1D8
  8
TEAM-NET
 10
-103.184723
 20
-169.499443
 30
715.527051
 70
    64
  0
VERTEX
  5
1D9
  8
TEAM-NET
 10
-102.301963
 20
-147.375326
 30
716.677486
 70
    64
  0
VERTEX
  5
1DA
  8
TEAM-NET
 10
-99.668789
 20
-125.629759
 30
720.109106
 70
    64
  0
VERTEX
  5
1DB
  8
TEAM-NET
 10
-95.330254
 20
-104.634814
 30
725.763195
 70
    64
  0
VERTEX
  5
1DC
  8
TEAM-NET
 10
-89.360591
 20
-84.749721
 30
733.54301
 70
    64
  0
VERTEX
  5
1DD
  8
TEAM-NET
 10
-81.861945
 20
-66.31472
 30
743.315437
 70
    64
  0
VERTEX
  5
1DE
  8
TEAM-NET
 10
-72.962617
 20
-49.645237
 30
754.913266
 70
    64
  0
VERTEX
  5
1DF
  8
TEAM-NET
 10
-62.814879
 20
-35.026494
 30
768.138055
 70
    64
  0
VERTEX
  5
1E0
  8
TEAM-NET
 10
-51.592362
 20
-22.708619
 30
782.763525
 70
    64
  0
VERTEX
  5
1E1
  8
TEAM-NET
 10
-39.487084
 20
-12.902377
 30
798.53943
 70
    64
  0
VERTEX
  5
1E2
  8
TEAM-NET
 10
-26.706171
 20
-5.775553
 30
815.19584
 70
    64
  0
VERTEX
  5
1E3
  8
TEAM-NET
 10
-13.468309
 20
-1.450091
 30
832.447758
 70
    64
  0
VERTEX
  5
1E4
  8
TEAM-NET
 10
0.0
 20
0.0
 30
850.0
 70
    64
  0
VERTEX
  5
1E5
  8
TEAM-NET
 10
0.0
 20
-338.998886
 30
850.0
 70
    64
  0
VERTEX
  5
1E6
  8
TEAM-NET
 10
-15.644113
 20
-337.548794
 30
834.355887
 70
    64
  0
VERTEX
  5
1E7
  8
TEAM-NET
 10
-31.020551
 20
-333.223332
 30
818.979449
 70
    64
  0
VERTEX
  5
1E8
  8
TEAM-NET
 10
-45.866219
 20
-326.096509
 30
804.133781
 70
    64
  0
VERTEX
  5
1E9
  8
TEAM-NET
 10
-59.927103
 20
-316.290266
 30
790.072897
 70
    64
  0
VERTEX
  5
1EA
  8
TEAM-NET
 10
-72.962617
 20
-303.972392
 30
777.037383
 70
    64
  0
VERTEX
  5
1EB
  8
TEAM-NET
 10
-84.749721
 20
-289.353648
 30
765.250279
 70
    64
  0
VERTEX
  5
1EC
  8
TEAM-NET
 10
-95.086734
 20
-272.684166
 30
754.913266
 70
    64
  0
VERTEX
  5
1ED
  8
TEAM-NET
 10
-103.796787
 20
-254.249164
 30
746.203213
 70
    64
  0
VERTEX
  5
1EE
  8
TEAM-NET
 10
-110.730847
 20
-234.364071
 30
739.269153
 70
    64
  0
VERTEX
  5
1EF
  8
TEAM-NET
 10
-115.770272
 20
-213.369127
 30
734.229728
 70
    64
  0
VERTEX
  5
1F0
  8
TEAM-NET
 10
-118.828836
 20
-191.62356
 30
731.171164
 70
    64
  0
VERTEX
  5
1F1
  8
TEAM-NET
 10
-119.854205
 20
-169.499443
 30
730.145795
 70
    64
  0
VERTEX
  5
1F2
  8
TEAM-NET
 10
-118.828836
 20
-147.375326
 30
731.171164
 70
    64
  0
VERTEX
  5
1F3
  8
TEAM-NET
 10
-115.770272
 20
-125.629759
 30
734.229728
 70
    64
  0
VERTEX
  5
1F4
  8
TEAM-NET
 10
-110.730847
 20
-104.634814
 30
739.269153
 70
    64
  0
VERTEX
  5
1F5
  8
TEAM-NET
 10
-103.796787
 20
-84.749721
 30
746.203213
 70
    64
  0
VERTEX
  5
1F6
  8
TEAM-NET
 10
-95.086734
 20
-66.31472
 30
754.913266
 70
    64
  0
VERTEX
  5
1F7
  8
TEAM-NET
 10
-84.749721
 20
-49.645237
 30
765.250279
 70
    64
  0
VERTEX
  5
1F8
  8
TEAM-NET
 10
-72.962617
 20
-35.026494
 30
777.037383
 70
    64
  0
VERTEX
  5
1F9
  8
TEAM-NET
 10
-59.927103
 20
-22.708619
 30
790.072897
 70
    64
  0
VERTEX
  5
1FA
  8
TEAM-NET
 10
-45.866219
 20
-12.902377
 30
804.133781
 70
    64
  0
VERTEX
  5
1FB
  8
TEAM-NET
 10
-31.020551
 20
-5.775553
 30
818.979449
 70
    64
  0
VERTEX
  5
1FC
  8
TEAM-NET
 10
-15.644113
 20
-1.450091
 30
834.355887
 70
    64
  0
VERTEX
  5
1FD
  8
TEAM-NET
 10
0.0
 20
0.0
 30
850.0
 70
    64
  0
VERTEX
  5
1FE
  8
TEAM-NET
 10
0.0
 20
-338.998886
 30
850.0
 70
    64
  0
VERTEX
  5
1FF
  8
TEAM-NET
 10
-17.552242
 20
-337.548794
 30
836.531691
 70
    64
  0
VERTEX
  5
200
  8
TEAM-NET
 10
-34.80416
 20
-333.223332
 30
823.293829
 70
    64
  0
VERTEX
  5
201
  8
TEAM-NET
 10
-51.46057
 20
-326.096509
 30
810.512916
 70
    64
  0
VERTEX
  5
202
  8
TEAM-NET
 10
-67.236475
 20
-316.290266
 30
798.407638
 70
    64
  0
VERTEX
  5
203
  8
TEAM-NET
 10
-81.861945
 20
-303.972392
 30
787.185121
 70
    64
  0
VERTEX
  5
204
  8
TEAM-NET
 10
-95.086734
 20
-289.353648
 30
777.037383
 70
    64
  0
VERTEX
  5
205
  8
TEAM-NET
 10
-106.684563
 20
-272.684166
 30
768.138055
 70
    64
  0
VERTEX
  5
206
  8
TEAM-NET
 10
-116.45699
 20
-254.249164
 30
760.639409
 70
    64
  0
VERTEX
  5
207
  8
TEAM-NET
 10
-124.236805
 20
-234.364071
 30
754.669746
 70
    64
  0
VERTEX
  5
208
  8
TEAM-NET
 10
-129.890894
 20
-213.369127
 30
750.331211
 70
    64
  0
VERTEX
  5
209
  8
TEAM-NET
 10
-133.322514
 20
-191.62356
 30
747.698037
 70
    64
  0
VERTEX
  5
20A
  8
TEAM-NET
 10
-134.472949
 20
-169.499443
 30
746.815277
 70
    64
  0
VERTEX
  5
20B
  8
TEAM-NET
 10
-133.322514
 20
-147.375326
 30
747.698037
 70
    64
  0
VERTEX
  5
20C
  8
TEAM-NET
 10
-129.890894
 20
-125.629759
 30
750.331211
 70
    64
  0
VERTEX
  5
20D
  8
TEAM-NET
 10
-124.236805
 20
-104.634814
 30
754.669746
 70
    64
  0
VERTEX
  5
20E
  8
TEAM-NET
 10
-116.45699
 20
-84.749721
 30
760.639409
 70
    64
  0
VERTEX
  5
20F
  8
TEAM-NET
 10
-106.684563
 20
-66.31472
 30
768.138055
 70
    64
  0
VERTEX
  5
210
  8
TEAM-NET
 10
-95.086734
 20
-49.645237
 30
777.037383
 70
    64
  0
VERTEX
  5
211
  8
TEAM-NET
 10
-81.861945
 20
-35.026494
 30
787.185121
 70
    64
  0
VERTEX
  5
212
  8
TEAM-NET
 10
-67.236475
 20
-22.708619
 30
798.407638
 70
    64
  0
VERTEX
  5
213
  8
TEAM-NET
 10
-51.46057
 20
-12.902377
 30
810.512916
 70
    64
  0
VERTEX
  5
214
  8
TEAM-NET
 10
-34.80416
 20
-5.775553
 30
823.293829
 70
    64
  0
VERTEX
  5
215
  8
TEAM-NET
 10
-17.552242
 20
-1.450091
 30
836.531691
 70
    64
  0
VERTEX
  5
216
  8
TEAM-NET
 10
0.0
 20
0.0
 30
850.0
 70
    64
  0
VERTEX
  5
217
  8
TEAM-NET
 10
0.0
 20
-338.998886
 30
850.0
 70
    64
  0
VERTEX
  5
218
  8
TEAM-NET
 10
-19.160047
 20
-337.548794
 30
838.937942
 70
    64
  0
VERTEX
  5
219
  8
TEAM-NET
 10
-37.992261
 20
-333.223332
 30
828.065158
 70
    64
  0
VERTEX
  5
21A
  8
TEAM-NET
 10
-56.174416
 20
-326.096509
 30
817.567686
 70
    64
  0
VERTEX
  5
21B
  8
TEAM-NET
 10
-73.395412
 20
-316.290266
 30
807.625139
 70
    64
  0
VERTEX
  5
21C
  8
TEAM-NET
 10
-89.360591
 20
-303.972392
 30
798.407638
 70
    64
  0
VERTEX
  5
21D
  8
TEAM-NET
 10
-103.796787
 20
-289.353648
 30
790.072897
 70
    64
  0
VERTEX
  5
21E
  8
TEAM-NET
 10
-116.45699
 20
-272.684166
 30
782.763525
 70
    64
  0
VERTEX
  5
21F
  8
TEAM-NET
 10
-127.124582
 20
-254.249164
 30
776.604588
 70
    64
  0
VERTEX
  5
220
  8
TEAM-NET
 10
-135.617037
 20
-234.364071
 30
771.701467
 70
    64
  0
VERTEX
  5
221
  8
TEAM-NET
 10
-141.789047
 20
-213.369127
 30
768.138055
 70
    64
  0
VERTEX
  5
222
  8
TEAM-NET
 10
-145.535008
 20
-191.62356
 30
765.975324
 70
    64
  0
VERTEX
  5
223
  8
TEAM-NET
 10
-146.790823
 20
-169.499443
 30
765.250279
 70
    64
  0
VERTEX
  5
224
  8
TEAM-NET
 10
-145.535008
 20
-147.375326
 30
765.975324
 70
    64
  0
VERTEX
  5
225
  8
TEAM-NET
 10
-141.789047
 20
-125.629759
 30
768.138055
 70
    64
  0
VERTEX
  5
226
  8
TEAM-NET
 10
-135.617037
 20
-104.634814
 30
771.701467
 70
    64
  0
VERTEX
  5
227
  8
TEAM-NET
 10
-127.124582
 20
-84.749721
 30
776.604588
 70
    64
  0
VERTEX
  5
228
  8
TEAM-NET
 10
-116.45699
 20
-66.31472
 30
782.763525
 70
    64
  0
VERTEX
  5
229
  8
TEAM-NET
 10
-103.796787
 20
-49.645237
 30
790.072897
 70
    64
  0
VERTEX
  5
22A
  8
TEAM-NET
 10
-89.360591
 20
-35.026494
 30
798.407638
 70
    64
  0
VERTEX
  5
22B
  8
TEAM-NET
 10
-73.395412
 20
-22.708619
 30
807.625139
 70
    64
  0
VERTEX
  5
22C
  8
TEAM-NET
 10
-56.174416
 20
-12.902377
 30
817.567686
 70
    64
  0
VERTEX
  5
22D
  8
TEAM-NET
 10
-37.992261
 20
-5.775553
 30
828.065158
 70
    64
  0
VERTEX
  5
22E
  8
TEAM-NET
 10
-19.160047
 20
-1.450091
 30
838.937942
 70
    64
  0
VERTEX
  5
22F
  8
TEAM-NET
 10
0.0
 20
0.0
 30
850.0
 70
    64
  0
VERTEX
  5
230
  8
TEAM-NET
 10
0.0
 20
-338.998886
 30
850.0
 70
    64
  0
VERTEX
  5
231
  8
TEAM-NET
 10
-20.440019
 20
-337.548794
 30
841.533467
 70
    64
  0
VERTEX
  5
232
  8
TEAM-NET
 10
-40.530303
 20
-333.223332
 30
833.211799
 70
    64
  0
VERTEX
  5
233
  8
TEAM-NET
 10
-59.927103
 20
-326.096509
 30
825.177381
 70
    64
  0
VERTEX
  5
234
  8
TEAM-NET
 10
-78.298533
 20
-316.290266
 30
817.567686
 70
    64
  0
VERTEX
  5
235
  8
TEAM-NET
 10
-95.330254
 20
-303.972392
 30
810.512916
 70
    64
  0
VERTEX
  5
236
  8
TEAM-NET
 10
-110.730847
 20
-289.353648
 30
804.133781
 70
    64
  0
VERTEX
  5
237
  8
TEAM-NET
 10
-124.236805
 20
-272.684166
 30
798.53943
 70
    64
  0
VERTEX
  5
238
  8
TEAM-NET
 10
-135.617037
 20
-254.249164
 30
793.825584
 70
    64
  0
VERTEX
  5
239
  8
TEAM-NET
 10
-144.676824
 20
-234.364071
 30
790.072897
 70
    64
  0
VERTEX
  5
23A
  8
TEAM-NET
 10
-151.26115
 20
-213.369127
 30
787.34558
 70
    64
  0
VERTEX
  5
23B
  8
TEAM-NET
 10
-155.257356
 20
-191.62356
 30
785.690297
 70
    64
  0
VERTEX
  5
23C
  8
TEAM-NET
 10
-156.597066
 20
-169.499443
 30
785.135371
 70
    64
  0
VERTEX
  5
23D
  8
TEAM-NET
 10
-155.257356
 20
-147.375326
 30
785.690297
 70
    64
  0
VERTEX
  5
23E
  8
TEAM-NET
 10
-151.26115
 20
-125.629759
 30
787.34558
 70
    64
  0
VERTEX
  5
23F
  8
TEAM-NET
 10
-144.676824
 20
-104.634814
 30
790.072897
 70
    64
  0
VERTEX
  5
240
  8
TEAM-NET
 10
-135.617037
 20
-84.749721
 30
793.825584
 70
    64
  0
VERTEX
  5
241
  8
TEAM-NET
 10
-124.236805
 20
-66.31472
 30
798.53943
 70
    64
  0
VERTEX
  5
242
  8
TEAM-NET
 10
-110.730847
 20
-49.645237
 30
804.133781
 70
    64
  0
VERTEX
  5
243
  8
TEAM-NET
 10
-95.330254
 20
-35.026494
 30
810.512916
 70
    64
  0
VERTEX
  5
244
  8
TEAM-NET
 10
-78.298533
 20
-22.708619
 30
817.567686
 70
    64
  0
VERTEX
  5
245
  8
TEAM-NET
 10
-59.927103
 20
-12.902377
 30
825.177381
 70
    64
  0
VERTEX
  5
246
  8
TEAM-NET
 10
-40.530303
 20
-5.775553
 30
833.211799
 70
    64
  0
VERTEX
  5
247
  8
TEAM-NET
 10
-20.440019
 20
-1.450091
 30
841.533467
 70
    64
  0
VERTEX
  5
248
  8
TEAM-NET
 10
0.0
 20
0.0
 30
850.0
 70
    64
  0
VERTEX
  5
249
  8
TEAM-NET
 10
0.0
 20
-338.998886
 30
850.0
 70
    64
  0
VERTEX
  5
24A
  8
TEAM-NET
 10
-21.370256
 20
-337.548794
 30
844.273857
 70
    64
  0
VERTEX
  5
24B
  8
TEAM-NET
 10
-42.374861
 20
-333.223332
 30
838.64569
 70
    64
  0
VERTEX
  5
24C
  8
TEAM-NET
 10
-62.65442
 20
-326.096509
 30
833.211799
 70
    64
  0
VERTEX
  5
24D
  8
TEAM-NET
 10
-81.861945
 20
-316.290266
 30
828.065158
 70
    64
  0
VERTEX
  5
24E
  8
TEAM-NET
 10
-99.668789
 20
-303.972392
 30
823.293829
 70
    64
  0
VERTEX
  5
24F
  8
TEAM-NET
 10
-115.770272
 20
-289.353648
 30
818.979449
 70
    64
  0
VERTEX
  5
250
  8
TEAM-NET
 10
-129.890894
 20
-272.684166
 30
815.19584
 70
    64
  0
VERTEX
  5
251
  8
TEAM-NET
 10
-141.789047
 20
-254.249164
 30
812.007739
 70
    64
  0
VERTEX
  5
252
  8
TEAM-NET
 10
-151.26115
 20
-234.364071
 30
809.469697
 70
    64
  0
VERTEX
  5
253
  8
TEAM-NET
 10
-158.145133
 20
-213.369127
 30
807.625139
 70
    64
  0
VERTEX
  5
254
  8
TEAM-NET
 10
-162.323209
 20
-191.62356
 30
806.505627
 70
    64
  0
VERTEX
  5
255
  8
TEAM-NET
 10
-163.723889
 20
-169.499443
 30
806.130316
 70
    64
  0
VERTEX
  5
256
  8
TEAM-NET
 10
-162.323209
 20
-147.375326
 30
806.505627
 70
    64
  0
VERTEX
  5
257
  8
TEAM-NET
 10
-158.145133
 20
-125.629759
 30
807.625139
 70
    64
  0
VERTEX
  5
258
  8
TEAM-NET
 10
-151.26115
 20
-104.634814
 30
809.469697
 70
    64
  0
VERTEX
  5
259
  8
TEAM-NET
 10
-141.789047
 20
-84.749721
 30
812.007739
 70
    64
  0
VERTEX
  5
25A
  8
TEAM-NET
 10
-129.890894
 20
-66.31472
 30
815.19584
 70
    64
  0
VERTEX
  5
25B
  8
TEAM-NET
 10
-115.770272
 20
-49.645237
 30
818.979449
 70
    64
  0
VERTEX
  5
25C
  8
TEAM-NET
 10
-99.668789
 20
-35.026494
 30
823.293829
 70
    64
  0
VERTEX
  5
25D
  8
TEAM-NET
 10
-81.861945
 20
-22.708619
 30
828.065158
 70
    64
  0
VERTEX
  5
25E
  8
TEAM-NET
 10
-62.65442
 20
-12.902377
 30
833.211799
 70
    64
  0
VERTEX
  5
25F
  8
TEAM-NET
 10
-42.374861
 20
-5.775553
 30
838.64569
 70
    64
  0
VERTEX
  5
260
  8
TEAM-NET
 10
-21.370256
 20
-1.450091
 30
844.273857
 70
    64
  0
VERTEX
  5
261
  8
TEAM-NET
 10
0.0
 20
0.0
 30
850.0
 70
    64
  0
VERTEX
  5
262
  8
TEAM-NET
 10
0.0
 20
-338.998886
 30
850.0
 70
    64
  0
VERTEX
  5
263
  8
TEAM-NET
 10
-21.934842
 20
-337.548794
 30
847.112223
 70
    64
  0
VERTEX
  5
264
  8
TEAM-NET
 10
-43.494373
 20
-333.223332
 30
844.273857
 70
    64
  0
VERTEX
  5
265
  8
TEAM-NET
 10
-64.309703
 20
-326.096509
 30
841.533467
 70
    64
  0
VERTEX
  5
266
  8
TEAM-NET
 10
-84.024676
 20
-316.290266
 30
838.937942
 70
    64
  0
VERTEX
  5
267
  8
TEAM-NET
 10
-102.301963
 20
-303.972392
 30
836.531691
 70
    64
  0
VERTEX
  5
268
  8
TEAM-NET
 10
-118.828836
 20
-289.353648
 30
834.355887
 70
    64
  0
VERTEX
  5
269
  8
TEAM-NET
 10
-133.322514
 20
-272.684166
 30
832.447758
 70
    64
  0
VERTEX
  5
26A
  8
TEAM-NET
 10
-145.535008
 20
-254.249164
 30
830.839953
 70
    64
  0
VERTEX
  5
26B
  8
TEAM-NET
 10
-155.257356
 20
-234.364071
 30
829.559981
 70
    64
  0
VERTEX
  5
26C
  8
TEAM-NET
 10
-162.323209
 20
-213.369127
 30
828.629744
 70
    64
  0
VERTEX
  5
26D
  8
TEAM-NET
 10
-166.611666
 20
-191.62356
 30
828.065158
 70
    64
  0
VERTEX
  5
26E
  8
TEAM-NET
 10
-168.049352
 20
-169.499443
 30
827.875883
 70
    64
  0
VERTEX
  5
26F
  8
TEAM-NET
 10
-166.611666
 20
-147.375326
 30
828.065158
 70
    64
  0
VERTEX
  5
270
  8
TEAM-NET
 10
-162.323209
 20
-125.629759
 30
828.629744
 70
    64
  0
VERTEX
  5
271
  8
TEAM-NET
 10
-155.257356
 20
-104.634814
 30
829.559981
 70
    64
  0
VERTEX
  5
272
  8
TEAM-NET
 10
-145.535008
 20
-84.749721
 30
830.839953
 70
    64
  0
VERTEX
  5
273
  8
TEAM-NET
 10
-133.322514
 20
-66.31472
 30
832.447758
 70
    64
  0
VERTEX
  5
274
  8
TEAM-NET
 10
-118.828836
 20
-49.645237
 30
834.355887
 70
    64
  0
VERTEX
  5
275
  8
TEAM-NET
 10
-102.301963
 20
-35.026494
 30
836.531691
 70
    64
  0
VERTEX
  5
276
  8
TEAM-NET
 10
-84.024676
 20
-22.708619
 30
838.937942
 70
    64
  0
VERTEX
  5
277
  8
TEAM-NET
 10
-64.309703
 20
-12.902377
 30
841.533467
 70
    64
  0
VERTEX
  5
278
  8
TEAM-NET
 10
-43.494373
 20
-5.775553
 30
844.273857
 70
    64
  0
VERTEX
  5
279
  8
TEAM-NET
 10
-21.934842
 20
-1.450091
 30
847.112223
 70
    64
  0
VERTEX
  5
27A
  8
TEAM-NET
 10
0.0
 20
0.0
 30
850.0
 70
    64
  0
VERTEX
  5
27B
  8
TEAM-NET
 10
0.0
 20
-338.998886
 30
850.0
 70
    64
  0
VERTEX
  5
27C
  8
TEAM-NET
 10
-22.124117
 20
-337.548794
 30
850.0
 70
    64
  0
VERTEX
  5
27D
  8
TEAM-NET
 10
-43.869684
 20
-333.223332
 30
850.0
 70
    64
  0
VERTEX
  5
27E
  8
TEAM-NET
 10
-64.864629
 20
-326.096509
 30
850.0
 70
    64
  0
VERTEX
  5
27F
  8
TEAM-NET
 10
-84.749721
 20
-316.290266
 30
850.0
 70
    64
  0
VERTEX
  5
280
  8
TEAM-NET
 10
-103.184723
 20
-303.972392
 30
850.0
 70
    64
  0
VERTEX
  5
281
  8
TEAM-NET
 10
-119.854205
 20
-289.353648
 30
850.0
 70
    64
  0
VERTEX
  5
282
  8
TEAM-NET
 10
-134.472949
 20
-272.684166
 30
850.0
 70
    64
  0
VERTEX
  5
283
  8
TEAM-NET
 10
-146.790823
 20
-254.249164
 30
850.0
 70
    64
  0
VERTEX
  5
284
  8
TEAM-NET
 10
-156.597066
 20
-234.364071
 30
850.0
 70
    64
  0
VERTEX
  5
285
  8
TEAM-NET
 10
-163.723889
 20
-213.369127
 30
850.0
 70
    64
  0
VERTEX
  5
286
  8
TEAM-NET
 10
-168.049352
 20
-191.62356
 30
850.0
 70
    64
  0
VERTEX
  5
287
  8
TEAM-NET
 10
-169.499443
 20
-169.499443
 30
850.0
 70
    64
  0
VERTEX
  5
288
  8
TEAM-NET
 10
-168.049352
 20
-147.375326
 30
850.0
 70
    64
  0
VERTEX
  5
289
  8
TEAM-NET
 10
-163.723889
 20
-125.629759
 30
850.0
 70
    64
  0
VERTEX
  5
28A
  8
TEAM-NET
 10
-156.597066
 20
-104.634814
 30
850.0
 70
    64
  0
VERTEX
  5
28B
  8
TEAM-NET
 10
-146.790823
 20
-84.749721
 30
850.0
 70
    64
  0
VERTEX
  5
28C
  8
TEAM-NET
 10
-134.472949
 20
-66.31472
 30
850.0
 70
    64
  0
VERTEX
  5
28D
  8
TEAM-NET
 10
-119.854205
 20
-49.645237
 30
850.0
 70
    64
  0
VERTEX
  5
28E
  8
TEAM-NET
 10
-103.184723
 20
-35.026494
 30
850.0
 70
    64
  0
VERTEX
  5
28F
  8
TEAM-NET
 10
-84.749721
 20
-22.708619
 30
850.0
 70
    64
  0
VERTEX
  5
290
  8
TEAM-NET
 10
-64.864629
 20
-12.902377
 30
850.0
 70
    64
  0
VERTEX
  5
291
  8
TEAM-NET
 10
-43.869684
 20
-5.775553
 30
850.0
 70
    64
  0
VERTEX
  5
292
  8
TEAM-NET
 10
-22.124117
 20
-1.450091
 30
850.0
 70
    64
  0
VERTEX
  5
293
  8
TEAM-NET
 10
0.0
 20
0.0
 30
850.0
 70
    64
  0
SEQEND
  5
295
  8
TEAM-NET
  0
POLYLINE
  5
296
  8
TEAM-NET
 66
     1
 10
0.0
 20
0.0
 30
0.0
 70
    16
 71
    25
 72
    25
  0
VERTEX
  5
297
  8
TEAM-NET
 10
0.0
 20
-317.268188
 30
850.0
 70
    64
  0
VERTEX
  5
298
  8
TEAM-NET
 10
19.287692
 20
-316.004006
 30
850.0
 70
    64
  0
VERTEX
  5
299
  8
TEAM-NET
 10
38.245365
 20
-312.23309
 30
850.0
 70
    64
  0
VERTEX
  5
29A
  8
TEAM-NET
 10
56.548651
 20
-306.019962
 30
850.0
 70
    64
  0
VERTEX
  5
29B
  8
TEAM-NET
 10
73.884373
 20
-297.47093
 30
850.0
 70
    64
  0
VERTEX
  5
29C
  8
TEAM-NET
 10
89.955912
 20
-286.73227
 30
850.0
 70
    64
  0
VERTEX
  5
29D
  8
TEAM-NET
 10
104.488282
 20
-273.987724
 30
850.0
 70
    64
  0
VERTEX
  5
29E
  8
TEAM-NET
 10
117.232827
 20
-259.455355
 30
850.0
 70
    64
  0
VERTEX
  5
29F
  8
TEAM-NET
 10
127.971487
 20
-243.383815
 30
850.0
 70
    64
  0
VERTEX
  5
2A0
  8
TEAM-NET
 10
136.520519
 20
-226.048093
 30
850.0
 70
    64
  0
VERTEX
  5
2A1
  8
TEAM-NET
 10
142.733647
 20
-207.744808
 30
850.0
 70
    64
  0
VERTEX
  5
2A2
  8
TEAM-NET
 10
146.504563
 20
-188.787134
 30
850.0
 70
    64
  0
VERTEX
  5
2A3
  8
TEAM-NET
 10
147.768745
 20
-169.499443
 30
850.0
 70
    64
  0
VERTEX
  5
2A4
  8
TEAM-NET
 10
146.504563
 20
-150.211751
 30
850.0
 70
    64
  0
VERTEX
  5
2A5
  8
TEAM-NET
 10
142.733647
 20
-131.254077
 30
850.0
 70
    64
  0
VERTEX
  5
2A6
  8
TEAM-NET
 10
136.520519
 20
-112.950792
 30
850.0
 70
    64
  0
VERTEX
  5
2A7
  8
TEAM-NET
 10
127.971487
 20
-95.61507
 30
850.0
 70
    64
  0
VERTEX
  5
2A8
  8
TEAM-NET
 10
117.232827
 20
-79.54353
 30
850.0
 70
    64
  0
VERTEX
  5
2A9
  8
TEAM-NET
 10
104.488282
 20
-65.011161
 30
850.0
 70
    64
  0
VERTEX
  5
2AA
  8
TEAM-NET
 10
89.955912
 20
-52.266615
 30
850.0
 70
    64
  0
VERTEX
  5
2AB
  8
TEAM-NET
 10
73.884373
 20
-41.527956
 30
850.0
 70
    64
  0
VERTEX
  5
2AC
  8
TEAM-NET
 10
56.548651
 20
-32.978924
 30
850.0
 70
    64
  0
VERTEX
  5
2AD
  8
TEAM-NET
 10
38.245365
 20
-26.765796
 30
850.0
 70
    64
  0
VERTEX
  5
2AE
  8
TEAM-NET
 10
19.287692
 20
-22.99488
 30
850.0
 70
    64
  0
VERTEX
  5
2AF
  8
TEAM-NET
 10
0.0
 20
-21.730698
 30
850.0
 70
    64
  0
VERTEX
  5
2B0
  8
TEAM-NET
 10
0.0
 20
-317.268188
 30
850.0
 70
    64
  0
VERTEX
  5
2B1
  8
TEAM-NET
 10
19.122683
 20
-316.004006
 30
847.482451
 70
    64
  0
VERTEX
  5
2B2
  8
TEAM-NET
 10
37.918171
 20
-312.23309
 30
845.007978
 70
    64
  0
VERTEX
  5
2B3
  8
TEAM-NET
 10
56.064869
 20
-306.019962
 30
842.61892
 70
    64
  0
VERTEX
  5
2B4
  8
TEAM-NET
 10
73.252281
 20
-297.47093
 30
840.356154
 70
    64
  0
VERTEX
  5
2B5
  8
TEAM-NET
 10
89.186327
 20
-286.73227
 30
838.258397
 70
    64
  0
VERTEX
  5
2B6
  8
TEAM-NET
 10
103.59437
 20
-273.987724
 30
836.361542
 70
    64
  0
VERTEX
  5
2B7
  8
TEAM-NET
 10
116.229884
 20
-259.455355
 30
834.698045
 70
    64
  0
VERTEX
  5
2B8
  8
TEAM-NET
 10
126.876673
 20
-243.383815
 30
833.296369
 70
    64
  0
VERTEX
  5
2B9
  8
TEAM-NET
 10
135.352567
 20
-226.048093
 30
832.180496
 70
    64
  0
VERTEX
  5
2BA
  8
TEAM-NET
 10
141.512541
 20
-207.744808
 30
831.369521
 70
    64
  0
VERTEX
  5
2BB
  8
TEAM-NET
 10
145.251196
 20
-188.787134
 30
830.877317
 70
    64
  0
VERTEX
  5
2BC
  8
TEAM-NET
 10
146.504563
 20
-169.499443
 30
830.712308
 70
    64
  0
VERTEX
  5
2BD
  8
TEAM-NET
 10
145.251196
 20
-150.211751
 30
830.877317
 70
    64
  0
VERTEX
  5
2BE
  8
TEAM-NET
 10
141.512541
 20
-131.254077
 30
831.369521
 70
    64
  0
VERTEX
  5
2BF
  8
TEAM-NET
 10
135.352567
 20
-112.950792
 30
832.180496
 70
    64
  0
VERTEX
  5
2C0
  8
TEAM-NET
 10
126.876673
 20
-95.61507
 30
833.296369
 70
    64
  0
VERTEX
  5
2C1
  8
TEAM-NET
 10
116.229884
 20
-79.54353
 30
834.698045
 70
    64
  0
VERTEX
  5
2C2
  8
TEAM-NET
 10
103.59437
 20
-65.011161
 30
836.361542
 70
    64
  0
VERTEX
  5
2C3
  8
TEAM-NET
 10
89.186327
 20
-52.266615
 30
838.258397
 70
    64
  0
VERTEX
  5
2C4
  8
TEAM-NET
 10
73.252281
 20
-41.527956
 30
840.356154
 70
    64
  0
VERTEX
  5
2C5
  8
TEAM-NET
 10
56.064869
 20
-32.978924
 30
842.61892
 70
    64
  0
VERTEX
  5
2C6
  8
TEAM-NET
 10
37.918171
 20
-26.765796
 30
845.007978
 70
    64
  0
VERTEX
  5
2C7
  8
TEAM-NET
 10
19.122683
 20
-22.99488
 30
847.482451
 70
    64
  0
VERTEX
  5
2C8
  8
TEAM-NET
 10
0.0
 20
-21.730698
 30
850.0
 70
    64
  0
VERTEX
  5
2C9
  8
TEAM-NET
 10
0.0
 20
-317.268188
 30
850.0
 70
    64
  0
VERTEX
  5
2CA
  8
TEAM-NET
 10
18.630479
 20
-316.004006
 30
845.007978
 70
    64
  0
VERTEX
  5
2CB
  8
TEAM-NET
 10
36.942186
 20
-312.23309
 30
840.101371
 70
    64
  0
VERTEX
  5
2CC
  8
TEAM-NET
 10
54.621802
 20
-306.019962
 30
835.364132
 70
    64
  0
VERTEX
  5
2CD
  8
TEAM-NET
 10
71.366824
 20
-297.47093
 30
830.877317
 70
    64
  0
VERTEX
  5
2CE
  8
TEAM-NET
 10
86.890739
 20
-286.73227
 30
826.717697
 70
    64
  0
VERTEX
  5
2CF
  8
TEAM-NET
 10
100.92793
 20
-273.987724
 30
822.956443
 70
    64
  0
VERTEX
  5
2D0
  8
TEAM-NET
 10
113.238216
 20
-259.455355
 30
819.657912
 70
    64
  0
VERTEX
  5
2D1
  8
TEAM-NET
 10
123.610964
 20
-243.383815
 30
816.878542
 70
    64
  0
VERTEX
  5
2D2
  8
TEAM-NET
 10
131.868695
 20
-226.048093
 30
814.66589
 70
    64
  0
VERTEX
  5
2D3
  8
TEAM-NET
 10
137.870116
 20
-207.744808
 30
813.057814
 70
    64
  0
VERTEX
  5
2D4
  8
TEAM-NET
 10
141.512541
 20
-188.787134
 30
812.081829
 70
    64
  0
VERTEX
  5
2D5
  8
TEAM-NET
 10
142.733647
 20
-169.499443
 30
811.754635
 70
    64
  0
VERTEX
  5
2D6
  8
TEAM-NET
 10
141.512541
 20
-150.211751
 30
812.081829
 70
    64
  0
VERTEX
  5
2D7
  8
TEAM-NET
 10
137.870116
 20
-131.254077
 30
813.057814
 70
    64
  0
VERTEX
  5
2D8
  8
TEAM-NET
 10
131.868695
 20
-112.950792
 30
814.66589
 70
    64
  0
VERTEX
  5
2D9
  8
TEAM-NET
 10
123.610964
 20
-95.61507
 30
816.878542
 70
    64
  0
VERTEX
  5
2DA
  8
TEAM-NET
 10
113.238216
 20
-79.54353
 30
819.657912
 70
    64
  0
VERTEX
  5
2DB
  8
TEAM-NET
 10
100.92793
 20
-65.011161
 30
822.956443
 70
    64
  0
VERTEX
  5
2DC
  8
TEAM-NET
 10
86.890739
 20
-52.266615
 30
826.717697
 70
    64
  0
VERTEX
  5
2DD
  8
TEAM-NET
 10
71.366824
 20
-41.527956
 30
830.877317
 70
    64
  0
VERTEX
  5
2DE
  8
TEAM-NET
 10
54.621802
 20
-32.978924
 30
835.364132
 70
    64
  0
VERTEX
  5
2DF
  8
TEAM-NET
 10
36.942186
 20
-26.765796
 30
840.101371
 70
    64
  0
VERTEX
  5
2E0
  8
TEAM-NET
 10
18.630479
 20
-22.99488
 30
845.007978
 70
    64
  0
VERTEX
  5
2E1
  8
TEAM-NET
 10
0.0
 20
-21.730698
 30
850.0
 70
    64
  0
VERTEX
  5
2E2
  8
TEAM-NET
 10
0.0
 20
-317.268188
 30
850.0
 70
    64
  0
VERTEX
  5
2E3
  8
TEAM-NET
 10
17.819504
 20
-316.004006
 30
842.61892
 70
    64
  0
VERTEX
  5
2E4
  8
TEAM-NET
 10
35.33411
 20
-312.23309
 30
835.364132
 70
    64
  0
VERTEX
  5
2E5
  8
TEAM-NET
 10
52.244141
 20
-306.019962
 30
828.359768
 70
    64
  0
VERTEX
  5
2E6
  8
TEAM-NET
 10
68.26026
 20
-297.47093
 30
821.725675
 70
    64
  0
VERTEX
  5
2E7
  8
TEAM-NET
 10
83.108426
 20
-286.73227
 30
815.575363
 70
    64
  0
VERTEX
  5
2E8
  8
TEAM-NET
 10
96.534585
 20
-273.987724
 30
810.014066
 70
    64
  0
VERTEX
  5
2E9
  8
TEAM-NET
 10
108.30901
 20
-259.455355
 30
805.136939
 70
    64
  0
VERTEX
  5
2EA
  8
TEAM-NET
 10
118.230238
 20
-243.383815
 30
801.027432
 70
    64
  0
VERTEX
  5
2EB
  8
TEAM-NET
 10
126.128513
 20
-226.048093
 30
797.755859
 70
    64
  0
VERTEX
  5
2EC
  8
TEAM-NET
 10
131.868695
 20
-207.744808
 30
795.378198
 70
    64
  0
VERTEX
  5
2ED
  8
TEAM-NET
 10
135.352567
 20
-188.787134
 30
793.935131
 70
    64
  0
VERTEX
  5
2EE
  8
TEAM-NET
 10
136.520519
 20
-169.499443
 30
793.451349
 70
    64
  0
VERTEX
  5
2EF
  8
TEAM-NET
 10
135.352567
 20
-150.211751
 30
793.935131
 70
    64
  0
VERTEX
  5
2F0
  8
TEAM-NET
 10
131.868695
 20
-131.254077
 30
795.378198
 70
    64
  0
VERTEX
  5
2F1
  8
TEAM-NET
 10
126.128513
 20
-112.950792
 30
797.755859
 70
    64
  0
VERTEX
  5
2F2
  8
TEAM-NET
 10
118.230238
 20
-95.61507
 30
801.027432
 70
    64
  0
VERTEX
  5
2F3
  8
TEAM-NET
 10
108.30901
 20
-79.54353
 30
805.136939
 70
    64
  0
VERTEX
  5
2F4
  8
TEAM-NET
 10
96.534585
 20
-65.011161
 30
810.014066
 70
    64
  0
VERTEX
  5
2F5
  8
TEAM-NET
 10
83.108426
 20
-52.266615
 30
815.575363
 70
    64
  0
VERTEX
  5
2F6
  8
TEAM-NET
 10
68.26026
 20
-41.527956
 30
821.725675
 70
    64
  0
VERTEX
  5
2F7
  8
TEAM-NET
 10
52.244141
 20
-32.978924
 30
828.359768
 70
    64
  0
VERTEX
  5
2F8
  8
TEAM-NET
 10
35.33411
 20
-26.765796
 30
835.364132
 70
    64
  0
VERTEX
  5
2F9
  8
TEAM-NET
 10
17.819504
 20
-22.99488
 30
842.61892
 70
    64
  0
VERTEX
  5
2FA
  8
TEAM-NET
 10
0.0
 20
-21.730698
 30
850.0
 70
    64
  0
VERTEX
  5
2FB
  8
TEAM-NET
 10
0.0
 20
-317.268188
 30
850.0
 70
    64
  0
VERTEX
  5
2FC
  8
TEAM-NET
 10
16.703631
 20
-316.004006
 30
840.356154
 70
    64
  0
VERTEX
  5
2FD
  8
TEAM-NET
 10
33.121458
 20
-312.23309
 30
830.877317
 70
    64
  0
VERTEX
  5
2FE
  8
TEAM-NET
 10
48.972568
 20
-306.019962
 30
821.725675
 70
    64
  0
VERTEX
  5
2FF
  8
TEAM-NET
 10
63.985744
 20
-297.47093
 30
813.057814
 70
    64
  0
VERTEX
  5
300
  8
TEAM-NET
 10
77.904105
 20
-286.73227
 30
805.022044
 70
    64
  0
VERTEX
  5
301
  8
TEAM-NET
 10
90.489506
 20
-273.987724
 30
797.755859
 70
    64
  0
VERTEX
  5
302
  8
TEAM-NET
 10
101.526607
 20
-259.455355
 30
791.383586
 70
    64
  0
VERTEX
  5
303
  8
TEAM-NET
 10
110.826559
 20
-243.383815
 30
786.014256
 70
    64
  0
VERTEX
  5
304
  8
TEAM-NET
 10
118.230238
 20
-226.048093
 30
781.73974
 70
    64
  0
VERTEX
  5
305
  8
TEAM-NET
 10
123.610964
 20
-207.744808
 30
778.633176
 70
    64
  0
VERTEX
  5
306
  8
TEAM-NET
 10
126.876673
 20
-188.787134
 30
776.747719
 70
    64
  0
VERTEX
  5
307
  8
TEAM-NET
 10
127.971487
 20
-169.499443
 30
776.115627
 70
    64
  0
VERTEX
  5
308
  8
TEAM-NET
 10
126.876673
 20
-150.211751
 30
776.747719
 70
    64
  0
VERTEX
  5
309
  8
TEAM-NET
 10
123.610964
 20
-131.254077
 30
778.633176
 70
    64
  0
VERTEX
  5
30A
  8
TEAM-NET
 10
118.230238
 20
-112.950792
 30
781.73974
 70
    64
  0
VERTEX
  5
30B
  8
TEAM-NET
 10
110.826559
 20
-95.61507
 30
786.014256
 70
    64
  0
VERTEX
  5
30C
  8
TEAM-NET
 10
101.526607
 20
-79.54353
 30
791.383586
 70
    64
  0
VERTEX
  5
30D
  8
TEAM-NET
 10
90.489506
 20
-65.011161
 30
797.755859
 70
    64
  0
VERTEX
  5
30E
  8
TEAM-NET
 10
77.904105
 20
-52.266615
 30
805.022044
 70
    64
  0
VERTEX
  5
30F
  8
TEAM-NET
 10
63.985744
 20
-41.527956
 30
813.057814
 70
    64
  0
VERTEX
  5
310
  8
TEAM-NET
 10
48.972568
 20
-32.978924
 30
821.725675
 70
    64
  0
VERTEX
  5
311
  8
TEAM-NET
 10
33.121458
 20
-26.765796
 30
830.877317
 70
    64
  0
VERTEX
  5
312
  8
TEAM-NET
 10
16.703631
 20
-22.99488
 30
840.356154
 70
    64
  0
VERTEX
  5
313
  8
TEAM-NET
 10
0.0
 20
-21.730698
 30
850.0
 70
    64
  0
VERTEX
  5
314
  8
TEAM-NET
 10
0.0
 20
-317.268188
 30
850.0
 70
    64
  0
VERTEX
  5
315
  8
TEAM-NET
 10
15.301955
 20
-316.004006
 30
838.258397
 70
    64
  0
VERTEX
  5
316
  8
TEAM-NET
 10
30.342088
 20
-312.23309
 30
826.717697
 70
    64
  0
VERTEX
  5
317
  8
TEAM-NET
 10
44.863061
 20
-306.019962
 30
815.575363
 70
    64
  0
VERTEX
  5
318
  8
TEAM-NET
 10
58.616414
 20
-297.47093
 30
805.022044
 70
    64
  0
VERTEX
  5
319
  8
TEAM-NET
 10
71.366824
 20
-286.73227
 30
795.23831
 70
    64
  0
VERTEX
  5
31A
  8
TEAM-NET
 10
82.896127
 20
-273.987724
 30
786.391564
 70
    64
  0
VERTEX
  5
31B
  8
TEAM-NET
 10
93.007055
 20
-259.455355
 30
778.633176
 70
    64
  0
VERTEX
  5
31C
  8
TEAM-NET
 10
101.526607
 20
-243.383815
 30
772.095895
 70
    64
  0
VERTEX
  5
31D
  8
TEAM-NET
 10
108.30901
 20
-226.048093
 30
766.891574
 70
    64
  0
VERTEX
  5
31E
  8
TEAM-NET
 10
113.238216
 20
-207.744808
 30
763.109261
 70
    64
  0
VERTEX
  5
31F
  8
TEAM-NET
 10
116.229884
 20
-188.787134
 30
760.813673
 70
    64
  0
VERTEX
  5
320
  8
TEAM-NET
 10
117.232827
 20
-169.499443
 30
760.044088
 70
    64
  0
VERTEX
  5
321
  8
TEAM-NET
 10
116.229884
 20
-150.211751
 30
760.813673
 70
    64
  0
VERTEX
  5
322
  8
TEAM-NET
 10
113.238216
 20
-131.254077
 30
763.109261
 70
    64
  0
VERTEX
  5
323
  8
TEAM-NET
 10
108.30901
 20
-112.950792
 30
766.891574
 70
    64
  0
VERTEX
  5
324
  8
TEAM-NET
 10
101.526607
 20
-95.61507
 30
772.095895
 70
    64
  0
VERTEX
  5
325
  8
TEAM-NET
 10
93.007055
 20
-79.54353
 30
778.633176
 70
    64
  0
VERTEX
  5
326
  8
TEAM-NET
 10
82.896127
 20
-65.011161
 30
786.391564
 70
    64
  0
VERTEX
  5
327
  8
TEAM-NET
 10
71.366824
 20
-52.266615
 30
795.23831
 70
    64
  0
VERTEX
  5
328
  8
TEAM-NET
 10
58.616414
 20
-41.527956
 30
805.022044
 70
    64
  0
VERTEX
  5
329
  8
TEAM-NET
 10
44.863061
 20
-32.978924
 30
815.575363
 70
    64
  0
VERTEX
  5
32A
  8
TEAM-NET
 10
30.342088
 20
-26.765796
 30
826.717697
 70
    64
  0
VERTEX
  5
32B
  8
TEAM-NET
 10
15.301955
 20
-22.99488
 30
838.258397
 70
    64
  0
VERTEX
  5
32C
  8
TEAM-NET
 10
0.0
 20
-21.730698
 30
850.0
 70
    64
  0
VERTEX
  5
32D
  8
TEAM-NET
 10
0.0
 20
-317.268188
 30
850.0
 70
    64
  0
VERTEX
  5
32E
  8
TEAM-NET
 10
13.638458
 20
-316.004006
 30
836.361542
 70
    64
  0
VERTEX
  5
32F
  8
TEAM-NET
 10
27.043557
 20
-312.23309
 30
822.956443
 70
    64
  0
VERTEX
  5
330
  8
TEAM-NET
 10
39.985934
 20
-306.019962
 30
810.014066
 70
    64
  0
VERTEX
  5
331
  8
TEAM-NET
 10
52.244141
 20
-297.47093
 30
797.755859
 70
    64
  0
VERTEX
  5
332
  8
TEAM-NET
 10
63.608436
 20
-286.73227
 30
786.391564
 70
    64
  0
VERTEX
  5
333
  8
TEAM-NET
 10
73.884373
 20
-273.987724
 30
776.115627
 70
    64
  0
VERTEX
  5
334
  8
TEAM-NET
 10
82.896127
 20
-259.455355
 30
767.103873
 70
    64
  0
VERTEX
  5
335
  8
TEAM-NET
 10
90.489506
 20
-243.383815
 30
759.510494
 70
    64
  0
VERTEX
  5
336
  8
TEAM-NET
 10
96.534585
 20
-226.048093
 30
753.465415
 70
    64
  0
VERTEX
  5
337
  8
TEAM-NET
 10
100.92793
 20
-207.744808
 30
749.07207
 70
    64
  0
VERTEX
  5
338
  8
TEAM-NET
 10
103.59437
 20
-188.787134
 30
746.40563
 70
    64
  0
VERTEX
  5
339
  8
TEAM-NET
 10
104.488282
 20
-169.499443
 30
745.511718
 70
    64
  0
VERTEX
  5
33A
  8
TEAM-NET
 10
103.59437
 20
-150.211751
 30
746.40563
 70
    64
  0
VERTEX
  5
33B
  8
TEAM-NET
 10
100.92793
 20
-131.254077
 30
749.07207
 70
    64
  0
VERTEX
  5
33C
  8
TEAM-NET
 10
96.534585
 20
-112.950792
 30
753.465415
 70
    64
  0
VERTEX
  5
33D
  8
TEAM-NET
 10
90.489506
 20
-95.61507
 30
759.510494
 70
    64
  0
VERTEX
  5
33E
  8
TEAM-NET
 10
82.896127
 20
-79.54353
 30
767.103873
 70
    64
  0
VERTEX
  5
33F
  8
TEAM-NET
 10
73.884373
 20
-65.011161
 30
776.115627
 70
    64
  0
VERTEX
  5
340
  8
TEAM-NET
 10
63.608436
 20
-52.266615
 30
786.391564
 70
    64
  0
VERTEX
  5
341
  8
TEAM-NET
 10
52.244141
 20
-41.527956
 30
797.755859
 70
    64
  0
VERTEX
  5
342
  8
TEAM-NET
 10
39.985934
 20
-32.978924
 30
810.014066
 70
    64
  0
VERTEX
  5
343
  8
TEAM-NET
 10
27.043557
 20
-26.765796
 30
822.956443
 70
    64
  0
VERTEX
  5
344
  8
TEAM-NET
 10
13.638458
 20
-22.99488
 30
836.361542
 70
    64
  0
VERTEX
  5
345
  8
TEAM-NET
 10
0.0
 20
-21.730698
 30
850.0
 70
    64
  0
VERTEX
  5
346
  8
TEAM-NET
 10
0.0
 20
-317.268188
 30
850.0
 70
    64
  0
VERTEX
  5
347
  8
TEAM-NET
 10
11.741603
 20
-316.004006
 30
834.698045
 70
    64
  0
VERTEX
  5
348
  8
TEAM-NET
 10
23.282303
 20
-312.23309
 30
819.657912
 70
    64
  0
VERTEX
  5
349
  8
TEAM-NET
 10
34.424637
 20
-306.019962
 30
805.136939
 70
    64
  0
VERTEX
  5
34A
  8
TEAM-NET
 10
44.977956
 20
-297.47093
 30
791.383586
 70
    64
  0
VERTEX
  5
34B
  8
TEAM-NET
 10
54.76169
 20
-286.73227
 30
778.633176
 70
    64
  0
VERTEX
  5
34C
  8
TEAM-NET
 10
63.608436
 20
-273.987724
 30
767.103873
 70
    64
  0
VERTEX
  5
34D
  8
TEAM-NET
 10
71.366824
 20
-259.455355
 30
756.992945
 70
    64
  0
VERTEX
  5
34E
  8
TEAM-NET
 10
77.904105
 20
-243.383815
 30
748.473393
 70
    64
  0
VERTEX
  5
34F
  8
TEAM-NET
 10
83.108426
 20
-226.048093
 30
741.69099
 70
    64
  0
VERTEX
  5
350
  8
TEAM-NET
 10
86.890739
 20
-207.744808
 30
736.761784
 70
    64
  0
VERTEX
  5
351
  8
TEAM-NET
 10
89.186327
 20
-188.787134
 30
733.770116
 70
    64
  0
VERTEX
  5
352
  8
TEAM-NET
 10
89.955912
 20
-169.499443
 30
732.767173
 70
    64
  0
VERTEX
  5
353
  8
TEAM-NET
 10
89.186327
 20
-150.211751
 30
733.770116
 70
    64
  0
VERTEX
  5
354
  8
TEAM-NET
 10
86.890739
 20
-131.254077
 30
736.761784
 70
    64
  0
VERTEX
  5
355
  8
TEAM-NET
 10
83.108426
 20
-112.950792
 30
741.69099
 70
    64
  0
VERTEX
  5
356
  8
TEAM-NET
 10
77.904105
 20
-95.61507
 30
748.473393
 70
    64
  0
VERTEX
  5
357
  8
TEAM-NET
 10
71.366824
 20
-79.54353
 30
756.992945
 70
    64
  0
VERTEX
  5
358
  8
TEAM-NET
 10
63.608436
 20
-65.011161
 30
767.103873
 70
    64
  0
VERTEX
  5
359
  8
TEAM-NET
 10
54.76169
 20
-52.266615
 30
778.633176
 70
    64
  0
VERTEX
  5
35A
  8
TEAM-NET
 10
44.977956
 20
-41.527956
 30
791.383586
 70
    64
  0
VERTEX
  5
35B
  8
TEAM-NET
 10
34.424637
 20
-32.978924
 30
805.136939
 70
    64
  0
VERTEX
  5
35C
  8
TEAM-NET
 10
23.282303
 20
-26.765796
 30
819.657912
 70
    64
  0
VERTEX
  5
35D
  8
TEAM-NET
 10
11.741603
 20
-22.99488
 30
834.698045
 70
    64
  0
VERTEX
  5
35E
  8
TEAM-NET
 10
0.0
 20
-21.730698
 30
850.0
 70
    64
  0
VERTEX
  5
35F
  8
TEAM-NET
 10
0.0
 20
-317.268188
 30
850.0
 70
    64
  0
VERTEX
  5
360
  8
TEAM-NET
 10
9.643846
 20
-316.004006
 30
833.296369
 70
    64
  0
VERTEX
  5
361
  8
TEAM-NET
 10
19.122683
 20
-312.23309
 30
816.878542
 70
    64
  0
VERTEX
  5
362
  8
TEAM-NET
 10
28.274325
 20
-306.019962
 30
801.027432
 70
    64
  0
VERTEX
  5
363
  8
TEAM-NET
 10
36.942186
 20
-297.47093
 30
786.014256
 70
    64
  0
VERTEX
  5
364
  8
TEAM-NET
 10
44.977956
 20
-286.73227
 30
772.095895
 70
    64
  0
VERTEX
  5
365
  8
TEAM-NET
 10
52.244141
 20
-273.987724
 30
759.510494
 70
    64
  0
VERTEX
  5
366
  8
TEAM-NET
 10
58.616414
 20
-259.455355
 30
748.473393
 70
    64
  0
VERTEX
  5
367
  8
TEAM-NET
 10
63.985744
 20
-243.383815
 30
739.173441
 70
    64
  0
VERTEX
  5
368
  8
TEAM-NET
 10
68.26026
 20
-226.048093
 30
731.769762
 70
    64
  0
VERTEX
  5
369
  8
TEAM-NET
 10
71.366824
 20
-207.744808
 30
726.389036
 70
    64
  0
VERTEX
  5
36A
  8
TEAM-NET
 10
73.252281
 20
-188.787134
 30
723.123327
 70
    64
  0
VERTEX
  5
36B
  8
TEAM-NET
 10
73.884373
 20
-169.499443
 30
722.028513
 70
    64
  0
VERTEX
  5
36C
  8
TEAM-NET
 10
73.252281
 20
-150.211751
 30
723.123327
 70
    64
  0
VERTEX
  5
36D
  8
TEAM-NET
 10
71.366824
 20
-131.254077
 30
726.389036
 70
    64
  0
VERTEX
  5
36E
  8
TEAM-NET
 10
68.26026
 20
-112.950792
 30
731.769762
 70
    64
  0
VERTEX
  5
36F
  8
TEAM-NET
 10
63.985744
 20
-95.61507
 30
739.173441
 70
    64
  0
VERTEX
  5
370
  8
TEAM-NET
 10
58.616414
 20
-79.54353
 30
748.473393
 70
    64
  0
VERTEX
  5
371
  8
TEAM-NET
 10
52.244141
 20
-65.011161
 30
759.510494
 70
    64
  0
VERTEX
  5
372
  8
TEAM-NET
 10
44.977956
 20
-52.266615
 30
772.095895
 70
    64
  0
VERTEX
  5
373
  8
TEAM-NET
 10
36.942186
 20
-41.527956
 30
786.014256
 70
    64
  0
VERTEX
  5
374
  8
TEAM-NET
 10
28.274325
 20
-32.978924
 30
801.027432
 70
    64
  0
VERTEX
  5
375
  8
TEAM-NET
 10
19.122683
 20
-26.765796
 30
816.878542
 70
    64
  0
VERTEX
  5
376
  8
TEAM-NET
 10
9.643846
 20
-22.99488
 30
833.296369
 70
    64
  0
VERTEX
  5
377
  8
TEAM-NET
 10
0.0
 20
-21.730698
 30
850.0
 70
    64
  0
VERTEX
  5
378
  8
TEAM-NET
 10
0.0
 20
-317.268188
 30
850.0
 70
    64
  0
VERTEX
  5
379
  8
TEAM-NET
 10
7.38108
 20
-316.004006
 30
832.180496
 70
    64
  0
VERTEX
  5
37A
  8
TEAM-NET
 10
14.635868
 20
-312.23309
 30
814.66589
 70
    64
  0
VERTEX
  5
37B
  8
TEAM-NET
 10
21.640232
 20
-306.019962
 30
797.755859
 70
    64
  0
VERTEX
  5
37C
  8
TEAM-NET
 10
28.274325
 20
-297.47093
 30
781.73974
 70
    64
  0
VERTEX
  5
37D
  8
TEAM-NET
 10
34.424637
 20
-286.73227
 30
766.891574
 70
    64
  0
VERTEX
  5
37E
  8
TEAM-NET
 10
39.985934
 20
-273.987724
 30
753.465415
 70
    64
  0
VERTEX
  5
37F
  8
TEAM-NET
 10
44.863061
 20
-259.455355
 30
741.69099
 70
    64
  0
VERTEX
  5
380
  8
TEAM-NET
 10
48.972568
 20
-243.383815
 30
731.769762
 70
    64
  0
VERTEX
  5
381
  8
TEAM-NET
 10
52.244141
 20
-226.048093
 30
723.871487
 70
    64
  0
VERTEX
  5
382
  8
TEAM-NET
 10
54.621802
 20
-207.744808
 30
718.131305
 70
    64
  0
VERTEX
  5
383
  8
TEAM-NET
 10
56.064869
 20
-188.787134
 30
714.647433
 70
    64
  0
VERTEX
  5
384
  8
TEAM-NET
 10
56.548651
 20
-169.499443
 30
713.479481
 70
    64
  0
VERTEX
  5
385
  8
TEAM-NET
 10
56.064869
 20
-150.211751
 30
714.647433
 70
    64
  0
VERTEX
  5
386
  8
TEAM-NET
 10
54.621802
 20
-131.254077
 30
718.131305
 70
    64
  0
VERTEX
  5
387
  8
TEAM-NET
 10
52.244141
 20
-112.950792
 30
723.871487
 70
    64
  0
VERTEX
  5
388
  8
TEAM-NET
 10
48.972568
 20
-95.61507
 30
731.769762
 70
    64
  0
VERTEX
  5
389
  8
TEAM-NET
 10
44.863061
 20
-79.54353
 30
741.69099
 70
    64
  0
VERTEX
  5
38A
  8
TEAM-NET
 10
39.985934
 20
-65.011161
 30
753.465415
 70
    64
  0
VERTEX
  5
38B
  8
TEAM-NET
 10
34.424637
 20
-52.266615
 30
766.891574
 70
    64
  0
VERTEX
  5
38C
  8
TEAM-NET
 10
28.274325
 20
-41.527956
 30
781.73974
 70
    64
  0
VERTEX
  5
38D
  8
TEAM-NET
 10
21.640232
 20
-32.978924
 30
797.755859
 70
    64
  0
VERTEX
  5
38E
  8
TEAM-NET
 10
14.635868
 20
-26.765796
 30
814.66589
 70
    64
  0
VERTEX
  5
38F
  8
TEAM-NET
 10
7.38108
 20
-22.99488
 30
832.180496
 70
    64
  0
VERTEX
  5
390
  8
TEAM-NET
 10
0.0
 20
-21.730698
 30
850.0
 70
    64
  0
VERTEX
  5
391
  8
TEAM-NET
 10
0.0
 20
-317.268188
 30
850.0
 70
    64
  0
VERTEX
  5
392
  8
TEAM-NET
 10
4.992022
 20
-316.004006
 30
831.369521
 70
    64
  0
VERTEX
  5
393
  8
TEAM-NET
 10
9.898629
 20
-312.23309
 30
813.057814
 70
    64
  0
VERTEX
  5
394
  8
TEAM-NET
 10
14.635868
 20
-306.019962
 30
795.378198
 70
    64
  0
VERTEX
  5
395
  8
TEAM-NET
 10
19.122683
 20
-297.47093
 30
778.633176
 70
    64
  0
VERTEX
  5
396
  8
TEAM-NET
 10
23.282303
 20
-286.73227
 30
763.109261
 70
    64
  0
VERTEX
  5
397
  8
TEAM-NET
 10
27.043557
 20
-273.987724
 30
749.07207
 70
    64
  0
VERTEX
  5
398
  8
TEAM-NET
 10
30.342088
 20
-259.455355
 30
736.761784
 70
    64
  0
VERTEX
  5
399
  8
TEAM-NET
 10
33.121458
 20
-243.383815
 30
726.389036
 70
    64
  0
VERTEX
  5
39A
  8
TEAM-NET
 10
35.33411
 20
-226.048093
 30
718.131305
 70
    64
  0
VERTEX
  5
39B
  8
TEAM-NET
 10
36.942186
 20
-207.744808
 30
712.129884
 70
    64
  0
VERTEX
  5
39C
  8
TEAM-NET
 10
37.918171
 20
-188.787134
 30
708.487459
 70
    64
  0
VERTEX
  5
39D
  8
TEAM-NET
 10
38.245365
 20
-169.499443
 30
707.266353
 70
    64
  0
VERTEX
  5
39E
  8
TEAM-NET
 10
37.918171
 20
-150.211751
 30
708.487459
 70
    64
  0
VERTEX
  5
39F
  8
TEAM-NET
 10
36.942186
 20
-131.254077
 30
712.129884
 70
    64
  0
VERTEX
  5
3A0
  8
TEAM-NET
 10
35.33411
 20
-112.950792
 30
718.131305
 70
    64
  0
VERTEX
  5
3A1
  8
TEAM-NET
 10
33.121458
 20
-95.61507
 30
726.389036
 70
    64
  0
VERTEX
  5
3A2
  8
TEAM-NET
 10
30.342088
 20
-79.54353
 30
736.761784
 70
    64
  0
VERTEX
  5
3A3
  8
TEAM-NET
 10
27.043557
 20
-65.011161
 30
749.07207
 70
    64
  0
VERTEX
  5
3A4
  8
TEAM-NET
 10
23.282303
 20
-52.266615
 30
763.109261
 70
    64
  0
VERTEX
  5
3A5
  8
TEAM-NET
 10
19.122683
 20
-41.527956
 30
778.633176
 70
    64
  0
VERTEX
  5
3A6
  8
TEAM-NET
 10
14.635868
 20
-32.978924
 30
795.378198
 70
    64
  0
VERTEX
  5
3A7
  8
TEAM-NET
 10
9.898629
 20
-26.765796
 30
813.057814
 70
    64
  0
VERTEX
  5
3A8
  8
TEAM-NET
 10
4.992022
 20
-22.99488
 30
831.369521
 70
    64
  0
VERTEX
  5
3A9
  8
TEAM-NET
 10
0.0
 20
-21.730698
 30
850.0
 70
    64
  0
VERTEX
  5
3AA
  8
TEAM-NET
 10
0.0
 20
-317.268188
 30
850.0
 70
    64
  0
VERTEX
  5
3AB
  8
TEAM-NET
 10
2.517549
 20
-316.004006
 30
830.877317
 70
    64
  0
VERTEX
  5
3AC
  8
TEAM-NET
 10
4.992022
 20
-312.23309
 30
812.081829
 70
    64
  0
VERTEX
  5
3AD
  8
TEAM-NET
 10
7.38108
 20
-306.019962
 30
793.935131
 70
    64
  0
VERTEX
  5
3AE
  8
TEAM-NET
 10
9.643846
 20
-297.47093
 30
776.747719
 70
    64
  0
VERTEX
  5
3AF
  8
TEAM-NET
 10
11.741603
 20
-286.73227
 30
760.813673
 70
    64
  0
VERTEX
  5
3B0
  8
TEAM-NET
 10
13.638458
 20
-273.987724
 30
746.40563
 70
    64
  0
VERTEX
  5
3B1
  8
TEAM-NET
 10
15.301955
 20
-259.455355
 30
733.770116
 70
    64
  0
VERTEX
  5
3B2
  8
TEAM-NET
 10
16.703631
 20
-243.383815
 30
723.123327
 70
    64
  0
VERTEX
  5
3B3
  8
TEAM-NET
 10
17.819504
 20
-226.048093
 30
714.647433
 70
    64
  0
VERTEX
  5
3B4
  8
TEAM-NET
 10
18.630479
 20
-207.744808
 30
708.487459
 70
    64
  0
VERTEX
  5
3B5
  8
TEAM-NET
 10
19.122683
 20
-188.787134
 30
704.748804
 70
    64
  0
VERTEX
  5
3B6
  8
TEAM-NET
 10
19.287692
 20
-169.499443
 30
703.495437
 70
    64
  0
VERTEX
  5
3B7
  8
TEAM-NET
 10
19.122683
 20
-150.211751
 30
704.748804
 70
    64
  0
VERTEX
  5
3B8
  8
TEAM-NET
 10
18.630479
 20
-131.254077
 30
708.487459
 70
    64
  0
VERTEX
  5
3B9
  8
TEAM-NET
 10
17.819504
 20
-112.950792
 30
714.647433
 70
    64
  0
VERTEX
  5
3BA
  8
TEAM-NET
 10
16.703631
 20
-95.61507
 30
723.123327
 70
    64
  0
VERTEX
  5
3BB
  8
TEAM-NET
 10
15.301955
 20
-79.54353
 30
733.770116
 70
    64
  0
VERTEX
  5
3BC
  8
TEAM-NET
 10
13.638458
 20
-65.011161
 30
746.40563
 70
    64
  0
VERTEX
  5
3BD
  8
TEAM-NET
 10
11.741603
 20
-52.266615
 30
760.813673
 70
    64
  0
VERTEX
  5
3BE
  8
TEAM-NET
 10
9.643846
 20
-41.527956
 30
776.747719
 70
    64
  0
VERTEX
  5
3BF
  8
TEAM-NET
 10
7.38108
 20
-32.978924
 30
793.935131
 70
    64
  0
VERTEX
  5
3C0
  8
TEAM-NET
 10
4.992022
 20
-26.765796
 30
812.081829
 70
    64
  0
VERTEX
  5
3C1
  8
TEAM-NET
 10
2.517549
 20
-22.99488
 30
830.877317
 70
    64
  0
VERTEX
  5
3C2
  8
TEAM-NET
 10
0.0
 20
-21.730698
 30
850.0
 70
    64
  0
VERTEX
  5
3C3
  8
TEAM-NET
 10
0.0
 20
-317.268188
 30
850.0
 70
    64
  0
VERTEX
  5
3C4
  8
TEAM-NET
 10
0.0
 20
-316.004006
 30
830.712308
 70
    64
  0
VERTEX
  5
3C5
  8
TEAM-NET
 10
0.0
 20
-312.23309
 30
811.754635
 70
    64
  0
VERTEX
  5
3C6
  8
TEAM-NET
 10
0.0
 20
-306.019962
 30
793.451349
 70
    64
  0
VERTEX
  5
3C7
  8
TEAM-NET
 10
0.0
 20
-297.47093
 30
776.115627
 70
    64
  0
VERTEX
  5
3C8
  8
TEAM-NET
 10
0.0
 20
-286.73227
 30
760.044088
 70
    64
  0
VERTEX
  5
3C9
  8
TEAM-NET
 10
0.0
 20
-273.987724
 30
745.511718
 70
    64
  0
VERTEX
  5
3CA
  8
TEAM-NET
 10
0.0
 20
-259.455355
 30
732.767173
 70
    64
  0
VERTEX
  5
3CB
  8
TEAM-NET
 10
0.0
 20
-243.383815
 30
722.028513
 70
    64
  0
VERTEX
  5
3CC
  8
TEAM-NET
 10
0.0
 20
-226.048093
 30
713.479481
 70
    64
  0
VERTEX
  5
3CD
  8
TEAM-NET
 10
0.0
 20
-207.744808
 30
707.266353
 70
    64
  0
VERTEX
  5
3CE
  8
TEAM-NET
 10
0.0
 20
-188.787134
 30
703.495437
 70
    64
  0
VERTEX
  5
3CF
  8
TEAM-NET
 10
0.0
 20
-169.499443
 30
702.231255
 70
    64
  0
VERTEX
  5
3D0
  8
TEAM-NET
 10
0.0
 20
-150.211751
 30
703.495437
 70
    64
  0
VERTEX
  5
3D1
  8
TEAM-NET
 10
0.0
 20
-131.254077
 30
707.266353
 70
    64
  0
VERTEX
  5
3D2
  8
TEAM-NET
 10
0.0
 20
-112.950792
 30
713.479481
 70
    64
  0
VERTEX
  5
3D3
  8
TEAM-NET
 10
0.0
 20
-95.61507
 30
722.028513
 70
    64
  0
VERTEX
  5
3D4
  8
TEAM-NET
 10
0.0
 20
-79.54353
 30
732.767173
 70
    64
  0
VERTEX
  5
3D5
  8
TEAM-NET
 10
0.0
 20
-65.011161
 30
745.511718
 70
    64
  0
VERTEX
  5
3D6
  8
TEAM-NET
 10
0.0
 20
-52.266615
 30
760.044088
 70
    64
  0
VERTEX
  5
3D7
  8
TEAM-NET
 10
0.0
 20
-41.527956
 30
776.115627
 70
    64
  0
VERTEX
  5
3D8
  8
TEAM-NET
 10
0.0
 20
-32.978924
 30
793.451349
 70
    64
  0
VERTEX
  5
3D9
  8
TEAM-NET
 10
0.0
 20
-26.765796
 30
811.754635
 70
    64
  0
VERTEX
  5
3DA
  8
TEAM-NET
 10
0.0
 20
-22.99488
 30
830.712308
 70
    64
  0
VERTEX
  5
3DB
  8
TEAM-NET
 10
0.0
 20
-21.730698
 30
850.0
 70
    64
  0
VERTEX
  5
3DC
  8
TEAM-NET
 10
0.0
 20
-317.268188
 30
850.0
 70
    64
  0
VERTEX
  5
3DD
  8
TEAM-NET
 10
-2.517549
 20
-316.004006
 30
830.877317
 70
    64
  0
VERTEX
  5
3DE
  8
TEAM-NET
 10
-4.992022
 20
-312.23309
 30
812.081829
 70
    64
  0
VERTEX
  5
3DF
  8
TEAM-NET
 10
-7.38108
 20
-306.019962
 30
793.935131
 70
    64
  0
VERTEX
  5
3E0
  8
TEAM-NET
 10
-9.643846
 20
-297.47093
 30
776.747719
 70
    64
  0
VERTEX
  5
3E1
  8
TEAM-NET
 10
-11.741603
 20
-286.73227
 30
760.813673
 70
    64
  0
VERTEX
  5
3E2
  8
TEAM-NET
 10
-13.638458
 20
-273.987724
 30
746.40563
 70
    64
  0
VERTEX
  5
3E3
  8
TEAM-NET
 10
-15.301955
 20
-259.455355
 30
733.770116
 70
    64
  0
VERTEX
  5
3E4
  8
TEAM-NET
 10
-16.703631
 20
-243.383815
 30
723.123327
 70
    64
  0
VERTEX
  5
3E5
  8
TEAM-NET
 10
-17.819504
 20
-226.048093
 30
714.647433
 70
    64
  0
VERTEX
  5
3E6
  8
TEAM-NET
 10
-18.630479
 20
-207.744808
 30
708.487459
 70
    64
  0
VERTEX
  5
3E7
  8
TEAM-NET
 10
-19.122683
 20
-188.787134
 30
704.748804
 70
    64
  0
VERTEX
  5
3E8
  8
TEAM-NET
 10
-19.287692
 20
-169.499443
 30
703.495437
 70
    64
  0
VERTEX
  5
3E9
  8
TEAM-NET
 10
-19.122683
 20
-150.211751
 30
704.748804
 70
    64
  0
VERTEX
  5
3EA
  8
TEAM-NET
 10
-18.630479
 20
-131.254077
 30
708.487459
 70
    64
  0
VERTEX
  5
3EB
  8
TEAM-NET
 10
-17.819504
 20
-112.950792
 30
714.647433
 70
    64
  0
VERTEX
  5
3EC
  8
TEAM-NET
 10
-16.703631
 20
-95.61507
 30
723.123327
 70
    64
  0
VERTEX
  5
3ED
  8
TEAM-NET
 10
-15.301955
 20
-79.54353
 30
733.770116
 70
    64
  0
VERTEX
  5
3EE
  8
TEAM-NET
 10
-13.638458
 20
-65.011161
 30
746.40563
 70
    64
  0
VERTEX
  5
3EF
  8
TEAM-NET
 10
-11.741603
 20
-52.266615
 30
760.813673
 70
    64
  0
VERTEX
  5
3F0
  8
TEAM-NET
 10
-9.643846
 20
-41.527956
 30
776.747719
 70
    64
  0
VERTEX
  5
3F1
  8
TEAM-NET
 10
-7.38108
 20
-32.978924
 30
793.935131
 70
    64
  0
VERTEX
  5
3F2
  8
TEAM-NET
 10
-4.992022
 20
-26.765796
 30
812.081829
 70
    64
  0
VERTEX
  5
3F3
  8
TEAM-NET
 10
-2.517549
 20
-22.99488
 30
830.877317
 70
    64
  0
VERTEX
  5
3F4
  8
TEAM-NET
 10
0.0
 20
-21.730698
 30
850.0
 70
    64
  0
VERTEX
  5
3F5
  8
TEAM-NET
 10
0.0
 20
-317.268188
 30
850.0
 70
    64
  0
VERTEX
  5
3F6
  8
TEAM-NET
 10
-4.992022
 20
-316.004006
 30
831.369521
 70
    64
  0
VERTEX
  5
3F7
  8
TEAM-NET
 10
-9.898629
 20
-312.23309
 30
813.057814
 70
    64
  0
VERTEX
  5
3F8
  8
TEAM-NET
 10
-14.635868
 20
-306.019962
 30
795.378198
 70
    64
  0
VERTEX
  5
3F9
  8
TEAM-NET
 10
-19.122683
 20
-297.47093
 30
778.633176
 70
    64
  0
VERTEX
  5
3FA
  8
TEAM-NET
 10
-23.282303
 20
-286.73227
 30
763.109261
 70
    64
  0
VERTEX
  5
3FB
  8
TEAM-NET
 10
-27.043557
 20
-273.987724
 30
749.07207
 70
    64
  0
VERTEX
  5
3FC
  8
TEAM-NET
 10
-30.342088
 20
-259.455355
 30
736.761784
 70
    64
  0
VERTEX
  5
3FD
  8
TEAM-NET
 10
-33.121458
 20
-243.383815
 30
726.389036
 70
    64
  0
VERTEX
  5
3FE
  8
TEAM-NET
 10
-35.33411
 20
-226.048093
 30
718.131305
 70
    64
  0
VERTEX
  5
3FF
  8
TEAM-NET
 10
-36.942186
 20
-207.744808
 30
712.129884
 70
    64
  0
VERTEX
  5
400
  8
TEAM-NET
 10
-37.918171
 20
-188.787134
 30
708.487459
 70
    64
  0
VERTEX
  5
401
  8
TEAM-NET
 10
-38.245365
 20
-169.499443
 30
707.266353
 70
    64
  0
VERTEX
  5
402
  8
TEAM-NET
 10
-37.918171
 20
-150.211751
 30
708.487459
 70
    64
  0
VERTEX
  5
403
  8
TEAM-NET
 10
-36.942186
 20
-131.254077
 30
712.129884
 70
    64
  0
VERTEX
  5
404
  8
TEAM-NET
 10
-35.33411
 20
-112.950792
 30
718.131305
 70
    64
  0
VERTEX
  5
405
  8
TEAM-NET
 10
-33.121458
 20
-95.61507
 30
726.389036
 70
    64
  0
VERTEX
  5
406
  8
TEAM-NET
 10
-30.342088
 20
-79.54353
 30
736.761784
 70
    64
  0
VERTEX
  5
407
  8
TEAM-NET
 10
-27.043557
 20
-65.011161
 30
749.07207
 70
    64
  0
VERTEX
  5
408
  8
TEAM-NET
 10
-23.282303
 20
-52.266615
 30
763.109261
 70
    64
  0
VERTEX
  5
409
  8
TEAM-NET
 10
-19.122683
 20
-41.527956
 30
778.633176
 70
    64
  0
VERTEX
  5
40A
  8
TEAM-NET
 10
-14.635868
 20
-32.978924
 30
795.378198
 70
    64
  0
VERTEX
  5
40B
  8
TEAM-NET
 10
-9.898629
 20
-26.765796
 30
813.057814
 70
    64
  0
VERTEX
  5
40C
  8
TEAM-NET
 10
-4.992022
 20
-22.99488
 30
831.369521
 70
    64
  0
VERTEX
  5
40D
  8
TEAM-NET
 10
0.0
 20
-21.730698
 30
850.0
 70
    64
  0
VERTEX
  5
40E
  8
TEAM-NET
 10
0.0
 20
-317.268188
 30
850.0
 70
    64
  0
VERTEX
  5
40F
  8
TEAM-NET
 10
-7.38108
 20
-316.004006
 30
832.180496
 70
    64
  0
VERTEX
  5
410
  8
TEAM-NET
 10
-14.635868
 20
-312.23309
 30
814.66589
 70
    64
  0
VERTEX
  5
411
  8
TEAM-NET
 10
-21.640232
 20
-306.019962
 30
797.755859
 70
    64
  0
VERTEX
  5
412
  8
TEAM-NET
 10
-28.274325
 20
-297.47093
 30
781.73974
 70
    64
  0
VERTEX
  5
413
  8
TEAM-NET
 10
-34.424637
 20
-286.73227
 30
766.891574
 70
    64
  0
VERTEX
  5
414
  8
TEAM-NET
 10
-39.985934
 20
-273.987724
 30
753.465415
 70
    64
  0
VERTEX
  5
415
  8
TEAM-NET
 10
-44.863061
 20
-259.455355
 30
741.69099
 70
    64
  0
VERTEX
  5
416
  8
TEAM-NET
 10
-48.972568
 20
-243.383815
 30
731.769762
 70
    64
  0
VERTEX
  5
417
  8
TEAM-NET
 10
-52.244141
 20
-226.048093
 30
723.871487
 70
    64
  0
VERTEX
  5
418
  8
TEAM-NET
 10
-54.621802
 20
-207.744808
 30
718.131305
 70
    64
  0
VERTEX
  5
419
  8
TEAM-NET
 10
-56.064869
 20
-188.787134
 30
714.647433
 70
    64
  0
VERTEX
  5
41A
  8
TEAM-NET
 10
-56.548651
 20
-169.499443
 30
713.479481
 70
    64
  0
VERTEX
  5
41B
  8
TEAM-NET
 10
-56.064869
 20
-150.211751
 30
714.647433
 70
    64
  0
VERTEX
  5
41C
  8
TEAM-NET
 10
-54.621802
 20
-131.254077
 30
718.131305
 70
    64
  0
VERTEX
  5
41D
  8
TEAM-NET
 10
-52.244141
 20
-112.950792
 30
723.871487
 70
    64
  0
VERTEX
  5
41E
  8
TEAM-NET
 10
-48.972568
 20
-95.61507
 30
731.769762
 70
    64
  0
VERTEX
  5
41F
  8
TEAM-NET
 10
-44.863061
 20
-79.54353
 30
741.69099
 70
    64
  0
VERTEX
  5
420
  8
TEAM-NET
 10
-39.985934
 20
-65.011161
 30
753.465415
 70
    64
  0
VERTEX
  5
421
  8
TEAM-NET
 10
-34.424637
 20
-52.266615
 30
766.891574
 70
    64
  0
VERTEX
  5
422
  8
TEAM-NET
 10
-28.274325
 20
-41.527956
 30
781.73974
 70
    64
  0
VERTEX
  5
423
  8
TEAM-NET
 10
-21.640232
 20
-32.978924
 30
797.755859
 70
    64
  0
VERTEX
  5
424
  8
TEAM-NET
 10
-14.635868
 20
-26.765796
 30
814.66589
 70
    64
  0
VERTEX
  5
425
  8
TEAM-NET
 10
-7.38108
 20
-22.99488
 30
832.180496
 70
    64
  0
VERTEX
  5
426
  8
TEAM-NET
 10
0.0
 20
-21.730698
 30
850.0
 70
    64
  0
VERTEX
  5
427
  8
TEAM-NET
 10
0.0
 20
-317.268188
 30
850.0
 70
    64
  0
VERTEX
  5
428
  8
TEAM-NET
 10
-9.643846
 20
-316.004006
 30
833.296369
 70
    64
  0
VERTEX
  5
429
  8
TEAM-NET
 10
-19.122683
 20
-312.23309
 30
816.878542
 70
    64
  0
VERTEX
  5
42A
  8
TEAM-NET
 10
-28.274325
 20
-306.019962
 30
801.027432
 70
    64
  0
VERTEX
  5
42B
  8
TEAM-NET
 10
-36.942186
 20
-297.47093
 30
786.014256
 70
    64
  0
VERTEX
  5
42C
  8
TEAM-NET
 10
-44.977956
 20
-286.73227
 30
772.095895
 70
    64
  0
VERTEX
  5
42D
  8
TEAM-NET
 10
-52.244141
 20
-273.987724
 30
759.510494
 70
    64
  0
VERTEX
  5
42E
  8
TEAM-NET
 10
-58.616414
 20
-259.455355
 30
748.473393
 70
    64
  0
VERTEX
  5
42F
  8
TEAM-NET
 10
-63.985744
 20
-243.383815
 30
739.173441
 70
    64
  0
VERTEX
  5
430
  8
TEAM-NET
 10
-68.26026
 20
-226.048093
 30
731.769762
 70
    64
  0
VERTEX
  5
431
  8
TEAM-NET
 10
-71.366824
 20
-207.744808
 30
726.389036
 70
    64
  0
VERTEX
  5
432
  8
TEAM-NET
 10
-73.252281
 20
-188.787134
 30
723.123327
 70
    64
  0
VERTEX
  5
433
  8
TEAM-NET
 10
-73.884373
 20
-169.499443
 30
722.028513
 70
    64
  0
VERTEX
  5
434
  8
TEAM-NET
 10
-73.252281
 20
-150.211751
 30
723.123327
 70
    64
  0
VERTEX
  5
435
  8
TEAM-NET
 10
-71.366824
 20
-131.254077
 30
726.389036
 70
    64
  0
VERTEX
  5
436
  8
TEAM-NET
 10
-68.26026
 20
-112.950792
 30
731.769762
 70
    64
  0
VERTEX
  5
437
  8
TEAM-NET
 10
-63.985744
 20
-95.61507
 30
739.173441
 70
    64
  0
VERTEX
  5
438
  8
TEAM-NET
 10
-58.616414
 20
-79.54353
 30
748.473393
 70
    64
  0
VERTEX
  5
439
  8
TEAM-NET
 10
-52.244141
 20
-65.011161
 30
759.510494
 70
    64
  0
VERTEX
  5
43A
  8
TEAM-NET
 10
-44.977956
 20
-52.266615
 30
772.095895
 70
    64
  0
VERTEX
  5
43B
  8
TEAM-NET
 10
-36.942186
 20
-41.527956
 30
786.014256
 70
    64
  0
VERTEX
  5
43C
  8
TEAM-NET
 10
-28.274325
 20
-32.978924
 30
801.027432
 70
    64
  0
VERTEX
  5
43D
  8
TEAM-NET
 10
-19.122683
 20
-26.765796
 30
816.878542
 70
    64
  0
VERTEX
  5
43E
  8
TEAM-NET
 10
-9.643846
 20
-22.99488
 30
833.296369
 70
    64
  0
VERTEX
  5
43F
  8
TEAM-NET
 10
0.0
 20
-21.730698
 30
850.0
 70
    64
  0
VERTEX
  5
440
  8
TEAM-NET
 10
0.0
 20
-317.268188
 30
850.0
 70
    64
  0
VERTEX
  5
441
  8
TEAM-NET
 10
-11.741603
 20
-316.004006
 30
834.698045
 70
    64
  0
VERTEX
  5
442
  8
TEAM-NET
 10
-23.282303
 20
-312.23309
 30
819.657912
 70
    64
  0
VERTEX
  5
443
  8
TEAM-NET
 10
-34.424637
 20
-306.019962
 30
805.136939
 70
    64
  0
VERTEX
  5
444
  8
TEAM-NET
 10
-44.977956
 20
-297.47093
 30
791.383586
 70
    64
  0
VERTEX
  5
445
  8
TEAM-NET
 10
-54.76169
 20
-286.73227
 30
778.633176
 70
    64
  0
VERTEX
  5
446
  8
TEAM-NET
 10
-63.608436
 20
-273.987724
 30
767.103873
 70
    64
  0
VERTEX
  5
447
  8
TEAM-NET
 10
-71.366824
 20
-259.455355
 30
756.992945
 70
    64
  0
VERTEX
  5
448
  8
TEAM-NET
 10
-77.904105
 20
-243.383815
 30
748.473393
 70
    64
  0
VERTEX
  5
449
  8
TEAM-NET
 10
-83.108426
 20
-226.048093
 30
741.69099
 70
    64
  0
VERTEX
  5
44A
  8
TEAM-NET
 10
-86.890739
 20
-207.744808
 30
736.761784
 70
    64
  0
VERTEX
  5
44B
  8
TEAM-NET
 10
-89.186327
 20
-188.787134
 30
733.770116
 70
    64
  0
VERTEX
  5
44C
  8
TEAM-NET
 10
-89.955912
 20
-169.499443
 30
732.767173
 70
    64
  0
VERTEX
  5
44D
  8
TEAM-NET
 10
-89.186327
 20
-150.211751
 30
733.770116
 70
    64
  0
VERTEX
  5
44E
  8
TEAM-NET
 10
-86.890739
 20
-131.254077
 30
736.761784
 70
    64
  0
VERTEX
  5
44F
  8
TEAM-NET
 10
-83.108426
 20
-112.950792
 30
741.69099
 70
    64
  0
VERTEX
  5
450
  8
TEAM-NET
 10
-77.904105
 20
-95.61507
 30
748.473393
 70
    64
  0
VERTEX
  5
451
  8
TEAM-NET
 10
-71.366824
 20
-79.54353
 30
756.992945
 70
    64
  0
VERTEX
  5
452
  8
TEAM-NET
 10
-63.608436
 20
-65.011161
 30
767.103873
 70
    64
  0
VERTEX
  5
453
  8
TEAM-NET
 10
-54.76169
 20
-52.266615
 30
778.633176
 70
    64
  0
VERTEX
  5
454
  8
TEAM-NET
 10
-44.977956
 20
-41.527956
 30
791.383586
 70
    64
  0
VERTEX
  5
455
  8
TEAM-NET
 10
-34.424637
 20
-32.978924
 30
805.136939
 70
    64
  0
VERTEX
  5
456
  8
TEAM-NET
 10
-23.282303
 20
-26.765796
 30
819.657912
 70
    64
  0
VERTEX
  5
457
  8
TEAM-NET
 10
-11.741603
 20
-22.99488
 30
834.698045
 70
    64
  0
VERTEX
  5
458
  8
TEAM-NET
 10
0.0
 20
-21.730698
 30
850.0
 70
    64
  0
VERTEX
  5
459
  8
TEAM-NET
 10
0.0
 20
-317.268188
 30
850.0
 70
    64
  0
VERTEX
  5
45A
  8
TEAM-NET
 10
-13.638458
 20
-316.004006
 30
836.361542
 70
    64
  0
VERTEX
  5
45B
  8
TEAM-NET
 10
-27.043557
 20
-312.23309
 30
822.956443
 70
    64
  0
VERTEX
  5
45C
  8
TEAM-NET
 10
-39.985934
 20
-306.019962
 30
810.014066
 70
    64
  0
VERTEX
  5
45D
  8
TEAM-NET
 10
-52.244141
 20
-297.47093
 30
797.755859
 70
    64
  0
VERTEX
  5
45E
  8
TEAM-NET
 10
-63.608436
 20
-286.73227
 30
786.391564
 70
    64
  0
VERTEX
  5
45F
  8
TEAM-NET
 10
-73.884373
 20
-273.987724
 30
776.115627
 70
    64
  0
VERTEX
  5
460
  8
TEAM-NET
 10
-82.896127
 20
-259.455355
 30
767.103873
 70
    64
  0
VERTEX
  5
461
  8
TEAM-NET
 10
-90.489506
 20
-243.383815
 30
759.510494
 70
    64
  0
VERTEX
  5
462
  8
TEAM-NET
 10
-96.534585
 20
-226.048093
 30
753.465415
 70
    64
  0
VERTEX
  5
463
  8
TEAM-NET
 10
-100.92793
 20
-207.744808
 30
749.07207
 70
    64
  0
VERTEX
  5
464
  8
TEAM-NET
 10
-103.59437
 20
-188.787134
 30
746.40563
 70
    64
  0
VERTEX
  5
465
  8
TEAM-NET
 10
-104.488282
 20
-169.499443
 30
745.511718
 70
    64
  0
VERTEX
  5
466
  8
TEAM-NET
 10
-103.59437
 20
-150.211751
 30
746.40563
 70
    64
  0
VERTEX
  5
467
  8
TEAM-NET
 10
-100.92793
 20
-131.254077
 30
749.07207
 70
    64
  0
VERTEX
  5
468
  8
TEAM-NET
 10
-96.534585
 20
-112.950792
 30
753.465415
 70
    64
  0
VERTEX
  5
469
  8
TEAM-NET
 10
-90.489506
 20
-95.61507
 30
759.510494
 70
    64
  0
VERTEX
  5
46A
  8
TEAM-NET
 10
-82.896127
 20
-79.54353
 30
767.103873
 70
    64
  0
VERTEX
  5
46B
  8
TEAM-NET
 10
-73.884373
 20
-65.011161
 30
776.115627
 70
    64
  0
VERTEX
  5
46C
  8
TEAM-NET
 10
-63.608436
 20
-52.266615
 30
786.391564
 70
    64
  0
VERTEX
  5
46D
  8
TEAM-NET
 10
-52.244141
 20
-41.527956
 30
797.755859
 70
    64
  0
VERTEX
  5
46E
  8
TEAM-NET
 10
-39.985934
 20
-32.978924
 30
810.014066
 70
    64
  0
VERTEX
  5
46F
  8
TEAM-NET
 10
-27.043557
 20
-26.765796
 30
822.956443
 70
    64
  0
VERTEX
  5
470
  8
TEAM-NET
 10
-13.638458
 20
-22.99488
 30
836.361542
 70
    64
  0
VERTEX
  5
471
  8
TEAM-NET
 10
0.0
 20
-21.730698
 30
850.0
 70
    64
  0
VERTEX
  5
472
  8
TEAM-NET
 10
0.0
 20
-317.268188
 30
850.0
 70
    64
  0
VERTEX
  5
473
  8
TEAM-NET
 10
-15.301955
 20
-316.004006
 30
838.258397
 70
    64
  0
VERTEX
  5
474
  8
TEAM-NET
 10
-30.342088
 20
-312.23309
 30
826.717697
 70
    64
  0
VERTEX
  5
475
  8
TEAM-NET
 10
-44.863061
 20
-306.019962
 30
815.575363
 70
    64
  0
VERTEX
  5
476
  8
TEAM-NET
 10
-58.616414
 20
-297.47093
 30
805.022044
 70
    64
  0
VERTEX
  5
477
  8
TEAM-NET
 10
-71.366824
 20
-286.73227
 30
795.23831
 70
    64
  0
VERTEX
  5
478
  8
TEAM-NET
 10
-82.896127
 20
-273.987724
 30
786.391564
 70
    64
  0
VERTEX
  5
479
  8
TEAM-NET
 10
-93.007055
 20
-259.455355
 30
778.633176
 70
    64
  0
VERTEX
  5
47A
  8
TEAM-NET
 10
-101.526607
 20
-243.383815
 30
772.095895
 70
    64
  0
VERTEX
  5
47B
  8
TEAM-NET
 10
-108.30901
 20
-226.048093
 30
766.891574
 70
    64
  0
VERTEX
  5
47C
  8
TEAM-NET
 10
-113.238216
 20
-207.744808
 30
763.109261
 70
    64
  0
VERTEX
  5
47D
  8
TEAM-NET
 10
-116.229884
 20
-188.787134
 30
760.813673
 70
    64
  0
VERTEX
  5
47E
  8
TEAM-NET
 10
-117.232827
 20
-169.499443
 30
760.044088
 70
    64
  0
VERTEX
  5
47F
  8
TEAM-NET
 10
-116.229884
 20
-150.211751
 30
760.813673
 70
    64
  0
VERTEX
  5
480
  8
TEAM-NET
 10
-113.238216
 20
-131.254077
 30
763.109261
 70
    64
  0
VERTEX
  5
481
  8
TEAM-NET
 10
-108.30901
 20
-112.950792
 30
766.891574
 70
    64
  0
VERTEX
  5
482
  8
TEAM-NET
 10
-101.526607
 20
-95.61507
 30
772.095895
 70
    64
  0
VERTEX
  5
483
  8
TEAM-NET
 10
-93.007055
 20
-79.54353
 30
778.633176
 70
    64
  0
VERTEX
  5
484
  8
TEAM-NET
 10
-82.896127
 20
-65.011161
 30
786.391564
 70
    64
  0
VERTEX
  5
485
  8
TEAM-NET
 10
-71.366824
 20
-52.266615
 30
795.23831
 70
    64
  0
VERTEX
  5
486
  8
TEAM-NET
 10
-58.616414
 20
-41.527956
 30
805.022044
 70
    64
  0
VERTEX
  5
487
  8
TEAM-NET
 10
-44.863061
 20
-32.978924
 30
815.575363
 70
    64
  0
VERTEX
  5
488
  8
TEAM-NET
 10
-30.342088
 20
-26.765796
 30
826.717697
 70
    64
  0
VERTEX
  5
489
  8
TEAM-NET
 10
-15.301955
 20
-22.99488
 30
838.258397
 70
    64
  0
VERTEX
  5
48A
  8
TEAM-NET
 10
0.0
 20
-21.730698
 30
850.0
 70
    64
  0
VERTEX
  5
48B
  8
TEAM-NET
 10
0.0
 20
-317.268188
 30
850.0
 70
    64
  0
VERTEX
  5
48C
  8
TEAM-NET
 10
-16.703631
 20
-316.004006
 30
840.356154
 70
    64
  0
VERTEX
  5
48D
  8
TEAM-NET
 10
-33.121458
 20
-312.23309
 30
830.877317
 70
    64
  0
VERTEX
  5
48E
  8
TEAM-NET
 10
-48.972568
 20
-306.019962
 30
821.725675
 70
    64
  0
VERTEX
  5
48F
  8
TEAM-NET
 10
-63.985744
 20
-297.47093
 30
813.057814
 70
    64
  0
VERTEX
  5
490
  8
TEAM-NET
 10
-77.904105
 20
-286.73227
 30
805.022044
 70
    64
  0
VERTEX
  5
491
  8
TEAM-NET
 10
-90.489506
 20
-273.987724
 30
797.755859
 70
    64
  0
VERTEX
  5
492
  8
TEAM-NET
 10
-101.526607
 20
-259.455355
 30
791.383586
 70
    64
  0
VERTEX
  5
493
  8
TEAM-NET
 10
-110.826559
 20
-243.383815
 30
786.014256
 70
    64
  0
VERTEX
  5
494
  8
TEAM-NET
 10
-118.230238
 20
-226.048093
 30
781.73974
 70
    64
  0
VERTEX
  5
495
  8
TEAM-NET
 10
-123.610964
 20
-207.744808
 30
778.633176
 70
    64
  0
VERTEX
  5
496
  8
TEAM-NET
 10
-126.876673
 20
-188.787134
 30
776.747719
 70
    64
  0
VERTEX
  5
497
  8
TEAM-NET
 10
-127.971487
 20
-169.499443
 30
776.115627
 70
    64
  0
VERTEX
  5
498
  8
TEAM-NET
 10
-126.876673
 20
-150.211751
 30
776.747719
 70
    64
  0
VERTEX
  5
499
  8
TEAM-NET
 10
-123.610964
 20
-131.254077
 30
778.633176
 70
    64
  0
VERTEX
  5
49A
  8
TEAM-NET
 10
-118.230238
 20
-112.950792
 30
781.73974
 70
    64
  0
VERTEX
  5
49B
  8
TEAM-NET
 10
-110.826559
 20
-95.61507
 30
786.014256
 70
    64
  0
VERTEX
  5
49C
  8
TEAM-NET
 10
-101.526607
 20
-79.54353
 30
791.383586
 70
    64
  0
VERTEX
  5
49D
  8
TEAM-NET
 10
-90.489506
 20
-65.011161
 30
797.755859
 70
    64
  0
VERTEX
  5
49E
  8
TEAM-NET
 10
-77.904105
 20
-52.266615
 30
805.022044
 70
    64
  0
VERTEX
  5
49F
  8
TEAM-NET
 10
-63.985744
 20
-41.527956
 30
813.057814
 70
    64
  0
VERTEX
  5
4A0
  8
TEAM-NET
 10
-48.972568
 20
-32.978924
 30
821.725675
 70
    64
  0
VERTEX
  5
4A1
  8
TEAM-NET
 10
-33.121458
 20
-26.765796
 30
830.877317
 70
    64
  0
VERTEX
  5
4A2
  8
TEAM-NET
 10
-16.703631
 20
-22.99488
 30
840.356154
 70
    64
  0
VERTEX
  5
4A3
  8
TEAM-NET
 10
0.0
 20
-21.730698
 30
850.0
 70
    64
  0
VERTEX
  5
4A4
  8
TEAM-NET
 10
0.0
 20
-317.268188
 30
850.0
 70
    64
  0
VERTEX
  5
4A5
  8
TEAM-NET
 10
-17.819504
 20
-316.004006
 30
842.61892
 70
    64
  0
VERTEX
  5
4A6
  8
TEAM-NET
 10
-35.33411
 20
-312.23309
 30
835.364132
 70
    64
  0
VERTEX
  5
4A7
  8
TEAM-NET
 10
-52.244141
 20
-306.019962
 30
828.359768
 70
    64
  0
VERTEX
  5
4A8
  8
TEAM-NET
 10
-68.26026
 20
-297.47093
 30
821.725675
 70
    64
  0
VERTEX
  5
4A9
  8
TEAM-NET
 10
-83.108426
 20
-286.73227
 30
815.575363
 70
    64
  0
VERTEX
  5
4AA
  8
TEAM-NET
 10
-96.534585
 20
-273.987724
 30
810.014066
 70
    64
  0
VERTEX
  5
4AB
  8
TEAM-NET
 10
-108.30901
 20
-259.455355
 30
805.136939
 70
    64
  0
VERTEX
  5
4AC
  8
TEAM-NET
 10
-118.230238
 20
-243.383815
 30
801.027432
 70
    64
  0
VERTEX
  5
4AD
  8
TEAM-NET
 10
-126.128513
 20
-226.048093
 30
797.755859
 70
    64
  0
VERTEX
  5
4AE
  8
TEAM-NET
 10
-131.868695
 20
-207.744808
 30
795.378198
 70
    64
  0
VERTEX
  5
4AF
  8
TEAM-NET
 10
-135.352567
 20
-188.787134
 30
793.935131
 70
    64
  0
VERTEX
  5
4B0
  8
TEAM-NET
 10
-136.520519
 20
-169.499443
 30
793.451349
 70
    64
  0
VERTEX
  5
4B1
  8
TEAM-NET
 10
-135.352567
 20
-150.211751
 30
793.935131
 70
    64
  0
VERTEX
  5
4B2
  8
TEAM-NET
 10
-131.868695
 20
-131.254077
 30
795.378198
 70
    64
  0
VERTEX
  5
4B3
  8
TEAM-NET
 10
-126.128513
 20
-112.950792
 30
797.755859
 70
    64
  0
VERTEX
  5
4B4
  8
TEAM-NET
 10
-118.230238
 20
-95.61507
 30
801.027432
 70
    64
  0
VERTEX
  5
4B5
  8
TEAM-NET
 10
-108.30901
 20
-79.54353
 30
805.136939
 70
    64
  0
VERTEX
  5
4B6
  8
TEAM-NET
 10
-96.534585
 20
-65.011161
 30
810.014066
 70
    64
  0
VERTEX
  5
4B7
  8
TEAM-NET
 10
-83.108426
 20
-52.266615
 30
815.575363
 70
    64
  0
VERTEX
  5
4B8
  8
TEAM-NET
 10
-68.26026
 20
-41.527956
 30
821.725675
 70
    64
  0
VERTEX
  5
4B9
  8
TEAM-NET
 10
-52.244141
 20
-32.978924
 30
828.359768
 70
    64
  0
VERTEX
  5
4BA
  8
TEAM-NET
 10
-35.33411
 20
-26.765796
 30
835.364132
 70
    64
  0
VERTEX
  5
4BB
  8
TEAM-NET
 10
-17.819504
 20
-22.99488
 30
842.61892
 70
    64
  0
VERTEX
  5
4BC
  8
TEAM-NET
 10
0.0
 20
-21.730698
 30
850.0
 70
    64
  0
VERTEX
  5
4BD
  8
TEAM-NET
 10
0.0
 20
-317.268188
 30
850.0
 70
    64
  0
VERTEX
  5
4BE
  8
TEAM-NET
 10
-18.630479
 20
-316.004006
 30
845.007978
 70
    64
  0
VERTEX
  5
4BF
  8
TEAM-NET
 10
-36.942186
 20
-312.23309
 30
840.101371
 70
    64
  0
VERTEX
  5
4C0
  8
TEAM-NET
 10
-54.621802
 20
-306.019962
 30
835.364132
 70
    64
  0
VERTEX
  5
4C1
  8
TEAM-NET
 10
-71.366824
 20
-297.47093
 30
830.877317
 70
    64
  0
VERTEX
  5
4C2
  8
TEAM-NET
 10
-86.890739
 20
-286.73227
 30
826.717697
 70
    64
  0
VERTEX
  5
4C3
  8
TEAM-NET
 10
-100.92793
 20
-273.987724
 30
822.956443
 70
    64
  0
VERTEX
  5
4C4
  8
TEAM-NET
 10
-113.238216
 20
-259.455355
 30
819.657912
 70
    64
  0
VERTEX
  5
4C5
  8
TEAM-NET
 10
-123.610964
 20
-243.383815
 30
816.878542
 70
    64
  0
VERTEX
  5
4C6
  8
TEAM-NET
 10
-131.868695
 20
-226.048093
 30
814.66589
 70
    64
  0
VERTEX
  5
4C7
  8
TEAM-NET
 10
-137.870116
 20
-207.744808
 30
813.057814
 70
    64
  0
VERTEX
  5
4C8
  8
TEAM-NET
 10
-141.512541
 20
-188.787134
 30
812.081829
 70
    64
  0
VERTEX
  5
4C9
  8
TEAM-NET
 10
-142.733647
 20
-169.499443
 30
811.754635
 70
    64
  0
VERTEX
  5
4CA
  8
TEAM-NET
 10
-141.512541
 20
-150.211751
 30
812.081829
 70
    64
  0
VERTEX
  5
4CB
  8
TEAM-NET
 10
-137.870116
 20
-131.254077
 30
813.057814
 70
    64
  0
VERTEX
  5
4CC
  8
TEAM-NET
 10
-131.868695
 20
-112.950792
 30
814.66589
 70
    64
  0
VERTEX
  5
4CD
  8
TEAM-NET
 10
-123.610964
 20
-95.61507
 30
816.878542
 70
    64
  0
VERTEX
  5
4CE
  8
TEAM-NET
 10
-113.238216
 20
-79.54353
 30
819.657912
 70
    64
  0
VERTEX
  5
4CF
  8
TEAM-NET
 10
-100.92793
 20
-65.011161
 30
822.956443
 70
    64
  0
VERTEX
  5
4D0
  8
TEAM-NET
 10
-86.890739
 20
-52.266615
 30
826.717697
 70
    64
  0
VERTEX
  5
4D1
  8
TEAM-NET
 10
-71.366824
 20
-41.527956
 30
830.877317
 70
    64
  0
VERTEX
  5
4D2
  8
TEAM-NET
 10
-54.621802
 20
-32.978924
 30
835.364132
 70
    64
  0
VERTEX
  5
4D3
  8
TEAM-NET
 10
-36.942186
 20
-26.765796
 30
840.101371
 70
    64
  0
VERTEX
  5
4D4
  8
TEAM-NET
 10
-18.630479
 20
-22.99488
 30
845.007978
 70
    64
  0
VERTEX
  5
4D5
  8
TEAM-NET
 10
0.0
 20
-21.730698
 30
850.0
 70
    64
  0
VERTEX
  5
4D6
  8
TEAM-NET
 10
0.0
 20
-317.268188
 30
850.0
 70
    64
  0
VERTEX
  5
4D7
  8
TEAM-NET
 10
-19.122683
 20
-316.004006
 30
847.482451
 70
    64
  0
VERTEX
  5
4D8
  8
TEAM-NET
 10
-37.918171
 20
-312.23309
 30
845.007978
 70
    64
  0
VERTEX
  5
4D9
  8
TEAM-NET
 10
-56.064869
 20
-306.019962
 30
842.61892
 70
    64
  0
VERTEX
  5
4DA
  8
TEAM-NET
 10
-73.252281
 20
-297.47093
 30
840.356154
 70
    64
  0
VERTEX
  5
4DB
  8
TEAM-NET
 10
-89.186327
 20
-286.73227
 30
838.258397
 70
    64
  0
VERTEX
  5
4DC
  8
TEAM-NET
 10
-103.59437
 20
-273.987724
 30
836.361542
 70
    64
  0
VERTEX
  5
4DD
  8
TEAM-NET
 10
-116.229884
 20
-259.455355
 30
834.698045
 70
    64
  0
VERTEX
  5
4DE
  8
TEAM-NET
 10
-126.876673
 20
-243.383815
 30
833.296369
 70
    64
  0
VERTEX
  5
4DF
  8
TEAM-NET
 10
-135.352567
 20
-226.048093
 30
832.180496
 70
    64
  0
VERTEX
  5
4E0
  8
TEAM-NET
 10
-141.512541
 20
-207.744808
 30
831.369521
 70
    64
  0
VERTEX
  5
4E1
  8
TEAM-NET
 10
-145.251196
 20
-188.787134
 30
830.877317
 70
    64
  0
VERTEX
  5
4E2
  8
TEAM-NET
 10
-146.504563
 20
-169.499443
 30
830.712308
 70
    64
  0
VERTEX
  5
4E3
  8
TEAM-NET
 10
-145.251196
 20
-150.211751
 30
830.877317
 70
    64
  0
VERTEX
  5
4E4
  8
TEAM-NET
 10
-141.512541
 20
-131.254077
 30
831.369521
 70
    64
  0
VERTEX
  5
4E5
  8
TEAM-NET
 10
-135.352567
 20
-112.950792
 30
832.180496
 70
    64
  0
VERTEX
  5
4E6
  8
TEAM-NET
 10
-126.876673
 20
-95.61507
 30
833.296369
 70
    64
  0
VERTEX
  5
4E7
  8
TEAM-NET
 10
-116.229884
 20
-79.54353
 30
834.698045
 70
    64
  0
VERTEX
  5
4E8
  8
TEAM-NET
 10
-103.59437
 20
-65.011161
 30
836.361542
 70
    64
  0
VERTEX
  5
4E9
  8
TEAM-NET
 10
-89.186327
 20
-52.266615
 30
838.258397
 70
    64
  0
VERTEX
  5
4EA
  8
TEAM-NET
 10
-73.252281
 20
-41.527956
 30
840.356154
 70
    64
  0
VERTEX
  5
4EB
  8
TEAM-NET
 10
-56.064869
 20
-32.978924
 30
842.61892
 70
    64
  0
VERTEX
  5
4EC
  8
TEAM-NET
 10
-37.918171
 20
-26.765796
 30
845.007978
 70
    64
  0
VERTEX
  5
4ED
  8
TEAM-NET
 10
-19.122683
 20
-22.99488
 30
847.482451
 70
    64
  0
VERTEX
  5
4EE
  8
TEAM-NET
 10
0.0
 20
-21.730698
 30
850.0
 70
    64
  0
VERTEX
  5
4EF
  8
TEAM-NET
 10
0.0
 20
-317.268188
 30
850.0
 70
    64
  0
VERTEX
  5
4F0
  8
TEAM-NET
 10
-19.287692
 20
-316.004006
 30
850.0
 70
    64
  0
VERTEX
  5
4F1
  8
TEAM-NET
 10
-38.245365
 20
-312.23309
 30
850.0
 70
    64
  0
VERTEX
  5
4F2
  8
TEAM-NET
 10
-56.548651
 20
-306.019962
 30
850.0
 70
    64
  0
VERTEX
  5
4F3
  8
TEAM-NET
 10
-73.884373
 20
-297.47093
 30
850.0
 70
    64
  0
VERTEX
  5
4F4
  8
TEAM-NET
 10
-89.955912
 20
-286.73227
 30
850.0
 70
    64
  0
VERTEX
  5
4F5
  8
TEAM-NET
 10
-104.488282
 20
-273.987724
 30
850.0
 70
    64
  0
VERTEX
  5
4F6
  8
TEAM-NET
 10
-117.232827
 20
-259.455355
 30
850.0
 70
    64
  0
VERTEX
  5
4F7
  8
TEAM-NET
 10
-127.971487
 20
-243.383815
 30
850.0
 70
    64
  0
VERTEX
  5
4F8
  8
TEAM-NET
 10
-136.520519
 20
-226.048093
 30
850.0
 70
    64
  0
VERTEX
  5
4F9
  8
TEAM-NET
 10
-142.733647
 20
-207.744808
 30
850.0
 70
    64
  0
VERTEX
  5
4FA
  8
TEAM-NET
 10
-146.504563
 20
-188.787134
 30
850.0
 70
    64
  0
VERTEX
  5
4FB
  8
TEAM-NET
 10
-147.768745
 20
-169.499443
 30
850.0
 70
    64
  0
VERTEX
  5
4FC
  8
TEAM-NET
 10
-146.504563
 20
-150.211751
 30
850.0
 70
    64
  0
VERTEX
  5
4FD
  8
TEAM-NET
 10
-142.733647
 20
-131.254077
 30
850.0
 70
    64
  0
VERTEX
  5
4FE
  8
TEAM-NET
 10
-136.520519
 20
-112.950792
 30
850.0
 70
    64
  0
VERTEX
  5
4FF
  8
TEAM-NET
 10
-127.971487
 20
-95.61507
 30
850.0
 70
    64
  0
VERTEX
  5
500
  8
TEAM-NET
 10
-117.232827
 20
-79.54353
 30
850.0
 70
    64
  0
VERTEX
  5
501
  8
TEAM-NET
 10
-104.488282
 20
-65.011161
 30
850.0
 70
    64
  0
VERTEX
  5
502
  8
TEAM-NET
 10
-89.955912
 20
-52.266615
 30
850.0
 70
    64
  0
VERTEX
  5
503
  8
TEAM-NET
 10
-73.884373
 20
-41.527956
 30
850.0
 70
    64
  0
VERTEX
  5
504
  8
TEAM-NET
 10
-56.548651
 20
-32.978924
 30
850.0
 70
    64
  0
VERTEX
  5
505
  8
TEAM-NET
 10
-38.245365
 20
-26.765796
 30
850.0
 70
    64
  0
VERTEX
  5
506
  8
TEAM-NET
 10
-19.287692
 20
-22.99488
 30
850.0
 70
    64
  0
VERTEX
  5
507
  8
TEAM-NET
 10
0.0
 20
-21.730698
 30
850.0
 70
    64
  0
SEQEND
  5
508
  8
TEAM-NET
  0
LINE
  5
509
  8
TEAM-AXE
 10
0.0
 20
-204.268559
 30
719.615813
 11
0.0
 21
-134.730326
 31
719.615813
  0
LINE
  5
50C
  8
TEAM-AXE
 10
-34.769116
 20
-169.499443
 30
719.615813
 11
34.769116
 21
-169.499443
 31
719.615813
  0
CIRCLE
  5
50D
  8
TEAM-DET1
 10
0.0
 20
-169.499443
 30
719.615813
 40
26.076837
  0
CIRCLE
  5
50F
  8
TEAM-BODY
 10
0.0
 20
-169.499443
 30
719.615813
 40
17.384558
  0
TEXT
  5
511
  8
TEAM-TXT
 10
-121.397346
 20
-242.76449
 30
850.0
 40
30.0
  1
team 233008
 41
0.8
 51
15.0
  7
TEAM
  0
POLYLINE
  5
514
  8
TEAM-NET
 66
     1
 10
0.0
 20
0.0
 30
0.0
 70
    16
 71
     2
 72
    25
  0
VERTEX
  5
515
  8
TEAM-NET
 10
0.0
 20
-338.998886
 30
850.0
 70
    64
  0
VERTEX
  5
516
  8
TEAM-NET
 10
-22.124117
 20
-337.548794
 30
850.0
 70
    64
  0
VERTEX
  5
517
  8
TEAM-NET
 10
-43.869684
 20
-333.223332
 30
850.0
 70
    64
  0
VERTEX
  5
518
  8
TEAM-NET
 10
-64.864629
 20
-326.096509
 30
850.0
 70
    64
  0
VERTEX
  5
519
  8
TEAM-NET
 10
-84.749721
 20
-316.290266
 30
850.0
 70
    64
  0
VERTEX
  5
51A
  8
TEAM-NET
 10
-103.184723
 20
-303.972392
 30
850.0
 70
    64
  0
VERTEX
  5
51B
  8
TEAM-NET
 10
-119.854205
 20
-289.353648
 30
850.0
 70
    64
  0
VERTEX
  5
51C
  8
TEAM-NET
 10
-134.472949
 20
-272.684166
 30
850.0
 70
    64
  0
VERTEX
  5
51D
  8
TEAM-NET
 10
-146.790823
 20
-254.249164
 30
850.0
 70
    64
  0
VERTEX
  5
51E
  8
TEAM-NET
 10
-156.597066
 20
-234.364071
 30
850.0
 70
    64
  0
VERTEX
  5
51F
  8
TEAM-NET
 10
-163.723889
 20
-213.369127
 30
850.0
 70
    64
  0
VERTEX
  5
520
  8
TEAM-NET
 10
-168.049352
 20
-191.62356
 30
850.0
 70
    64
  0
VERTEX
  5
521
  8
TEAM-NET
 10
-169.499443
 20
-169.499443
 30
850.0
 70
    64
  0
VERTEX
  5
522
  8
TEAM-NET
 10
-168.049352
 20
-147.375326
 30
850.0
 70
    64
  0
VERTEX
  5
523
  8
TEAM-NET
 10
-163.723889
 20
-125.629759
 30
850.0
 70
    64
  0
VERTEX
  5
524
  8
TEAM-NET
 10
-156.597066
 20
-104.634814
 30
850.0
 70
    64
  0
VERTEX
  5
525
  8
TEAM-NET
 10
-146.790823
 20
-84.749721
 30
850.0
 70
    64
  0
VERTEX
  5
526
  8
TEAM-NET
 10
-134.472949
 20
-66.31472
 30
850.0
 70
    64
  0
VERTEX
  5
527
  8
TEAM-NET
 10
-119.854205
 20
-49.645237
 30
850.0
 70
    64
  0
VERTEX
  5
528
  8
TEAM-NET
 10
-103.184723
 20
-35.026494
 30
850.0
 70
    64
  0
VERTEX
  5
529
  8
TEAM-NET
 10
-84.749721
 20
-22.708619
 30
850.0
 70
    64
  0
VERTEX
  5
52A
  8
TEAM-NET
 10
-64.864629
 20
-12.902377
 30
850.0
 70
    64
  0
VERTEX
  5
52B
  8
TEAM-NET
 10
-43.869684
 20
-5.775553
 30
850.0
 70
    64
  0
VERTEX
  5
52C
  8
TEAM-NET
 10
-22.124117
 20
-1.450091
 30
850.0
 70
    64
  0
VERTEX
  5
52D
  8
TEAM-NET
 10
0.0
 20
0.0
 30
850.0
 70
    64
  0
VERTEX
  5
52E
  8
TEAM-NET
 10
0.0
 20
-317.268188
 30
850.0
 70
    64
  0
VERTEX
  5
52F
  8
TEAM-NET
 10
-19.287692
 20
-316.004006
 30
850.0
 70
    64
  0
VERTEX
  5
530
  8
TEAM-NET
 10
-38.245365
 20
-312.23309
 30
850.0
 70
    64
  0
VERTEX
  5
531
  8
TEAM-NET
 10
-56.548651
 20
-306.019962
 30
850.0
 70
    64
  0
VERTEX
  5
532
  8
TEAM-NET
 10
-73.884373
 20
-297.47093
 30
850.0
 70
    64
  0
VERTEX
  5
533
  8
TEAM-NET
 10
-89.955912
 20
-286.73227
 30
850.0
 70
    64
  0
VERTEX
  5
534
  8
TEAM-NET
 10
-104.488282
 20
-273.987724
 30
850.0
 70
    64
  0
VERTEX
  5
535
  8
TEAM-NET
 10
-117.232827
 20
-259.455355
 30
850.0
 70
    64
  0
VERTEX
  5
536
  8
TEAM-NET
 10
-127.971487
 20
-243.383815
 30
850.0
 70
    64
  0
VERTEX
  5
537
  8
TEAM-NET
 10
-136.520519
 20
-226.048093
 30
850.0
 70
    64
  0
VERTEX
  5
538
  8
TEAM-NET
 10
-142.733647
 20
-207.744808
 30
850.0
 70
    64
  0
VERTEX
  5
539
  8
TEAM-NET
 10
-146.504563
 20
-188.787134
 30
850.0
 70
    64
  0
VERTEX
  5
53A
  8
TEAM-NET
 10
-147.768745
 20
-169.499443
 30
850.0
 70
    64
  0
VERTEX
  5
53B
  8
TEAM-NET
 10
-146.504563
 20
-150.211751
 30
850.0
 70
    64
  0
VERTEX
  5
53C
  8
TEAM-NET
 10
-142.733647
 20
-131.254077
 30
850.0
 70
    64
  0
VERTEX
  5
53D
  8
TEAM-NET
 10
-136.520519
 20
-112.950792
 30
850.0
 70
    64
  0
VERTEX
  5
53E
  8
TEAM-NET
 10
-127.971487
 20
-95.61507
 30
850.0
 70
    64
  0
VERTEX
  5
53F
  8
TEAM-NET
 10
-117.232827
 20
-79.54353
 30
850.0
 70
    64
  0
VERTEX
  5
540
  8
TEAM-NET
 10
-104.488282
 20
-65.011161
 30
850.0
 70
    64
  0
VERTEX
  5
541
  8
TEAM-NET
 10
-89.955912
 20
-52.266615
 30
850.0
 70
    64
  0
VERTEX
  5
542
  8
TEAM-NET
 10
-73.884373
 20
-41.527956
 30
850.0
 70
    64
  0
VERTEX
  5
543
  8
TEAM-NET
 10
-56.548651
 20
-32.978924
 30
850.0
 70
    64
  0
VERTEX
  5
544
  8
TEAM-NET
 10
-38.245365
 20
-26.765796
 30
850.0
 70
    64
  0
VERTEX
  5
545
  8
TEAM-NET
 10
-19.287692
 20
-22.99488
 30
850.0
 70
    64
  0
VERTEX
  5
546
  8
TEAM-NET
 10
0.0
 20
-21.730698
 30
850.0
 70
    64
  0
SEQEND
  5
547
  8
TEAM-NET
  0
ARC
  5
548
  8
TEAM-BODY
 10
0.0
 20
-169.499443
 30
850.0
 40
169.499443
 50
90.0
 51
270.0
  0
ARC
  5
549
  8
TEAM-BODY
 10
0.0
 20
-169.499443
 30
850.0
 40
147.768745
 50
90.0
 51
270.0
  0
POLYLINE
  5
54A
  8
TEAM-NET
 66
     1
 10
0.0
 20
0.0
 30
0.0
 70
    16
 71
     2
 72
    25
  0
VERTEX
  5
54B
  8
TEAM-NET
 10
0.0
 20
-338.998886
 30
850.0
 70
    64
  0
VERTEX
  5
54C
  8
TEAM-NET
 10
22.124117
 20
-337.548794
 30
850.0
 70
    64
  0
VERTEX
  5
54D
  8
TEAM-NET
 10
43.869684
 20
-333.223332
 30
850.0
 70
    64
  0
VERTEX
  5
54E
  8
TEAM-NET
 10
64.864629
 20
-326.096509
 30
850.0
 70
    64
  0
VERTEX
  5
54F
  8
TEAM-NET
 10
84.749721
 20
-316.290266
 30
850.0
 70
    64
  0
VERTEX
  5
550
  8
TEAM-NET
 10
103.184723
 20
-303.972392
 30
850.0
 70
    64
  0
VERTEX
  5
551
  8
TEAM-NET
 10
119.854205
 20
-289.353648
 30
850.0
 70
    64
  0
VERTEX
  5
552
  8
TEAM-NET
 10
134.472949
 20
-272.684166
 30
850.0
 70
    64
  0
VERTEX
  5
553
  8
TEAM-NET
 10
146.790823
 20
-254.249164
 30
850.0
 70
    64
  0
VERTEX
  5
554
  8
TEAM-NET
 10
156.597066
 20
-234.364071
 30
850.0
 70
    64
  0
VERTEX
  5
555
  8
TEAM-NET
 10
163.723889
 20
-213.369127
 30
850.0
 70
    64
  0
VERTEX
  5
556
  8
TEAM-NET
 10
168.049352
 20
-191.62356
 30
850.0
 70
    64
  0
VERTEX
  5
557
  8
TEAM-NET
 10
169.499443
 20
-169.499443
 30
850.0
 70
    64
  0
VERTEX
  5
558
  8
TEAM-NET
 10
168.049352
 20
-147.375326
 30
850.0
 70
    64
  0
VERTEX
  5
559
  8
TEAM-NET
 10
163.723889
 20
-125.629759
 30
850.0
 70
    64
  0
VERTEX
  5
55A
  8
TEAM-NET
 10
156.597066
 20
-104.634814
 30
850.0
 70
    64
  0
VERTEX
  5
55B
  8
TEAM-NET
 10
146.790823
 20
-84.749721
 30
850.0
 70
    64
  0
VERTEX
  5
55C
  8
TEAM-NET
 10
134.472949
 20
-66.31472
 30
850.0
 70
    64
  0
VERTEX
  5
55D
  8
TEAM-NET
 10
119.854205
 20
-49.645237
 30
850.0
 70
    64
  0
VERTEX
  5
55E
  8
TEAM-NET
 10
103.184723
 20
-35.026494
 30
850.0
 70
    64
  0
VERTEX
  5
55F
  8
TEAM-NET
 10
84.749721
 20
-22.708619
 30
850.0
 70
    64
  0
VERTEX
  5
560
  8
TEAM-NET
 10
64.864629
 20
-12.902377
 30
850.0
 70
    64
  0
VERTEX
  5
561
  8
TEAM-NET
 10
43.869684
 20
-5.775553
 30
850.0
 70
    64
  0
VERTEX
  5
562
  8
TEAM-NET
 10
22.124117
 20
-1.450091
 30
850.0
 70
    64
  0
VERTEX
  5
563
  8
TEAM-NET
 10
0.0
 20
0.0
 30
850.0
 70
    64
  0
VERTEX
  5
564
  8
TEAM-NET
 10
0.0
 20
-317.268188
 30
850.0
 70
    64
  0
VERTEX
  5
565
  8
TEAM-NET
 10
19.287692
 20
-316.004006
 30
850.0
 70
    64
  0
VERTEX
  5
566
  8
TEAM-NET
 10
38.245365
 20
-312.23309
 30
850.0
 70
    64
  0
VERTEX
  5
567
  8
TEAM-NET
 10
56.548651
 20
-306.019962
 30
850.0
 70
    64
  0
VERTEX
  5
568
  8
TEAM-NET
 10
73.884373
 20
-297.47093
 30
850.0
 70
    64
  0
VERTEX
  5
569
  8
TEAM-NET
 10
89.955912
 20
-286.73227
 30
850.0
 70
    64
  0
VERTEX
  5
56A
  8
TEAM-NET
 10
104.488282
 20
-273.987724
 30
850.0
 70
    64
  0
VERTEX
  5
56B
  8
TEAM-NET
 10
117.232827
 20
-259.455355
 30
850.0
 70
    64
  0
VERTEX
  5
56C
  8
TEAM-NET
 10
127.971487
 20
-243.383815
 30
850.0
 70
    64
  0
VERTEX
  5
56D
  8
TEAM-NET
 10
136.520519
 20
-226.048093
 30
850.0
 70
    64
  0
VERTEX
  5
56E
  8
TEAM-NET
 10
142.733647
 20
-207.744808
 30
850.0
 70
    64
  0
VERTEX
  5
56F
  8
TEAM-NET
 10
146.504563
 20
-188.787134
 30
850.0
 70
    64
  0
VERTEX
  5
570
  8
TEAM-NET
 10
147.768745
 20
-169.499443
 30
850.0
 70
    64
  0
VERTEX
  5
571
  8
TEAM-NET
 10
146.504563
 20
-150.211751
 30
850.0
 70
    64
  0
VERTEX
  5
572
  8
TEAM-NET
 10
142.733647
 20
-131.254077
 30
850.0
 70
    64
  0
VERTEX
  5
573
  8
TEAM-NET
 10
136.520519
 20
-112.950792
 30
850.0
 70
    64
  0
VERTEX
  5
574
  8
TEAM-NET
 10
127.971487
 20
-95.61507
 30
850.0
 70
    64
  0
VERTEX
  5
575
  8
TEAM-NET
 10
117.232827
 20
-79.54353
 30
850.0
 70
    64
  0
VERTEX
  5
576
  8
TEAM-NET
 10
104.488282
 20
-65.011161
 30
850.0
 70
    64
  0
VERTEX
  5
577
  8
TEAM-NET
 10
89.955912
 20
-52.266615
 30
850.0
 70
    64
  0
VERTEX
  5
578
  8
TEAM-NET
 10
73.884373
 20
-41.527956
 30
850.0
 70
    64
  0
VERTEX
  5
579
  8
TEAM-NET
 10
56.548651
 20
-32.978924
 30
850.0
 70
    64
  0
VERTEX
  5
57A
  8
TEAM-NET
 10
38.245365
 20
-26.765796
 30
850.0
 70
    64
  0
VERTEX
  5
57B
  8
TEAM-NET
 10
19.287692
 20
-22.99488
 30
850.0
 70
    64
  0
VERTEX
  5
57C
  8
TEAM-NET
 10
0.0
 20
-21.730698
 30
850.0
 70
    64
  0
SEQEND
  5
57D
  8
TEAM-NET
  0
ARC
  5
57E
  8
TEAM-BODY
 10
0.0
 20
-169.499443
 30
850.0
 40
147.768745
 50
270.0
 51
90.0
  0
ARC
  5
57F
  8
TEAM-BODY
 10
0.0
 20
-169.499443
 30
850.0
 40
169.499443
 50
270.0
 51
90.0
  0
ENDSEC
  0
EOF
