  0
SECTION
  2
HEADER
  9
$ACADVER
  1
AC1009
  9
$INSBASE
 10
0.0
 20
0.0
 30
0.0
  9
$EXTMIN
 10
-256.031249
 20
-389.524382
 30
-0.052
  9
$EXTMAX
 10
256.031253
 20
10.024386
 30
852.052008
  9
$LIMMIN
 10
-256.031249
 20
-389.524382
  9
$LIMMAX
 10
256.031253
 20
10.024386
  9
$ORTHOMODE
 70
     1
  9
$REGENMODE
 70
     1
  9
$FILLMODE
 70
     1
  9
$QTEXTMODE
 70
     0
  9
$MIRRTEXT
 70
     0
  9
$DRAGMODE
 70
     2
  9
$LTSCALE
 40
25.0
  9
$OSMODE
 70
     0
  9
$ATTMODE
 70
     1
  9
$TEXTSIZE
 40
200.0
  9
$TRACEWID
 40
1.0
  9
$TEXTSTYLE
  7
STANDARD
  9
$CLAYER
  8
TEAM-MAS
  9
$CELTYPE
  6
BYLAYER
  9
$CECOLOR
 62
   256
  9
$DIMSCALE
 40
1.0
  9
$DIMASZ
 40
20.0
  9
$DIMEXO
 40
10.0
  9
$DIMDLI
 40
1.0
  9
$DIMRND
 40
0.0
  9
$DIMDLE
 40
0.0
  9
$DIMEXE
 40
1.0
  9
$DIMTP
 40
0.0
  9
$DIMTM
 40
0.0
  9
$DIMTXT
 40
35.0
  9
$DIMCEN
 40
1.0
  9
$DIMTSZ
 40
0.0
  9
$DIMTOL
 70
     0
  9
$DIMLIM
 70
     0
  9
$DIMTIH
 70
     0
  9
$DIMTOH
 70
     0
  9
$DIMSE1
 70
     0
  9
$DIMSE2
 70
     0
  9
$DIMTAD
 70
     0
  9
$DIMZIN
 70
     0
  9
$DIMBLK
  1

  9
$DIMASO
 70
     1
  9
$DIMSHO
 70
     0
  9
$DIMPOST
  1

  9
$DIMAPOST
  1

  9
$DIMALT
 70
     0
  9
$DIMALTD
 70
     2
  9
$DIMALTF
 40
25.4
  9
$DIMLFAC
 40
1.0
  9
$DIMTOFL
 70
     0
  9
$DIMTVP
 40
0.0
  9
$DIMTIX
 70
     0
  9
$DIMSOXD
 70
     0
  9
$DIMSAH
 70
     0
  9
$DIMBLK1
  1

  9
$DIMBLK2
  1

  9
$DIMSTYLE
  2
TEAM
  9
$DIMCLRD
 70
     9
  9
$DIMCLRE
 70
     9
  9
$DIMCLRT
 70
    11
  9
$DIMTFAC
 40
1.0
  9
$DIMGAP
 40
15.0
  9
$LUNITS
 70
     2
  9
$LUPREC
 70
     1
  9
$SKETCHINC
 40
1.0
  9
$FILLETRAD
 40
50.0
  9
$AUNITS
 70
     0
  9
$AUPREC
 70
     0
  9
$MENU
  1
ROPLANS
  9
$ELEVATION
 40
0.0
  9
$PELEVATION
 40
0.0
  9
$THICKNESS
 40
0.0
  9
$LIMCHECK
 70
     0
  9
$BLIPMODE
 70
     1
  9
$CHAMFERA
 40
0.0
  9
$CHAMFERB
 40
0.0
  9
$SKPOLY
 70
     0
  9
$TDCREATE
 40
2450392.957851
  9
$TDUPDATE
 40
2455505.473099
  9
$TDINDWG
 40
2.023557
  9
$TDUSRTIMER
 40
2.023557
  9
$USRTIMER
 70
     1
  9
$ANGBASE
 50
0.0
  9
$ANGDIR
 70
     0
  9
$PDMODE
 70
     0
  9
$PDSIZE
 40
0.0
  9
$PLINEWID
 40
0.0
  9
$COORDS
 70
     2
  9
$SPLFRAME
 70
     0
  9
$SPLINETYPE
 70
     6
  9
$SPLINESEGS
 70
     8
  9
$ATTDIA
 70
     0
  9
$ATTREQ
 70
     0
  9
$HANDLING
 70
     1
  9
$HANDSEED
  5
834
  9
$SURFTAB1
 70
    24
  9
$SURFTAB2
 70
    24
  9
$SURFTYPE
 70
     6
  9
$SURFU
 70
     6
  9
$SURFV
 70
     6
  9
$UCSNAME
  2

  9
$UCSORG
 10
0.0
 20
0.0
 30
0.0
  9
$UCSXDIR
 10
1.0
 20
0.0
 30
0.0
  9
$UCSYDIR
 10
0.0
 20
1.0
 30
0.0
  9
$PUCSNAME
  2

  9
$PUCSORG
 10
0.0
 20
0.0
 30
0.0
  9
$PUCSXDIR
 10
1.0
 20
0.0
 30
0.0
  9
$PUCSYDIR
 10
0.0
 20
1.0
 30
0.0
  9
$USERI1
 70
     0
  9
$USERI2
 70
     0
  9
$USERI3
 70
     0
  9
$USERI4
 70
     0
  9
$USERI5
 70
     0
  9
$USERR1
 40
0.0
  9
$USERR2
 40
0.0
  9
$USERR3
 40
0.0
  9
$USERR4
 40
0.0
  9
$USERR5
 40
0.0
  9
$WORLDVIEW
 70
     1
  9
$SHADEDGE
 70
     0
  9
$SHADEDIF
 70
    70
  9
$TILEMODE
 70
     1
  9
$MAXACTVP
 70
    16
  9
$PLIMCHECK
 70
     0
  9
$PEXTMIN
 10
-0.805942
 20
0.005011
 30
0.0
  9
$PEXTMAX
 10
20.250094
 20
11.356329
 30
0.0
  9
$PLIMMIN
 10
0.0
 20
0.0
  9
$PLIMMAX
 10
12.0
 20
9.0
  9
$UNITMODE
 70
     0
  9
$VISRETAIN
 70
     0
  9
$PLINEGEN
 70
     0
  9
$PSLTSCALE
 70
     0
  0
ENDSEC
  0
SECTION
  2
TABLES
  0
TABLE
  2
VPORT
 70
     2
  0
VPORT
  2
*ACTIVE
 70
     0
 10
0.0
 20
0.0
 11
1.0
 21
1.0
 12
0.000002
 22
-189.749998
 13
0.0
 23
0.0
 14
1.0
 24
1.0
 15
50.0
 25
50.0
 16
0.0
 26
0.0
 36
1.0
 17
0.0
 27
0.0
 37
0.0
 40
402.002497
 41
1.865779
 42
50.0
 43
0.0
 44
0.0
 50
0.0
 51
0.0
 71
     0
 72
   100
 73
     1
 74
     1
 75
     0
 76
     0
 77
     0
 78
     0
  0
ENDTAB
  0
TABLE
  2
LTYPE
 70
     1
  0
LTYPE
  2
CONTINUOUS
 70
     0
  3
Solid Line
 72
    65
 73
     0
 40
0.0
  0
ENDTAB
  0
TABLE
  2
LAYER
 70
     7
  0
LAYER
  2
0
 70
     0
 62
     7
  6
CONTINUOUS
  0
LAYER
  2
TEAM-BODY
 70
     0
 62
     2
  6
CONTINUOUS
  0
LAYER
  2
TEAM-MAS
 70
     0
 62
     9
  6
CONTINUOUS
  0
LAYER
  2
TEAM-TXT
 70
     0
 62
    11
  6
CONTINUOUS
  0
LAYER
  2
TEAM-DET1
 70
     0
 62
     4
  6
CONTINUOUS
  0
LAYER
  2
TEAM-NET
 70
     0
 62
    15
  6
CONTINUOUS
  0
LAYER
  2
TEAM-INSP
 70
     0
 62
     5
  6
CONTINUOUS
  0
ENDTAB
  0
TABLE
  2
STYLE
 70
     2
  0
STYLE
  2
STANDARD
 70
     0
 40
0.0
 41
1.0
 50
0.0
 71
     0
 42
200.0
  3
txt
  4

  0
STYLE
  2
TEAM
 70
     0
 40
0.0
 41
0.8
 50
15.0
 71
     0
 42
7.0
  3
ROMANS.shx
  4

  0
ENDTAB
  0
TABLE
  2
VIEW
 70
     0
  0
ENDTAB
  0
TABLE
  2
UCS
 70
     0
  0
ENDTAB
  0
TABLE
  2
APPID
 70
     1
  0
APPID
  2
ACAD
 70
     0
  0
ENDTAB
  0
TABLE
  2
DIMSTYLE
 70
     1
  0
DIMSTYLE
  2
TEAM
 70
     0
  3

  4

  5

  6

  7

 40
1.0
 41
20.0
 42
10.0
 43
1.0
 44
1.0
 45
0.0
 46
0.0
 47
0.0
 48
0.0
140
35.0
141
1.0
142
0.0
143
25.4
144
1.0
145
0.0
146
1.0
147
15.0
 71
     0
 72
     0
 73
     0
 74
     0
 75
     0
 76
     0
 77
     0
 78
     0
170
     0
171
     2
172
     0
173
     0
174
     0
175
     0
176
     9
177
     9
178
    11
  0
ENDTAB
  0
ENDSEC
  0
SECTION
  2
BLOCKS
  0
BLOCK
  8
0
  2
$MODEL_SPACE
 70
     0
 10
0.0
 20
0.0
 30
0.0
  3
$MODEL_SPACE
  1

  0
ENDBLK
  5
74D
  8
0
  0
BLOCK
 67
     1
  8
0
  2
$PAPER_SPACE
 70
     0
 10
0.0
 20
0.0
 30
0.0
  3
$PAPER_SPACE
  1

  0
ENDBLK
  5
74B
 67
     1
  8
0
  0
ENDSEC
  0
SECTION
  2
ENTITIES
  0
CIRCLE
  5
20
  8
TEAM-INSP
 10
0.0
 20
0.0
 30
0.0
 40
10.0
  0
CIRCLE
  5
22
  8
TEAM-DET1
 39
-10.0
 10
0.0
 20
-193.5
 30
700.0
 40
30.0
  0
CIRCLE
  5
24
  8
TEAM-BODY
 39
-10.0
 10
0.0
 20
-193.5
 30
700.0
 40
20.0
  0
POLYLINE
  5
26
  8
TEAM-NET
 66
     1
 10
0.0
 20
0.0
 30
0.0
 70
    16
 71
    25
 72
    25
  0
VERTEX
  5
27
  8
TEAM-NET
 10
225.0
 20
-193.5
 30
850.0
 70
    64
  0
VERTEX
  5
28
  8
TEAM-NET
 10
222.299598
 20
-168.013226
 30
850.0
 70
    64
  0
VERTEX
  5
29
  8
TEAM-NET
 10
214.466108
 20
-143.604824
 30
850.0
 70
    64
  0
VERTEX
  5
2A
  8
TEAM-NET
 10
202.180884
 20
-121.09697
 30
850.0
 70
    64
  0
VERTEX
  5
2B
  8
TEAM-NET
 10
186.286494
 20
-100.96524
 30
850.0
 70
    64
  0
VERTEX
  5
2C
  8
TEAM-NET
 10
167.584931
 20
-83.401555
 30
850.0
 70
    64
  0
VERTEX
  5
2D
  8
TEAM-NET
 10
146.748639
 20
-68.424551
 30
850.0
 70
    64
  0
VERTEX
  5
2E
  8
TEAM-NET
 10
124.310096
 20
-55.969203
 30
850.0
 70
    64
  0
VERTEX
  5
2F
  8
TEAM-NET
 10
100.684074
 20
-45.941894
 30
850.0
 70
    64
  0
VERTEX
  5
30
  8
TEAM-NET
 10
76.196539
 20
-38.249527
 30
850.0
 70
    64
  0
VERTEX
  5
31
  8
TEAM-NET
 10
51.110474
 20
-32.813431
 30
850.0
 70
    64
  0
VERTEX
  5
32
  8
TEAM-NET
 10
25.646634
 20
-29.575393
 30
850.0
 70
    64
  0
VERTEX
  5
33
  8
TEAM-NET
 10
0.0
 20
-28.5
 30
850.0
 70
    64
  0
VERTEX
  5
34
  8
TEAM-NET
 10
-25.646634
 20
-29.575393
 30
850.0
 70
    64
  0
VERTEX
  5
35
  8
TEAM-NET
 10
-51.110474
 20
-32.813431
 30
850.0
 70
    64
  0
VERTEX
  5
36
  8
TEAM-NET
 10
-76.196539
 20
-38.249527
 30
850.0
 70
    64
  0
VERTEX
  5
37
  8
TEAM-NET
 10
-100.684074
 20
-45.941894
 30
850.0
 70
    64
  0
VERTEX
  5
38
  8
TEAM-NET
 10
-124.310096
 20
-55.969203
 30
850.0
 70
    64
  0
VERTEX
  5
39
  8
TEAM-NET
 10
-146.748639
 20
-68.424551
 30
850.0
 70
    64
  0
VERTEX
  5
3A
  8
TEAM-NET
 10
-167.584931
 20
-83.401555
 30
850.0
 70
    64
  0
VERTEX
  5
3B
  8
TEAM-NET
 10
-186.286494
 20
-100.96524
 30
850.0
 70
    64
  0
VERTEX
  5
3C
  8
TEAM-NET
 10
-202.180884
 20
-121.09697
 30
850.0
 70
    64
  0
VERTEX
  5
3D
  8
TEAM-NET
 10
-214.466108
 20
-143.604824
 30
850.0
 70
    64
  0
VERTEX
  5
3E
  8
TEAM-NET
 10
-222.299598
 20
-168.013226
 30
850.0
 70
    64
  0
VERTEX
  5
3F
  8
TEAM-NET
 10
-225.0
 20
-193.5
 30
850.0
 70
    64
  0
VERTEX
  5
40
  8
TEAM-NET
 10
225.0
 20
-193.5
 30
850.0
 70
    64
  0
VERTEX
  5
41
  8
TEAM-NET
 10
222.299598
 20
-168.231268
 30
846.673308
 70
    64
  0
VERTEX
  5
42
  8
TEAM-NET
 10
214.466108
 20
-144.031684
 30
843.487373
 70
    64
  0
VERTEX
  5
43
  8
TEAM-NET
 10
202.180884
 20
-121.716388
 30
840.549508
 70
    64
  0
VERTEX
  5
44
  8
TEAM-NET
 10
186.286494
 20
-101.756887
 30
837.92179
 70
    64
  0
VERTEX
  5
45
  8
TEAM-NET
 10
167.584931
 20
-84.343463
 30
835.629269
 70
    64
  0
VERTEX
  5
46
  8
TEAM-NET
 10
146.748639
 20
-69.494589
 30
833.674378
 70
    64
  0
VERTEX
  5
47
  8
TEAM-NET
 10
124.310096
 20
-57.145798
 30
832.048629
 70
    64
  0
VERTEX
  5
48
  8
TEAM-NET
 10
100.684074
 20
-47.204274
 30
830.739802
 70
    64
  0
VERTEX
  5
49
  8
TEAM-NET
 10
76.196539
 20
-39.577717
 30
829.735747
 70
    64
  0
VERTEX
  5
4A
  8
TEAM-NET
 10
51.110474
 20
-34.188127
 30
829.026194
 70
    64
  0
VERTEX
  5
4B
  8
TEAM-NET
 10
25.646634
 20
-30.977791
 30
828.603545
 70
    64
  0
VERTEX
  5
4C
  8
TEAM-NET
 10
0.0
 20
-29.911598
 30
828.463178
 70
    64
  0
VERTEX
  5
4D
  8
TEAM-NET
 10
-25.646634
 20
-30.977791
 30
828.603545
 70
    64
  0
VERTEX
  5
4E
  8
TEAM-NET
 10
-51.110474
 20
-34.188127
 30
829.026194
 70
    64
  0
VERTEX
  5
4F
  8
TEAM-NET
 10
-76.196539
 20
-39.577717
 30
829.735747
 70
    64
  0
VERTEX
  5
50
  8
TEAM-NET
 10
-100.684074
 20
-47.204274
 30
830.739802
 70
    64
  0
VERTEX
  5
51
  8
TEAM-NET
 10
-124.310096
 20
-57.145798
 30
832.048629
 70
    64
  0
VERTEX
  5
52
  8
TEAM-NET
 10
-146.748639
 20
-69.494589
 30
833.674378
 70
    64
  0
VERTEX
  5
53
  8
TEAM-NET
 10
-167.584931
 20
-84.343463
 30
835.629269
 70
    64
  0
VERTEX
  5
54
  8
TEAM-NET
 10
-186.286494
 20
-101.756887
 30
837.92179
 70
    64
  0
VERTEX
  5
55
  8
TEAM-NET
 10
-202.180884
 20
-121.716388
 30
840.549508
 70
    64
  0
VERTEX
  5
56
  8
TEAM-NET
 10
-214.466108
 20
-144.031684
 30
843.487373
 70
    64
  0
VERTEX
  5
57
  8
TEAM-NET
 10
-222.299598
 20
-168.231268
 30
846.673308
 70
    64
  0
VERTEX
  5
58
  8
TEAM-NET
 10
-225.0
 20
-193.5
 30
850.0
 70
    64
  0
VERTEX
  5
59
  8
TEAM-NET
 10
225.0
 20
-193.5
 30
850.0
 70
    64
  0
VERTEX
  5
5A
  8
TEAM-NET
 10
222.299598
 20
-168.881666
 30
843.403537
 70
    64
  0
VERTEX
  5
5B
  8
TEAM-NET
 10
214.466108
 20
-145.304961
 30
837.086178
 70
    64
  0
VERTEX
  5
5C
  8
TEAM-NET
 10
202.180884
 20
-123.564044
 30
831.260717
 70
    64
  0
VERTEX
  5
5D
  8
TEAM-NET
 10
186.286494
 20
-104.118285
 30
826.050242
 70
    64
  0
VERTEX
  5
5E
  8
TEAM-NET
 10
167.584931
 20
-87.153069
 30
821.504426
 70
    64
  0
VERTEX
  5
5F
  8
TEAM-NET
 10
146.748639
 20
-72.686394
 30
817.628092
 70
    64
  0
VERTEX
  5
60
  8
TEAM-NET
 10
124.310096
 20
-60.655452
 30
814.404411
 70
    64
  0
VERTEX
  5
61
  8
TEAM-NET
 10
100.684074
 20
-50.969815
 30
811.809152
 70
    64
  0
VERTEX
  5
62
  8
TEAM-NET
 10
76.196539
 20
-43.539559
 30
809.818221
 70
    64
  0
VERTEX
  5
63
  8
TEAM-NET
 10
51.110474
 20
-38.288693
 30
808.411256
 70
    64
  0
VERTEX
  5
64
  8
TEAM-NET
 10
25.646634
 20
-35.160989
 30
807.57319
 70
    64
  0
VERTEX
  5
65
  8
TEAM-NET
 10
0.0
 20
-34.122239
 30
807.294858
 70
    64
  0
VERTEX
  5
66
  8
TEAM-NET
 10
-25.646634
 20
-35.160989
 30
807.57319
 70
    64
  0
VERTEX
  5
67
  8
TEAM-NET
 10
-51.110474
 20
-38.288693
 30
808.411256
 70
    64
  0
VERTEX
  5
68
  8
TEAM-NET
 10
-76.196539
 20
-43.539559
 30
809.818221
 70
    64
  0
VERTEX
  5
69
  8
TEAM-NET
 10
-100.684074
 20
-50.969815
 30
811.809152
 70
    64
  0
VERTEX
  5
6A
  8
TEAM-NET
 10
-124.310096
 20
-60.655452
 30
814.404411
 70
    64
  0
VERTEX
  5
6B
  8
TEAM-NET
 10
-146.748639
 20
-72.686394
 30
817.628092
 70
    64
  0
VERTEX
  5
6C
  8
TEAM-NET
 10
-167.584931
 20
-87.153069
 30
821.504426
 70
    64
  0
VERTEX
  5
6D
  8
TEAM-NET
 10
-186.286494
 20
-104.118285
 30
826.050242
 70
    64
  0
VERTEX
  5
6E
  8
TEAM-NET
 10
-202.180884
 20
-123.564044
 30
831.260717
 70
    64
  0
VERTEX
  5
6F
  8
TEAM-NET
 10
-214.466108
 20
-145.304961
 30
837.086178
 70
    64
  0
VERTEX
  5
70
  8
TEAM-NET
 10
-222.299598
 20
-168.881666
 30
843.403537
 70
    64
  0
VERTEX
  5
71
  8
TEAM-NET
 10
-225.0
 20
-193.5
 30
850.0
 70
    64
  0
VERTEX
  5
72
  8
TEAM-NET
 10
225.0
 20
-193.5
 30
850.0
 70
    64
  0
VERTEX
  5
73
  8
TEAM-NET
 10
222.299598
 20
-169.953291
 30
840.246634
 70
    64
  0
VERTEX
  5
74
  8
TEAM-NET
 10
214.466108
 20
-147.402868
 30
830.905943
 70
    64
  0
VERTEX
  5
75
  8
TEAM-NET
 10
202.180884
 20
-126.608323
 30
822.29256
 70
    64
  0
VERTEX
  5
76
  8
TEAM-NET
 10
186.286494
 20
-108.009029
 30
814.58848
 70
    64
  0
VERTEX
  5
77
  8
TEAM-NET
 10
167.584931
 20
-91.7823
 30
807.867149
 70
    64
  0
VERTEX
  5
78
  8
TEAM-NET
 10
146.748639
 20
-77.945353
 30
802.135698
 70
    64
  0
VERTEX
  5
79
  8
TEAM-NET
 10
124.310096
 20
-66.438112
 30
797.369243
 70
    64
  0
VERTEX
  5
7A
  8
TEAM-NET
 10
100.684074
 20
-57.174086
 30
793.531958
 70
    64
  0
VERTEX
  5
7B
  8
TEAM-NET
 10
76.196539
 20
-50.067266
 30
790.588216
 70
    64
  0
VERTEX
  5
7C
  8
TEAM-NET
 10
51.110474
 20
-45.044967
 30
788.507912
 70
    64
  0
VERTEX
  5
7D
  8
TEAM-NET
 10
25.646634
 20
-42.053411
 30
787.268769
 70
    64
  0
VERTEX
  5
7E
  8
TEAM-NET
 10
0.0
 20
-41.059877
 30
786.857234
 70
    64
  0
VERTEX
  5
7F
  8
TEAM-NET
 10
-25.646634
 20
-42.053411
 30
787.268769
 70
    64
  0
VERTEX
  5
80
  8
TEAM-NET
 10
-51.110474
 20
-45.044967
 30
788.507912
 70
    64
  0
VERTEX
  5
81
  8
TEAM-NET
 10
-76.196539
 20
-50.067266
 30
790.588216
 70
    64
  0
VERTEX
  5
82
  8
TEAM-NET
 10
-100.684074
 20
-57.174086
 30
793.531958
 70
    64
  0
VERTEX
  5
83
  8
TEAM-NET
 10
-124.310096
 20
-66.438112
 30
797.369243
 70
    64
  0
VERTEX
  5
84
  8
TEAM-NET
 10
-146.748639
 20
-77.945353
 30
802.135698
 70
    64
  0
VERTEX
  5
85
  8
TEAM-NET
 10
-167.584931
 20
-91.7823
 30
807.867149
 70
    64
  0
VERTEX
  5
86
  8
TEAM-NET
 10
-186.286494
 20
-108.009029
 30
814.58848
 70
    64
  0
VERTEX
  5
87
  8
TEAM-NET
 10
-202.180884
 20
-126.608323
 30
822.29256
 70
    64
  0
VERTEX
  5
88
  8
TEAM-NET
 10
-214.466108
 20
-147.402868
 30
830.905943
 70
    64
  0
VERTEX
  5
89
  8
TEAM-NET
 10
-222.299598
 20
-169.953291
 30
840.246634
 70
    64
  0
VERTEX
  5
8A
  8
TEAM-NET
 10
-225.0
 20
-193.5
 30
850.0
 70
    64
  0
VERTEX
  5
8B
  8
TEAM-NET
 10
225.0
 20
-193.5
 30
850.0
 70
    64
  0
VERTEX
  5
8C
  8
TEAM-NET
 10
222.299598
 20
-171.427806
 30
837.256613
 70
    64
  0
VERTEX
  5
8D
  8
TEAM-NET
 10
214.466108
 20
-150.28951
 30
825.052412
 70
    64
  0
VERTEX
  5
8E
  8
TEAM-NET
 10
202.180884
 20
-130.797137
 30
813.798485
 70
    64
  0
VERTEX
  5
8F
  8
TEAM-NET
 10
186.286494
 20
-113.362547
 30
803.73262
 70
    64
  0
VERTEX
  5
90
  8
TEAM-NET
 10
167.584931
 20
-98.15195
 30
794.950778
 70
    64
  0
VERTEX
  5
91
  8
TEAM-NET
 10
146.748639
 20
-85.181484
 30
787.462276
 70
    64
  0
VERTEX
  5
92
  8
TEAM-NET
 10
124.310096
 20
-74.394836
 30
781.234602
 70
    64
  0
VERTEX
  5
93
  8
TEAM-NET
 10
100.684074
 20
-65.710932
 30
776.220947
 70
    64
  0
VERTEX
  5
94
  8
TEAM-NET
 10
76.196539
 20
-59.049147
 30
772.374764
 70
    64
  0
VERTEX
  5
95
  8
TEAM-NET
 10
51.110474
 20
-54.341349
 30
769.656715
 70
    64
  0
VERTEX
  5
96
  8
TEAM-NET
 10
25.646634
 20
-51.537126
 30
768.037697
 70
    64
  0
VERTEX
  5
97
  8
TEAM-NET
 10
0.0
 20
-50.605808
 30
767.5
 70
    64
  0
VERTEX
  5
98
  8
TEAM-NET
 10
-25.646634
 20
-51.537126
 30
768.037697
 70
    64
  0
VERTEX
  5
99
  8
TEAM-NET
 10
-51.110474
 20
-54.341349
 30
769.656715
 70
    64
  0
VERTEX
  5
9A
  8
TEAM-NET
 10
-76.196539
 20
-59.049147
 30
772.374764
 70
    64
  0
VERTEX
  5
9B
  8
TEAM-NET
 10
-100.684074
 20
-65.710932
 30
776.220947
 70
    64
  0
VERTEX
  5
9C
  8
TEAM-NET
 10
-124.310096
 20
-74.394836
 30
781.234602
 70
    64
  0
VERTEX
  5
9D
  8
TEAM-NET
 10
-146.748639
 20
-85.181484
 30
787.462276
 70
    64
  0
VERTEX
  5
9E
  8
TEAM-NET
 10
-167.584931
 20
-98.15195
 30
794.950778
 70
    64
  0
VERTEX
  5
9F
  8
TEAM-NET
 10
-186.286494
 20
-113.362547
 30
803.73262
 70
    64
  0
VERTEX
  5
A0
  8
TEAM-NET
 10
-202.180884
 20
-130.797137
 30
813.798485
 70
    64
  0
VERTEX
  5
A1
  8
TEAM-NET
 10
-214.466108
 20
-150.28951
 30
825.052412
 70
    64
  0
VERTEX
  5
A2
  8
TEAM-NET
 10
-222.299598
 20
-171.427806
 30
837.256613
 70
    64
  0
VERTEX
  5
A3
  8
TEAM-NET
 10
-225.0
 20
-193.5
 30
850.0
 70
    64
  0
VERTEX
  5
A4
  8
TEAM-NET
 10
225.0
 20
-193.5
 30
850.0
 70
    64
  0
VERTEX
  5
A5
  8
TEAM-NET
 10
222.299598
 20
-173.279982
 30
834.484635
 70
    64
  0
VERTEX
  5
A6
  8
TEAM-NET
 10
214.466108
 20
-153.915495
 30
819.625741
 70
    64
  0
VERTEX
  5
A7
  8
TEAM-NET
 10
202.180884
 20
-136.058815
 30
805.923828
 70
    64
  0
VERTEX
  5
A8
  8
TEAM-NET
 10
186.286494
 20
-120.087239
 30
793.668407
 70
    64
  0
VERTEX
  5
A9
  8
TEAM-NET
 10
167.584931
 20
-106.153031
 30
782.976314
 70
    64
  0
VERTEX
  5
AA
  8
TEAM-NET
 10
146.748639
 20
-94.270975
 30
773.858891
 70
    64
  0
VERTEX
  5
AB
  8
TEAM-NET
 10
124.310096
 20
-84.389483
 30
766.276556
 70
    64
  0
VERTEX
  5
AC
  8
TEAM-NET
 10
100.684074
 20
-76.434284
 30
760.172317
 70
    64
  0
VERTEX
  5
AD
  8
TEAM-NET
 10
76.196539
 20
-70.331519
 30
755.4895
 70
    64
  0
VERTEX
  5
AE
  8
TEAM-NET
 10
51.110474
 20
-66.018773
 30
752.180214
 70
    64
  0
VERTEX
  5
AF
  8
TEAM-NET
 10
25.646634
 20
-63.449866
 30
750.209022
 70
    64
  0
VERTEX
  5
B0
  8
TEAM-NET
 10
0.0
 20
-62.596699
 30
749.554364
 70
    64
  0
VERTEX
  5
B1
  8
TEAM-NET
 10
-25.646634
 20
-63.449866
 30
750.209022
 70
    64
  0
VERTEX
  5
B2
  8
TEAM-NET
 10
-51.110474
 20
-66.018773
 30
752.180214
 70
    64
  0
VERTEX
  5
B3
  8
TEAM-NET
 10
-76.196539
 20
-70.331519
 30
755.4895
 70
    64
  0
VERTEX
  5
B4
  8
TEAM-NET
 10
-100.684074
 20
-76.434284
 30
760.172317
 70
    64
  0
VERTEX
  5
B5
  8
TEAM-NET
 10
-124.310096
 20
-84.389483
 30
766.276556
 70
    64
  0
VERTEX
  5
B6
  8
TEAM-NET
 10
-146.748639
 20
-94.270975
 30
773.858891
 70
    64
  0
VERTEX
  5
B7
  8
TEAM-NET
 10
-167.584931
 20
-106.153031
 30
782.976314
 70
    64
  0
VERTEX
  5
B8
  8
TEAM-NET
 10
-186.286494
 20
-120.087239
 30
793.668407
 70
    64
  0
VERTEX
  5
B9
  8
TEAM-NET
 10
-202.180884
 20
-136.058815
 30
805.923828
 70
    64
  0
VERTEX
  5
BA
  8
TEAM-NET
 10
-214.466108
 20
-153.915495
 30
819.625741
 70
    64
  0
VERTEX
  5
BB
  8
TEAM-NET
 10
-222.299598
 20
-173.279982
 30
834.484635
 70
    64
  0
VERTEX
  5
BC
  8
TEAM-NET
 10
-225.0
 20
-193.5
 30
850.0
 70
    64
  0
VERTEX
  5
BD
  8
TEAM-NET
 10
225.0
 20
-193.5
 30
850.0
 70
    64
  0
VERTEX
  5
BE
  8
TEAM-NET
 10
222.299598
 20
-175.478129
 30
831.978129
 70
    64
  0
VERTEX
  5
BF
  8
TEAM-NET
 10
214.466108
 20
-158.218783
 30
814.718783
 70
    64
  0
VERTEX
  5
C0
  8
TEAM-NET
 10
202.180884
 20
-142.303327
 30
798.803327
 70
    64
  0
VERTEX
  5
C1
  8
TEAM-NET
 10
186.286494
 20
-128.068044
 30
784.568044
 70
    64
  0
VERTEX
  5
C2
  8
TEAM-NET
 10
167.584931
 20
-115.648643
 30
772.148643
 70
    64
  0
VERTEX
  5
C3
  8
TEAM-NET
 10
146.748639
 20
-105.058302
 30
761.558302
 70
    64
  0
VERTEX
  5
C4
  8
TEAM-NET
 10
124.310096
 20
-96.251041
 30
752.751041
 70
    64
  0
VERTEX
  5
C5
  8
TEAM-NET
 10
100.684074
 20
-89.160663
 30
745.660663
 70
    64
  0
VERTEX
  5
C6
  8
TEAM-NET
 10
76.196539
 20
-83.721338
 30
740.221338
 70
    64
  0
VERTEX
  5
C7
  8
TEAM-NET
 10
51.110474
 20
-79.877437
 30
736.377437
 70
    64
  0
VERTEX
  5
C8
  8
TEAM-NET
 10
25.646634
 20
-77.587799
 30
734.087799
 70
    64
  0
VERTEX
  5
C9
  8
TEAM-NET
 10
0.0
 20
-76.827381
 30
733.327381
 70
    64
  0
VERTEX
  5
CA
  8
TEAM-NET
 10
-25.646634
 20
-77.587799
 30
734.087799
 70
    64
  0
VERTEX
  5
CB
  8
TEAM-NET
 10
-51.110474
 20
-79.877437
 30
736.377437
 70
    64
  0
VERTEX
  5
CC
  8
TEAM-NET
 10
-76.196539
 20
-83.721338
 30
740.221338
 70
    64
  0
VERTEX
  5
CD
  8
TEAM-NET
 10
-100.684074
 20
-89.160663
 30
745.660663
 70
    64
  0
VERTEX
  5
CE
  8
TEAM-NET
 10
-124.310096
 20
-96.251041
 30
752.751041
 70
    64
  0
VERTEX
  5
CF
  8
TEAM-NET
 10
-146.748639
 20
-105.058302
 30
761.558302
 70
    64
  0
VERTEX
  5
D0
  8
TEAM-NET
 10
-167.584931
 20
-115.648643
 30
772.148643
 70
    64
  0
VERTEX
  5
D1
  8
TEAM-NET
 10
-186.286494
 20
-128.068044
 30
784.568044
 70
    64
  0
VERTEX
  5
D2
  8
TEAM-NET
 10
-202.180884
 20
-142.303327
 30
798.803327
 70
    64
  0
VERTEX
  5
D3
  8
TEAM-NET
 10
-214.466108
 20
-158.218783
 30
814.718783
 70
    64
  0
VERTEX
  5
D4
  8
TEAM-NET
 10
-222.299598
 20
-175.478129
 30
831.978129
 70
    64
  0
VERTEX
  5
D5
  8
TEAM-NET
 10
-225.0
 20
-193.5
 30
850.0
 70
    64
  0
VERTEX
  5
D6
  8
TEAM-NET
 10
225.0
 20
-193.5
 30
850.0
 70
    64
  0
VERTEX
  5
D7
  8
TEAM-NET
 10
222.299598
 20
-177.984635
 30
829.779982
 70
    64
  0
VERTEX
  5
D8
  8
TEAM-NET
 10
214.466108
 20
-163.125741
 30
810.415495
 70
    64
  0
VERTEX
  5
D9
  8
TEAM-NET
 10
202.180884
 20
-149.423828
 30
792.558815
 70
    64
  0
VERTEX
  5
DA
  8
TEAM-NET
 10
186.286494
 20
-137.168407
 30
776.587239
 70
    64
  0
VERTEX
  5
DB
  8
TEAM-NET
 10
167.584931
 20
-126.476314
 30
762.653031
 70
    64
  0
VERTEX
  5
DC
  8
TEAM-NET
 10
146.748639
 20
-117.358891
 30
750.770975
 70
    64
  0
VERTEX
  5
DD
  8
TEAM-NET
 10
124.310096
 20
-109.776556
 30
740.889483
 70
    64
  0
VERTEX
  5
DE
  8
TEAM-NET
 10
100.684074
 20
-103.672317
 30
732.934284
 70
    64
  0
VERTEX
  5
DF
  8
TEAM-NET
 10
76.196539
 20
-98.9895
 30
726.831519
 70
    64
  0
VERTEX
  5
E0
  8
TEAM-NET
 10
51.110474
 20
-95.680214
 30
722.518773
 70
    64
  0
VERTEX
  5
E1
  8
TEAM-NET
 10
25.646634
 20
-93.709022
 30
719.949866
 70
    64
  0
VERTEX
  5
E2
  8
TEAM-NET
 10
0.0
 20
-93.054364
 30
719.096699
 70
    64
  0
VERTEX
  5
E3
  8
TEAM-NET
 10
-25.646634
 20
-93.709022
 30
719.949866
 70
    64
  0
VERTEX
  5
E4
  8
TEAM-NET
 10
-51.110474
 20
-95.680214
 30
722.518773
 70
    64
  0
VERTEX
  5
E5
  8
TEAM-NET
 10
-76.196539
 20
-98.9895
 30
726.831519
 70
    64
  0
VERTEX
  5
E6
  8
TEAM-NET
 10
-100.684074
 20
-103.672317
 30
732.934284
 70
    64
  0
VERTEX
  5
E7
  8
TEAM-NET
 10
-124.310096
 20
-109.776556
 30
740.889483
 70
    64
  0
VERTEX
  5
E8
  8
TEAM-NET
 10
-146.748639
 20
-117.358891
 30
750.770975
 70
    64
  0
VERTEX
  5
E9
  8
TEAM-NET
 10
-167.584931
 20
-126.476314
 30
762.653031
 70
    64
  0
VERTEX
  5
EA
  8
TEAM-NET
 10
-186.286494
 20
-137.168407
 30
776.587239
 70
    64
  0
VERTEX
  5
EB
  8
TEAM-NET
 10
-202.180884
 20
-149.423828
 30
792.558815
 70
    64
  0
VERTEX
  5
EC
  8
TEAM-NET
 10
-214.466108
 20
-163.125741
 30
810.415495
 70
    64
  0
VERTEX
  5
ED
  8
TEAM-NET
 10
-222.299598
 20
-177.984635
 30
829.779982
 70
    64
  0
VERTEX
  5
EE
  8
TEAM-NET
 10
-225.0
 20
-193.5
 30
850.0
 70
    64
  0
VERTEX
  5
EF
  8
TEAM-NET
 10
225.0
 20
-193.5
 30
850.0
 70
    64
  0
VERTEX
  5
F0
  8
TEAM-NET
 10
222.299598
 20
-180.756613
 30
827.927806
 70
    64
  0
VERTEX
  5
F1
  8
TEAM-NET
 10
214.466108
 20
-168.552412
 30
806.78951
 70
    64
  0
VERTEX
  5
F2
  8
TEAM-NET
 10
202.180884
 20
-157.298485
 30
787.297137
 70
    64
  0
VERTEX
  5
F3
  8
TEAM-NET
 10
186.286494
 20
-147.23262
 30
769.862547
 70
    64
  0
VERTEX
  5
F4
  8
TEAM-NET
 10
167.584931
 20
-138.450778
 30
754.65195
 70
    64
  0
VERTEX
  5
F5
  8
TEAM-NET
 10
146.748639
 20
-130.962276
 30
741.681484
 70
    64
  0
VERTEX
  5
F6
  8
TEAM-NET
 10
124.310096
 20
-124.734602
 30
730.894836
 70
    64
  0
VERTEX
  5
F7
  8
TEAM-NET
 10
100.684074
 20
-119.720947
 30
722.210932
 70
    64
  0
VERTEX
  5
F8
  8
TEAM-NET
 10
76.196539
 20
-115.874764
 30
715.549147
 70
    64
  0
VERTEX
  5
F9
  8
TEAM-NET
 10
51.110474
 20
-113.156715
 30
710.841349
 70
    64
  0
VERTEX
  5
FA
  8
TEAM-NET
 10
25.646634
 20
-111.537697
 30
708.037126
 70
    64
  0
VERTEX
  5
FB
  8
TEAM-NET
 10
0.0
 20
-111.0
 30
707.105808
 70
    64
  0
VERTEX
  5
FC
  8
TEAM-NET
 10
-25.646634
 20
-111.537697
 30
708.037126
 70
    64
  0
VERTEX
  5
FD
  8
TEAM-NET
 10
-51.110474
 20
-113.156715
 30
710.841349
 70
    64
  0
VERTEX
  5
FE
  8
TEAM-NET
 10
-76.196539
 20
-115.874764
 30
715.549147
 70
    64
  0
VERTEX
  5
FF
  8
TEAM-NET
 10
-100.684074
 20
-119.720947
 30
722.210932
 70
    64
  0
VERTEX
  5
100
  8
TEAM-NET
 10
-124.310096
 20
-124.734602
 30
730.894836
 70
    64
  0
VERTEX
  5
101
  8
TEAM-NET
 10
-146.748639
 20
-130.962276
 30
741.681484
 70
    64
  0
VERTEX
  5
102
  8
TEAM-NET
 10
-167.584931
 20
-138.450778
 30
754.65195
 70
    64
  0
VERTEX
  5
103
  8
TEAM-NET
 10
-186.286494
 20
-147.23262
 30
769.862547
 70
    64
  0
VERTEX
  5
104
  8
TEAM-NET
 10
-202.180884
 20
-157.298485
 30
787.297137
 70
    64
  0
VERTEX
  5
105
  8
TEAM-NET
 10
-214.466108
 20
-168.552412
 30
806.78951
 70
    64
  0
VERTEX
  5
106
  8
TEAM-NET
 10
-222.299598
 20
-180.756613
 30
827.927806
 70
    64
  0
VERTEX
  5
107
  8
TEAM-NET
 10
-225.0
 20
-193.5
 30
850.0
 70
    64
  0
VERTEX
  5
108
  8
TEAM-NET
 10
225.0
 20
-193.5
 30
850.0
 70
    64
  0
VERTEX
  5
109
  8
TEAM-NET
 10
222.299598
 20
-183.746634
 30
826.453291
 70
    64
  0
VERTEX
  5
10A
  8
TEAM-NET
 10
214.466108
 20
-174.405943
 30
803.902868
 70
    64
  0
VERTEX
  5
10B
  8
TEAM-NET
 10
202.180884
 20
-165.79256
 30
783.108323
 70
    64
  0
VERTEX
  5
10C
  8
TEAM-NET
 10
186.286494
 20
-158.08848
 30
764.509029
 70
    64
  0
VERTEX
  5
10D
  8
TEAM-NET
 10
167.584931
 20
-151.367149
 30
748.2823
 70
    64
  0
VERTEX
  5
10E
  8
TEAM-NET
 10
146.748639
 20
-145.635698
 30
734.445353
 70
    64
  0
VERTEX
  5
10F
  8
TEAM-NET
 10
124.310096
 20
-140.869243
 30
722.938112
 70
    64
  0
VERTEX
  5
110
  8
TEAM-NET
 10
100.684074
 20
-137.031958
 30
713.674086
 70
    64
  0
VERTEX
  5
111
  8
TEAM-NET
 10
76.196539
 20
-134.088216
 30
706.567266
 70
    64
  0
VERTEX
  5
112
  8
TEAM-NET
 10
51.110474
 20
-132.007912
 30
701.544967
 70
    64
  0
VERTEX
  5
113
  8
TEAM-NET
 10
25.646634
 20
-130.768769
 30
698.553411
 70
    64
  0
VERTEX
  5
114
  8
TEAM-NET
 10
0.0
 20
-130.357234
 30
697.559877
 70
    64
  0
VERTEX
  5
115
  8
TEAM-NET
 10
-25.646634
 20
-130.768769
 30
698.553411
 70
    64
  0
VERTEX
  5
116
  8
TEAM-NET
 10
-51.110474
 20
-132.007912
 30
701.544967
 70
    64
  0
VERTEX
  5
117
  8
TEAM-NET
 10
-76.196539
 20
-134.088216
 30
706.567266
 70
    64
  0
VERTEX
  5
118
  8
TEAM-NET
 10
-100.684074
 20
-137.031958
 30
713.674086
 70
    64
  0
VERTEX
  5
119
  8
TEAM-NET
 10
-124.310096
 20
-140.869243
 30
722.938112
 70
    64
  0
VERTEX
  5
11A
  8
TEAM-NET
 10
-146.748639
 20
-145.635698
 30
734.445353
 70
    64
  0
VERTEX
  5
11B
  8
TEAM-NET
 10
-167.584931
 20
-151.367149
 30
748.2823
 70
    64
  0
VERTEX
  5
11C
  8
TEAM-NET
 10
-186.286494
 20
-158.08848
 30
764.509029
 70
    64
  0
VERTEX
  5
11D
  8
TEAM-NET
 10
-202.180884
 20
-165.79256
 30
783.108323
 70
    64
  0
VERTEX
  5
11E
  8
TEAM-NET
 10
-214.466108
 20
-174.405943
 30
803.902868
 70
    64
  0
VERTEX
  5
11F
  8
TEAM-NET
 10
-222.299598
 20
-183.746634
 30
826.453291
 70
    64
  0
VERTEX
  5
120
  8
TEAM-NET
 10
-225.0
 20
-193.5
 30
850.0
 70
    64
  0
VERTEX
  5
121
  8
TEAM-NET
 10
225.0
 20
-193.5
 30
850.0
 70
    64
  0
VERTEX
  5
122
  8
TEAM-NET
 10
222.299598
 20
-186.903537
 30
825.381666
 70
    64
  0
VERTEX
  5
123
  8
TEAM-NET
 10
214.466108
 20
-180.586178
 30
801.804961
 70
    64
  0
VERTEX
  5
124
  8
TEAM-NET
 10
202.180884
 20
-174.760717
 30
780.064044
 70
    64
  0
VERTEX
  5
125
  8
TEAM-NET
 10
186.286494
 20
-169.550242
 30
760.618285
 70
    64
  0
VERTEX
  5
126
  8
TEAM-NET
 10
167.584931
 20
-165.004426
 30
743.653069
 70
    64
  0
VERTEX
  5
127
  8
TEAM-NET
 10
146.748639
 20
-161.128092
 30
729.186394
 70
    64
  0
VERTEX
  5
128
  8
TEAM-NET
 10
124.310096
 20
-157.904411
 30
717.155452
 70
    64
  0
VERTEX
  5
129
  8
TEAM-NET
 10
100.684074
 20
-155.309152
 30
707.469815
 70
    64
  0
VERTEX
  5
12A
  8
TEAM-NET
 10
76.196539
 20
-153.318221
 30
700.039559
 70
    64
  0
VERTEX
  5
12B
  8
TEAM-NET
 10
51.110474
 20
-151.911256
 30
694.788693
 70
    64
  0
VERTEX
  5
12C
  8
TEAM-NET
 10
25.646634
 20
-151.07319
 30
691.660989
 70
    64
  0
VERTEX
  5
12D
  8
TEAM-NET
 10
0.0
 20
-150.794858
 30
690.622239
 70
    64
  0
VERTEX
  5
12E
  8
TEAM-NET
 10
-25.646634
 20
-151.07319
 30
691.660989
 70
    64
  0
VERTEX
  5
12F
  8
TEAM-NET
 10
-51.110474
 20
-151.911256
 30
694.788693
 70
    64
  0
VERTEX
  5
130
  8
TEAM-NET
 10
-76.196539
 20
-153.318221
 30
700.039559
 70
    64
  0
VERTEX
  5
131
  8
TEAM-NET
 10
-100.684074
 20
-155.309152
 30
707.469815
 70
    64
  0
VERTEX
  5
132
  8
TEAM-NET
 10
-124.310096
 20
-157.904411
 30
717.155452
 70
    64
  0
VERTEX
  5
133
  8
TEAM-NET
 10
-146.748639
 20
-161.128092
 30
729.186394
 70
    64
  0
VERTEX
  5
134
  8
TEAM-NET
 10
-167.584931
 20
-165.004426
 30
743.653069
 70
    64
  0
VERTEX
  5
135
  8
TEAM-NET
 10
-186.286494
 20
-169.550242
 30
760.618285
 70
    64
  0
VERTEX
  5
136
  8
TEAM-NET
 10
-202.180884
 20
-174.760717
 30
780.064044
 70
    64
  0
VERTEX
  5
137
  8
TEAM-NET
 10
-214.466108
 20
-180.586178
 30
801.804961
 70
    64
  0
VERTEX
  5
138
  8
TEAM-NET
 10
-222.299598
 20
-186.903537
 30
825.381666
 70
    64
  0
VERTEX
  5
139
  8
TEAM-NET
 10
-225.0
 20
-193.5
 30
850.0
 70
    64
  0
VERTEX
  5
13A
  8
TEAM-NET
 10
225.0
 20
-193.5
 30
850.0
 70
    64
  0
VERTEX
  5
13B
  8
TEAM-NET
 10
222.299598
 20
-190.173308
 30
824.731268
 70
    64
  0
VERTEX
  5
13C
  8
TEAM-NET
 10
214.466108
 20
-186.987373
 30
800.531684
 70
    64
  0
VERTEX
  5
13D
  8
TEAM-NET
 10
202.180884
 20
-184.049508
 30
778.216388
 70
    64
  0
VERTEX
  5
13E
  8
TEAM-NET
 10
186.286494
 20
-181.42179
 30
758.256887
 70
    64
  0
VERTEX
  5
13F
  8
TEAM-NET
 10
167.584931
 20
-179.129269
 30
740.843463
 70
    64
  0
VERTEX
  5
140
  8
TEAM-NET
 10
146.748639
 20
-177.174378
 30
725.994589
 70
    64
  0
VERTEX
  5
141
  8
TEAM-NET
 10
124.310096
 20
-175.548629
 30
713.645798
 70
    64
  0
VERTEX
  5
142
  8
TEAM-NET
 10
100.684074
 20
-174.239802
 30
703.704274
 70
    64
  0
VERTEX
  5
143
  8
TEAM-NET
 10
76.196539
 20
-173.235747
 30
696.077717
 70
    64
  0
VERTEX
  5
144
  8
TEAM-NET
 10
51.110474
 20
-172.526194
 30
690.688127
 70
    64
  0
VERTEX
  5
145
  8
TEAM-NET
 10
25.646634
 20
-172.103545
 30
687.477791
 70
    64
  0
VERTEX
  5
146
  8
TEAM-NET
 10
0.0
 20
-171.963178
 30
686.411598
 70
    64
  0
VERTEX
  5
147
  8
TEAM-NET
 10
-25.646634
 20
-172.103545
 30
687.477791
 70
    64
  0
VERTEX
  5
148
  8
TEAM-NET
 10
-51.110474
 20
-172.526194
 30
690.688127
 70
    64
  0
VERTEX
  5
149
  8
TEAM-NET
 10
-76.196539
 20
-173.235747
 30
696.077717
 70
    64
  0
VERTEX
  5
14A
  8
TEAM-NET
 10
-100.684074
 20
-174.239802
 30
703.704274
 70
    64
  0
VERTEX
  5
14B
  8
TEAM-NET
 10
-124.310096
 20
-175.548629
 30
713.645798
 70
    64
  0
VERTEX
  5
14C
  8
TEAM-NET
 10
-146.748639
 20
-177.174378
 30
725.994589
 70
    64
  0
VERTEX
  5
14D
  8
TEAM-NET
 10
-167.584931
 20
-179.129269
 30
740.843463
 70
    64
  0
VERTEX
  5
14E
  8
TEAM-NET
 10
-186.286494
 20
-181.42179
 30
758.256887
 70
    64
  0
VERTEX
  5
14F
  8
TEAM-NET
 10
-202.180884
 20
-184.049508
 30
778.216388
 70
    64
  0
VERTEX
  5
150
  8
TEAM-NET
 10
-214.466108
 20
-186.987373
 30
800.531684
 70
    64
  0
VERTEX
  5
151
  8
TEAM-NET
 10
-222.299598
 20
-190.173308
 30
824.731268
 70
    64
  0
VERTEX
  5
152
  8
TEAM-NET
 10
-225.0
 20
-193.5
 30
850.0
 70
    64
  0
VERTEX
  5
153
  8
TEAM-NET
 10
225.0
 20
-193.5
 30
850.0
 70
    64
  0
VERTEX
  5
154
  8
TEAM-NET
 10
222.299598
 20
-193.5
 30
824.513226
 70
    64
  0
VERTEX
  5
155
  8
TEAM-NET
 10
214.466108
 20
-193.5
 30
800.104824
 70
    64
  0
VERTEX
  5
156
  8
TEAM-NET
 10
202.180884
 20
-193.5
 30
777.59697
 70
    64
  0
VERTEX
  5
157
  8
TEAM-NET
 10
186.286494
 20
-193.5
 30
757.46524
 70
    64
  0
VERTEX
  5
158
  8
TEAM-NET
 10
167.584931
 20
-193.5
 30
739.901555
 70
    64
  0
VERTEX
  5
159
  8
TEAM-NET
 10
146.748639
 20
-193.5
 30
724.924551
 70
    64
  0
VERTEX
  5
15A
  8
TEAM-NET
 10
124.310096
 20
-193.5
 30
712.469203
 70
    64
  0
VERTEX
  5
15B
  8
TEAM-NET
 10
100.684074
 20
-193.5
 30
702.441894
 70
    64
  0
VERTEX
  5
15C
  8
TEAM-NET
 10
76.196539
 20
-193.5
 30
694.749527
 70
    64
  0
VERTEX
  5
15D
  8
TEAM-NET
 10
51.110474
 20
-193.5
 30
689.313431
 70
    64
  0
VERTEX
  5
15E
  8
TEAM-NET
 10
25.646634
 20
-193.5
 30
686.075393
 70
    64
  0
VERTEX
  5
15F
  8
TEAM-NET
 10
0.0
 20
-193.5
 30
685.0
 70
    64
  0
VERTEX
  5
160
  8
TEAM-NET
 10
-25.646634
 20
-193.5
 30
686.075393
 70
    64
  0
VERTEX
  5
161
  8
TEAM-NET
 10
-51.110474
 20
-193.5
 30
689.313431
 70
    64
  0
VERTEX
  5
162
  8
TEAM-NET
 10
-76.196539
 20
-193.5
 30
694.749527
 70
    64
  0
VERTEX
  5
163
  8
TEAM-NET
 10
-100.684074
 20
-193.5
 30
702.441894
 70
    64
  0
VERTEX
  5
164
  8
TEAM-NET
 10
-124.310096
 20
-193.5
 30
712.469203
 70
    64
  0
VERTEX
  5
165
  8
TEAM-NET
 10
-146.748639
 20
-193.5
 30
724.924551
 70
    64
  0
VERTEX
  5
166
  8
TEAM-NET
 10
-167.584931
 20
-193.5
 30
739.901555
 70
    64
  0
VERTEX
  5
167
  8
TEAM-NET
 10
-186.286494
 20
-193.5
 30
757.46524
 70
    64
  0
VERTEX
  5
168
  8
TEAM-NET
 10
-202.180884
 20
-193.5
 30
777.59697
 70
    64
  0
VERTEX
  5
169
  8
TEAM-NET
 10
-214.466108
 20
-193.5
 30
800.104824
 70
    64
  0
VERTEX
  5
16A
  8
TEAM-NET
 10
-222.299598
 20
-193.5
 30
824.513226
 70
    64
  0
VERTEX
  5
16B
  8
TEAM-NET
 10
-225.0
 20
-193.5
 30
850.0
 70
    64
  0
VERTEX
  5
16C
  8
TEAM-NET
 10
225.0
 20
-193.5
 30
850.0
 70
    64
  0
VERTEX
  5
16D
  8
TEAM-NET
 10
222.299598
 20
-196.826692
 30
824.731268
 70
    64
  0
VERTEX
  5
16E
  8
TEAM-NET
 10
214.466108
 20
-200.012627
 30
800.531684
 70
    64
  0
VERTEX
  5
16F
  8
TEAM-NET
 10
202.180884
 20
-202.950492
 30
778.216388
 70
    64
  0
VERTEX
  5
170
  8
TEAM-NET
 10
186.286494
 20
-205.57821
 30
758.256887
 70
    64
  0
VERTEX
  5
171
  8
TEAM-NET
 10
167.584931
 20
-207.870731
 30
740.843463
 70
    64
  0
VERTEX
  5
172
  8
TEAM-NET
 10
146.748639
 20
-209.825622
 30
725.994589
 70
    64
  0
VERTEX
  5
173
  8
TEAM-NET
 10
124.310096
 20
-211.451371
 30
713.645798
 70
    64
  0
VERTEX
  5
174
  8
TEAM-NET
 10
100.684074
 20
-212.760198
 30
703.704274
 70
    64
  0
VERTEX
  5
175
  8
TEAM-NET
 10
76.196539
 20
-213.764253
 30
696.077717
 70
    64
  0
VERTEX
  5
176
  8
TEAM-NET
 10
51.110474
 20
-214.473806
 30
690.688127
 70
    64
  0
VERTEX
  5
177
  8
TEAM-NET
 10
25.646634
 20
-214.896455
 30
687.477791
 70
    64
  0
VERTEX
  5
178
  8
TEAM-NET
 10
0.0
 20
-215.036822
 30
686.411598
 70
    64
  0
VERTEX
  5
179
  8
TEAM-NET
 10
-25.646634
 20
-214.896455
 30
687.477791
 70
    64
  0
VERTEX
  5
17A
  8
TEAM-NET
 10
-51.110474
 20
-214.473806
 30
690.688127
 70
    64
  0
VERTEX
  5
17B
  8
TEAM-NET
 10
-76.196539
 20
-213.764253
 30
696.077717
 70
    64
  0
VERTEX
  5
17C
  8
TEAM-NET
 10
-100.684074
 20
-212.760198
 30
703.704274
 70
    64
  0
VERTEX
  5
17D
  8
TEAM-NET
 10
-124.310096
 20
-211.451371
 30
713.645798
 70
    64
  0
VERTEX
  5
17E
  8
TEAM-NET
 10
-146.748639
 20
-209.825622
 30
725.994589
 70
    64
  0
VERTEX
  5
17F
  8
TEAM-NET
 10
-167.584931
 20
-207.870731
 30
740.843463
 70
    64
  0
VERTEX
  5
180
  8
TEAM-NET
 10
-186.286494
 20
-205.57821
 30
758.256887
 70
    64
  0
VERTEX
  5
181
  8
TEAM-NET
 10
-202.180884
 20
-202.950492
 30
778.216388
 70
    64
  0
VERTEX
  5
182
  8
TEAM-NET
 10
-214.466108
 20
-200.012627
 30
800.531684
 70
    64
  0
VERTEX
  5
183
  8
TEAM-NET
 10
-222.299598
 20
-196.826692
 30
824.731268
 70
    64
  0
VERTEX
  5
184
  8
TEAM-NET
 10
-225.0
 20
-193.5
 30
850.0
 70
    64
  0
VERTEX
  5
185
  8
TEAM-NET
 10
225.0
 20
-193.5
 30
850.0
 70
    64
  0
VERTEX
  5
186
  8
TEAM-NET
 10
222.299598
 20
-200.096463
 30
825.381666
 70
    64
  0
VERTEX
  5
187
  8
TEAM-NET
 10
214.466108
 20
-206.413822
 30
801.804961
 70
    64
  0
VERTEX
  5
188
  8
TEAM-NET
 10
202.180884
 20
-212.239283
 30
780.064044
 70
    64
  0
VERTEX
  5
189
  8
TEAM-NET
 10
186.286494
 20
-217.449758
 30
760.618285
 70
    64
  0
VERTEX
  5
18A
  8
TEAM-NET
 10
167.584931
 20
-221.995574
 30
743.653069
 70
    64
  0
VERTEX
  5
18B
  8
TEAM-NET
 10
146.748639
 20
-225.871908
 30
729.186394
 70
    64
  0
VERTEX
  5
18C
  8
TEAM-NET
 10
124.310096
 20
-229.095589
 30
717.155452
 70
    64
  0
VERTEX
  5
18D
  8
TEAM-NET
 10
100.684074
 20
-231.690848
 30
707.469815
 70
    64
  0
VERTEX
  5
18E
  8
TEAM-NET
 10
76.196539
 20
-233.681779
 30
700.039559
 70
    64
  0
VERTEX
  5
18F
  8
TEAM-NET
 10
51.110474
 20
-235.088744
 30
694.788693
 70
    64
  0
VERTEX
  5
190
  8
TEAM-NET
 10
25.646634
 20
-235.92681
 30
691.660989
 70
    64
  0
VERTEX
  5
191
  8
TEAM-NET
 10
0.0
 20
-236.205142
 30
690.622239
 70
    64
  0
VERTEX
  5
192
  8
TEAM-NET
 10
-25.646634
 20
-235.92681
 30
691.660989
 70
    64
  0
VERTEX
  5
193
  8
TEAM-NET
 10
-51.110474
 20
-235.088744
 30
694.788693
 70
    64
  0
VERTEX
  5
194
  8
TEAM-NET
 10
-76.196539
 20
-233.681779
 30
700.039559
 70
    64
  0
VERTEX
  5
195
  8
TEAM-NET
 10
-100.684074
 20
-231.690848
 30
707.469815
 70
    64
  0
VERTEX
  5
196
  8
TEAM-NET
 10
-124.310096
 20
-229.095589
 30
717.155452
 70
    64
  0
VERTEX
  5
197
  8
TEAM-NET
 10
-146.748639
 20
-225.871908
 30
729.186394
 70
    64
  0
VERTEX
  5
198
  8
TEAM-NET
 10
-167.584931
 20
-221.995574
 30
743.653069
 70
    64
  0
VERTEX
  5
199
  8
TEAM-NET
 10
-186.286494
 20
-217.449758
 30
760.618285
 70
    64
  0
VERTEX
  5
19A
  8
TEAM-NET
 10
-202.180884
 20
-212.239283
 30
780.064044
 70
    64
  0
VERTEX
  5
19B
  8
TEAM-NET
 10
-214.466108
 20
-206.413822
 30
801.804961
 70
    64
  0
VERTEX
  5
19C
  8
TEAM-NET
 10
-222.299598
 20
-200.096463
 30
825.381666
 70
    64
  0
VERTEX
  5
19D
  8
TEAM-NET
 10
-225.0
 20
-193.5
 30
850.0
 70
    64
  0
VERTEX
  5
19E
  8
TEAM-NET
 10
225.0
 20
-193.5
 30
850.0
 70
    64
  0
VERTEX
  5
19F
  8
TEAM-NET
 10
222.299598
 20
-203.253366
 30
826.453291
 70
    64
  0
VERTEX
  5
1A0
  8
TEAM-NET
 10
214.466108
 20
-212.594057
 30
803.902868
 70
    64
  0
VERTEX
  5
1A1
  8
TEAM-NET
 10
202.180884
 20
-221.20744
 30
783.108323
 70
    64
  0
VERTEX
  5
1A2
  8
TEAM-NET
 10
186.286494
 20
-228.91152
 30
764.509029
 70
    64
  0
VERTEX
  5
1A3
  8
TEAM-NET
 10
167.584931
 20
-235.632851
 30
748.2823
 70
    64
  0
VERTEX
  5
1A4
  8
TEAM-NET
 10
146.748639
 20
-241.364302
 30
734.445353
 70
    64
  0
VERTEX
  5
1A5
  8
TEAM-NET
 10
124.310096
 20
-246.130757
 30
722.938112
 70
    64
  0
VERTEX
  5
1A6
  8
TEAM-NET
 10
100.684074
 20
-249.968042
 30
713.674086
 70
    64
  0
VERTEX
  5
1A7
  8
TEAM-NET
 10
76.196539
 20
-252.911784
 30
706.567266
 70
    64
  0
VERTEX
  5
1A8
  8
TEAM-NET
 10
51.110474
 20
-254.992088
 30
701.544967
 70
    64
  0
VERTEX
  5
1A9
  8
TEAM-NET
 10
25.646634
 20
-256.231231
 30
698.553411
 70
    64
  0
VERTEX
  5
1AA
  8
TEAM-NET
 10
0.0
 20
-256.642766
 30
697.559877
 70
    64
  0
VERTEX
  5
1AB
  8
TEAM-NET
 10
-25.646634
 20
-256.231231
 30
698.553411
 70
    64
  0
VERTEX
  5
1AC
  8
TEAM-NET
 10
-51.110474
 20
-254.992088
 30
701.544967
 70
    64
  0
VERTEX
  5
1AD
  8
TEAM-NET
 10
-76.196539
 20
-252.911784
 30
706.567266
 70
    64
  0
VERTEX
  5
1AE
  8
TEAM-NET
 10
-100.684074
 20
-249.968042
 30
713.674086
 70
    64
  0
VERTEX
  5
1AF
  8
TEAM-NET
 10
-124.310096
 20
-246.130757
 30
722.938112
 70
    64
  0
VERTEX
  5
1B0
  8
TEAM-NET
 10
-146.748639
 20
-241.364302
 30
734.445353
 70
    64
  0
VERTEX
  5
1B1
  8
TEAM-NET
 10
-167.584931
 20
-235.632851
 30
748.2823
 70
    64
  0
VERTEX
  5
1B2
  8
TEAM-NET
 10
-186.286494
 20
-228.91152
 30
764.509029
 70
    64
  0
VERTEX
  5
1B3
  8
TEAM-NET
 10
-202.180884
 20
-221.20744
 30
783.108323
 70
    64
  0
VERTEX
  5
1B4
  8
TEAM-NET
 10
-214.466108
 20
-212.594057
 30
803.902868
 70
    64
  0
VERTEX
  5
1B5
  8
TEAM-NET
 10
-222.299598
 20
-203.253366
 30
826.453291
 70
    64
  0
VERTEX
  5
1B6
  8
TEAM-NET
 10
-225.0
 20
-193.5
 30
850.0
 70
    64
  0
VERTEX
  5
1B7
  8
TEAM-NET
 10
225.0
 20
-193.5
 30
850.0
 70
    64
  0
VERTEX
  5
1B8
  8
TEAM-NET
 10
222.299598
 20
-206.243387
 30
827.927806
 70
    64
  0
VERTEX
  5
1B9
  8
TEAM-NET
 10
214.466108
 20
-218.447588
 30
806.78951
 70
    64
  0
VERTEX
  5
1BA
  8
TEAM-NET
 10
202.180884
 20
-229.701515
 30
787.297137
 70
    64
  0
VERTEX
  5
1BB
  8
TEAM-NET
 10
186.286494
 20
-239.76738
 30
769.862547
 70
    64
  0
VERTEX
  5
1BC
  8
TEAM-NET
 10
167.584931
 20
-248.549222
 30
754.65195
 70
    64
  0
VERTEX
  5
1BD
  8
TEAM-NET
 10
146.748639
 20
-256.037724
 30
741.681484
 70
    64
  0
VERTEX
  5
1BE
  8
TEAM-NET
 10
124.310096
 20
-262.265398
 30
730.894836
 70
    64
  0
VERTEX
  5
1BF
  8
TEAM-NET
 10
100.684074
 20
-267.279053
 30
722.210932
 70
    64
  0
VERTEX
  5
1C0
  8
TEAM-NET
 10
76.196539
 20
-271.125236
 30
715.549147
 70
    64
  0
VERTEX
  5
1C1
  8
TEAM-NET
 10
51.110474
 20
-273.843285
 30
710.841349
 70
    64
  0
VERTEX
  5
1C2
  8
TEAM-NET
 10
25.646634
 20
-275.462303
 30
708.037126
 70
    64
  0
VERTEX
  5
1C3
  8
TEAM-NET
 10
0.0
 20
-276.0
 30
707.105808
 70
    64
  0
VERTEX
  5
1C4
  8
TEAM-NET
 10
-25.646634
 20
-275.462303
 30
708.037126
 70
    64
  0
VERTEX
  5
1C5
  8
TEAM-NET
 10
-51.110474
 20
-273.843285
 30
710.841349
 70
    64
  0
VERTEX
  5
1C6
  8
TEAM-NET
 10
-76.196539
 20
-271.125236
 30
715.549147
 70
    64
  0
VERTEX
  5
1C7
  8
TEAM-NET
 10
-100.684074
 20
-267.279053
 30
722.210932
 70
    64
  0
VERTEX
  5
1C8
  8
TEAM-NET
 10
-124.310096
 20
-262.265398
 30
730.894836
 70
    64
  0
VERTEX
  5
1C9
  8
TEAM-NET
 10
-146.748639
 20
-256.037724
 30
741.681484
 70
    64
  0
VERTEX
  5
1CA
  8
TEAM-NET
 10
-167.584931
 20
-248.549222
 30
754.65195
 70
    64
  0
VERTEX
  5
1CB
  8
TEAM-NET
 10
-186.286494
 20
-239.76738
 30
769.862547
 70
    64
  0
VERTEX
  5
1CC
  8
TEAM-NET
 10
-202.180884
 20
-229.701515
 30
787.297137
 70
    64
  0
VERTEX
  5
1CD
  8
TEAM-NET
 10
-214.466108
 20
-218.447588
 30
806.78951
 70
    64
  0
VERTEX
  5
1CE
  8
TEAM-NET
 10
-222.299598
 20
-206.243387
 30
827.927806
 70
    64
  0
VERTEX
  5
1CF
  8
TEAM-NET
 10
-225.0
 20
-193.5
 30
850.0
 70
    64
  0
VERTEX
  5
1D0
  8
TEAM-NET
 10
225.0
 20
-193.5
 30
850.0
 70
    64
  0
VERTEX
  5
1D1
  8
TEAM-NET
 10
222.299598
 20
-209.015365
 30
829.779982
 70
    64
  0
VERTEX
  5
1D2
  8
TEAM-NET
 10
214.466108
 20
-223.874259
 30
810.415495
 70
    64
  0
VERTEX
  5
1D3
  8
TEAM-NET
 10
202.180884
 20
-237.576172
 30
792.558815
 70
    64
  0
VERTEX
  5
1D4
  8
TEAM-NET
 10
186.286494
 20
-249.831593
 30
776.587239
 70
    64
  0
VERTEX
  5
1D5
  8
TEAM-NET
 10
167.584931
 20
-260.523686
 30
762.653031
 70
    64
  0
VERTEX
  5
1D6
  8
TEAM-NET
 10
146.748639
 20
-269.641109
 30
750.770975
 70
    64
  0
VERTEX
  5
1D7
  8
TEAM-NET
 10
124.310096
 20
-277.223444
 30
740.889483
 70
    64
  0
VERTEX
  5
1D8
  8
TEAM-NET
 10
100.684074
 20
-283.327683
 30
732.934284
 70
    64
  0
VERTEX
  5
1D9
  8
TEAM-NET
 10
76.196539
 20
-288.0105
 30
726.831519
 70
    64
  0
VERTEX
  5
1DA
  8
TEAM-NET
 10
51.110474
 20
-291.319786
 30
722.518773
 70
    64
  0
VERTEX
  5
1DB
  8
TEAM-NET
 10
25.646634
 20
-293.290978
 30
719.949866
 70
    64
  0
VERTEX
  5
1DC
  8
TEAM-NET
 10
0.0
 20
-293.945636
 30
719.096699
 70
    64
  0
VERTEX
  5
1DD
  8
TEAM-NET
 10
-25.646634
 20
-293.290978
 30
719.949866
 70
    64
  0
VERTEX
  5
1DE
  8
TEAM-NET
 10
-51.110474
 20
-291.319786
 30
722.518773
 70
    64
  0
VERTEX
  5
1DF
  8
TEAM-NET
 10
-76.196539
 20
-288.0105
 30
726.831519
 70
    64
  0
VERTEX
  5
1E0
  8
TEAM-NET
 10
-100.684074
 20
-283.327683
 30
732.934284
 70
    64
  0
VERTEX
  5
1E1
  8
TEAM-NET
 10
-124.310096
 20
-277.223444
 30
740.889483
 70
    64
  0
VERTEX
  5
1E2
  8
TEAM-NET
 10
-146.748639
 20
-269.641109
 30
750.770975
 70
    64
  0
VERTEX
  5
1E3
  8
TEAM-NET
 10
-167.584931
 20
-260.523686
 30
762.653031
 70
    64
  0
VERTEX
  5
1E4
  8
TEAM-NET
 10
-186.286494
 20
-249.831593
 30
776.587239
 70
    64
  0
VERTEX
  5
1E5
  8
TEAM-NET
 10
-202.180884
 20
-237.576172
 30
792.558815
 70
    64
  0
VERTEX
  5
1E6
  8
TEAM-NET
 10
-214.466108
 20
-223.874259
 30
810.415495
 70
    64
  0
VERTEX
  5
1E7
  8
TEAM-NET
 10
-222.299598
 20
-209.015365
 30
829.779982
 70
    64
  0
VERTEX
  5
1E8
  8
TEAM-NET
 10
-225.0
 20
-193.5
 30
850.0
 70
    64
  0
VERTEX
  5
1E9
  8
TEAM-NET
 10
225.0
 20
-193.5
 30
850.0
 70
    64
  0
VERTEX
  5
1EA
  8
TEAM-NET
 10
222.299598
 20
-211.521871
 30
831.978129
 70
    64
  0
VERTEX
  5
1EB
  8
TEAM-NET
 10
214.466108
 20
-228.781217
 30
814.718783
 70
    64
  0
VERTEX
  5
1EC
  8
TEAM-NET
 10
202.180884
 20
-244.696673
 30
798.803327
 70
    64
  0
VERTEX
  5
1ED
  8
TEAM-NET
 10
186.286494
 20
-258.931956
 30
784.568044
 70
    64
  0
VERTEX
  5
1EE
  8
TEAM-NET
 10
167.584931
 20
-271.351357
 30
772.148643
 70
    64
  0
VERTEX
  5
1EF
  8
TEAM-NET
 10
146.748639
 20
-281.941698
 30
761.558302
 70
    64
  0
VERTEX
  5
1F0
  8
TEAM-NET
 10
124.310096
 20
-290.748959
 30
752.751041
 70
    64
  0
VERTEX
  5
1F1
  8
TEAM-NET
 10
100.684074
 20
-297.839337
 30
745.660663
 70
    64
  0
VERTEX
  5
1F2
  8
TEAM-NET
 10
76.196539
 20
-303.278662
 30
740.221338
 70
    64
  0
VERTEX
  5
1F3
  8
TEAM-NET
 10
51.110474
 20
-307.122563
 30
736.377437
 70
    64
  0
VERTEX
  5
1F4
  8
TEAM-NET
 10
25.646634
 20
-309.412201
 30
734.087799
 70
    64
  0
VERTEX
  5
1F5
  8
TEAM-NET
 10
0.0
 20
-310.172619
 30
733.327381
 70
    64
  0
VERTEX
  5
1F6
  8
TEAM-NET
 10
-25.646634
 20
-309.412201
 30
734.087799
 70
    64
  0
VERTEX
  5
1F7
  8
TEAM-NET
 10
-51.110474
 20
-307.122563
 30
736.377437
 70
    64
  0
VERTEX
  5
1F8
  8
TEAM-NET
 10
-76.196539
 20
-303.278662
 30
740.221338
 70
    64
  0
VERTEX
  5
1F9
  8
TEAM-NET
 10
-100.684074
 20
-297.839337
 30
745.660663
 70
    64
  0
VERTEX
  5
1FA
  8
TEAM-NET
 10
-124.310096
 20
-290.748959
 30
752.751041
 70
    64
  0
VERTEX
  5
1FB
  8
TEAM-NET
 10
-146.748639
 20
-281.941698
 30
761.558302
 70
    64
  0
VERTEX
  5
1FC
  8
TEAM-NET
 10
-167.584931
 20
-271.351357
 30
772.148643
 70
    64
  0
VERTEX
  5
1FD
  8
TEAM-NET
 10
-186.286494
 20
-258.931956
 30
784.568044
 70
    64
  0
VERTEX
  5
1FE
  8
TEAM-NET
 10
-202.180884
 20
-244.696673
 30
798.803327
 70
    64
  0
VERTEX
  5
1FF
  8
TEAM-NET
 10
-214.466108
 20
-228.781217
 30
814.718783
 70
    64
  0
VERTEX
  5
200
  8
TEAM-NET
 10
-222.299598
 20
-211.521871
 30
831.978129
 70
    64
  0
VERTEX
  5
201
  8
TEAM-NET
 10
-225.0
 20
-193.5
 30
850.0
 70
    64
  0
VERTEX
  5
202
  8
TEAM-NET
 10
225.0
 20
-193.5
 30
850.0
 70
    64
  0
VERTEX
  5
203
  8
TEAM-NET
 10
222.299598
 20
-213.720018
 30
834.484635
 70
    64
  0
VERTEX
  5
204
  8
TEAM-NET
 10
214.466108
 20
-233.084505
 30
819.625741
 70
    64
  0
VERTEX
  5
205
  8
TEAM-NET
 10
202.180884
 20
-250.941185
 30
805.923828
 70
    64
  0
VERTEX
  5
206
  8
TEAM-NET
 10
186.286494
 20
-266.912761
 30
793.668407
 70
    64
  0
VERTEX
  5
207
  8
TEAM-NET
 10
167.584931
 20
-280.846969
 30
782.976314
 70
    64
  0
VERTEX
  5
208
  8
TEAM-NET
 10
146.748639
 20
-292.729025
 30
773.858891
 70
    64
  0
VERTEX
  5
209
  8
TEAM-NET
 10
124.310096
 20
-302.610517
 30
766.276556
 70
    64
  0
VERTEX
  5
20A
  8
TEAM-NET
 10
100.684074
 20
-310.565716
 30
760.172317
 70
    64
  0
VERTEX
  5
20B
  8
TEAM-NET
 10
76.196539
 20
-316.668481
 30
755.4895
 70
    64
  0
VERTEX
  5
20C
  8
TEAM-NET
 10
51.110474
 20
-320.981227
 30
752.180214
 70
    64
  0
VERTEX
  5
20D
  8
TEAM-NET
 10
25.646634
 20
-323.550134
 30
750.209022
 70
    64
  0
VERTEX
  5
20E
  8
TEAM-NET
 10
0.0
 20
-324.403301
 30
749.554364
 70
    64
  0
VERTEX
  5
20F
  8
TEAM-NET
 10
-25.646634
 20
-323.550134
 30
750.209022
 70
    64
  0
VERTEX
  5
210
  8
TEAM-NET
 10
-51.110474
 20
-320.981227
 30
752.180214
 70
    64
  0
VERTEX
  5
211
  8
TEAM-NET
 10
-76.196539
 20
-316.668481
 30
755.4895
 70
    64
  0
VERTEX
  5
212
  8
TEAM-NET
 10
-100.684074
 20
-310.565716
 30
760.172317
 70
    64
  0
VERTEX
  5
213
  8
TEAM-NET
 10
-124.310096
 20
-302.610517
 30
766.276556
 70
    64
  0
VERTEX
  5
214
  8
TEAM-NET
 10
-146.748639
 20
-292.729025
 30
773.858891
 70
    64
  0
VERTEX
  5
215
  8
TEAM-NET
 10
-167.584931
 20
-280.846969
 30
782.976314
 70
    64
  0
VERTEX
  5
216
  8
TEAM-NET
 10
-186.286494
 20
-266.912761
 30
793.668407
 70
    64
  0
VERTEX
  5
217
  8
TEAM-NET
 10
-202.180884
 20
-250.941185
 30
805.923828
 70
    64
  0
VERTEX
  5
218
  8
TEAM-NET
 10
-214.466108
 20
-233.084505
 30
819.625741
 70
    64
  0
VERTEX
  5
219
  8
TEAM-NET
 10
-222.299598
 20
-213.720018
 30
834.484635
 70
    64
  0
VERTEX
  5
21A
  8
TEAM-NET
 10
-225.0
 20
-193.5
 30
850.0
 70
    64
  0
VERTEX
  5
21B
  8
TEAM-NET
 10
225.0
 20
-193.5
 30
850.0
 70
    64
  0
VERTEX
  5
21C
  8
TEAM-NET
 10
222.299598
 20
-215.572194
 30
837.256613
 70
    64
  0
VERTEX
  5
21D
  8
TEAM-NET
 10
214.466108
 20
-236.71049
 30
825.052412
 70
    64
  0
VERTEX
  5
21E
  8
TEAM-NET
 10
202.180884
 20
-256.202863
 30
813.798485
 70
    64
  0
VERTEX
  5
21F
  8
TEAM-NET
 10
186.286494
 20
-273.637453
 30
803.73262
 70
    64
  0
VERTEX
  5
220
  8
TEAM-NET
 10
167.584931
 20
-288.84805
 30
794.950778
 70
    64
  0
VERTEX
  5
221
  8
TEAM-NET
 10
146.748639
 20
-301.818516
 30
787.462276
 70
    64
  0
VERTEX
  5
222
  8
TEAM-NET
 10
124.310096
 20
-312.605164
 30
781.234602
 70
    64
  0
VERTEX
  5
223
  8
TEAM-NET
 10
100.684074
 20
-321.289068
 30
776.220947
 70
    64
  0
VERTEX
  5
224
  8
TEAM-NET
 10
76.196539
 20
-327.950853
 30
772.374764
 70
    64
  0
VERTEX
  5
225
  8
TEAM-NET
 10
51.110474
 20
-332.658651
 30
769.656715
 70
    64
  0
VERTEX
  5
226
  8
TEAM-NET
 10
25.646634
 20
-335.462874
 30
768.037697
 70
    64
  0
VERTEX
  5
227
  8
TEAM-NET
 10
0.0
 20
-336.394192
 30
767.5
 70
    64
  0
VERTEX
  5
228
  8
TEAM-NET
 10
-25.646634
 20
-335.462874
 30
768.037697
 70
    64
  0
VERTEX
  5
229
  8
TEAM-NET
 10
-51.110474
 20
-332.658651
 30
769.656715
 70
    64
  0
VERTEX
  5
22A
  8
TEAM-NET
 10
-76.196539
 20
-327.950853
 30
772.374764
 70
    64
  0
VERTEX
  5
22B
  8
TEAM-NET
 10
-100.684074
 20
-321.289068
 30
776.220947
 70
    64
  0
VERTEX
  5
22C
  8
TEAM-NET
 10
-124.310096
 20
-312.605164
 30
781.234602
 70
    64
  0
VERTEX
  5
22D
  8
TEAM-NET
 10
-146.748639
 20
-301.818516
 30
787.462276
 70
    64
  0
VERTEX
  5
22E
  8
TEAM-NET
 10
-167.584931
 20
-288.84805
 30
794.950778
 70
    64
  0
VERTEX
  5
22F
  8
TEAM-NET
 10
-186.286494
 20
-273.637453
 30
803.73262
 70
    64
  0
VERTEX
  5
230
  8
TEAM-NET
 10
-202.180884
 20
-256.202863
 30
813.798485
 70
    64
  0
VERTEX
  5
231
  8
TEAM-NET
 10
-214.466108
 20
-236.71049
 30
825.052412
 70
    64
  0
VERTEX
  5
232
  8
TEAM-NET
 10
-222.299598
 20
-215.572194
 30
837.256613
 70
    64
  0
VERTEX
  5
233
  8
TEAM-NET
 10
-225.0
 20
-193.5
 30
850.0
 70
    64
  0
VERTEX
  5
234
  8
TEAM-NET
 10
225.0
 20
-193.5
 30
850.0
 70
    64
  0
VERTEX
  5
235
  8
TEAM-NET
 10
222.299598
 20
-217.046709
 30
840.246634
 70
    64
  0
VERTEX
  5
236
  8
TEAM-NET
 10
214.466108
 20
-239.597132
 30
830.905943
 70
    64
  0
VERTEX
  5
237
  8
TEAM-NET
 10
202.180884
 20
-260.391677
 30
822.29256
 70
    64
  0
VERTEX
  5
238
  8
TEAM-NET
 10
186.286494
 20
-278.990971
 30
814.58848
 70
    64
  0
VERTEX
  5
239
  8
TEAM-NET
 10
167.584931
 20
-295.2177
 30
807.867149
 70
    64
  0
VERTEX
  5
23A
  8
TEAM-NET
 10
146.748639
 20
-309.054647
 30
802.135698
 70
    64
  0
VERTEX
  5
23B
  8
TEAM-NET
 10
124.310096
 20
-320.561888
 30
797.369243
 70
    64
  0
VERTEX
  5
23C
  8
TEAM-NET
 10
100.684074
 20
-329.825914
 30
793.531958
 70
    64
  0
VERTEX
  5
23D
  8
TEAM-NET
 10
76.196539
 20
-336.932734
 30
790.588216
 70
    64
  0
VERTEX
  5
23E
  8
TEAM-NET
 10
51.110474
 20
-341.955033
 30
788.507912
 70
    64
  0
VERTEX
  5
23F
  8
TEAM-NET
 10
25.646634
 20
-344.946589
 30
787.268769
 70
    64
  0
VERTEX
  5
240
  8
TEAM-NET
 10
0.0
 20
-345.940123
 30
786.857234
 70
    64
  0
VERTEX
  5
241
  8
TEAM-NET
 10
-25.646634
 20
-344.946589
 30
787.268769
 70
    64
  0
VERTEX
  5
242
  8
TEAM-NET
 10
-51.110474
 20
-341.955033
 30
788.507912
 70
    64
  0
VERTEX
  5
243
  8
TEAM-NET
 10
-76.196539
 20
-336.932734
 30
790.588216
 70
    64
  0
VERTEX
  5
244
  8
TEAM-NET
 10
-100.684074
 20
-329.825914
 30
793.531958
 70
    64
  0
VERTEX
  5
245
  8
TEAM-NET
 10
-124.310096
 20
-320.561888
 30
797.369243
 70
    64
  0
VERTEX
  5
246
  8
TEAM-NET
 10
-146.748639
 20
-309.054647
 30
802.135698
 70
    64
  0
VERTEX
  5
247
  8
TEAM-NET
 10
-167.584931
 20
-295.2177
 30
807.867149
 70
    64
  0
VERTEX
  5
248
  8
TEAM-NET
 10
-186.286494
 20
-278.990971
 30
814.58848
 70
    64
  0
VERTEX
  5
249
  8
TEAM-NET
 10
-202.180884
 20
-260.391677
 30
822.29256
 70
    64
  0
VERTEX
  5
24A
  8
TEAM-NET
 10
-214.466108
 20
-239.597132
 30
830.905943
 70
    64
  0
VERTEX
  5
24B
  8
TEAM-NET
 10
-222.299598
 20
-217.046709
 30
840.246634
 70
    64
  0
VERTEX
  5
24C
  8
TEAM-NET
 10
-225.0
 20
-193.5
 30
850.0
 70
    64
  0
VERTEX
  5
24D
  8
TEAM-NET
 10
225.0
 20
-193.5
 30
850.0
 70
    64
  0
VERTEX
  5
24E
  8
TEAM-NET
 10
222.299598
 20
-218.118334
 30
843.403537
 70
    64
  0
VERTEX
  5
24F
  8
TEAM-NET
 10
214.466108
 20
-241.695039
 30
837.086178
 70
    64
  0
VERTEX
  5
250
  8
TEAM-NET
 10
202.180884
 20
-263.435956
 30
831.260717
 70
    64
  0
VERTEX
  5
251
  8
TEAM-NET
 10
186.286494
 20
-282.881715
 30
826.050242
 70
    64
  0
VERTEX
  5
252
  8
TEAM-NET
 10
167.584931
 20
-299.846931
 30
821.504426
 70
    64
  0
VERTEX
  5
253
  8
TEAM-NET
 10
146.748639
 20
-314.313606
 30
817.628092
 70
    64
  0
VERTEX
  5
254
  8
TEAM-NET
 10
124.310096
 20
-326.344548
 30
814.404411
 70
    64
  0
VERTEX
  5
255
  8
TEAM-NET
 10
100.684074
 20
-336.030185
 30
811.809152
 70
    64
  0
VERTEX
  5
256
  8
TEAM-NET
 10
76.196539
 20
-343.460441
 30
809.818221
 70
    64
  0
VERTEX
  5
257
  8
TEAM-NET
 10
51.110474
 20
-348.711307
 30
808.411256
 70
    64
  0
VERTEX
  5
258
  8
TEAM-NET
 10
25.646634
 20
-351.839011
 30
807.57319
 70
    64
  0
VERTEX
  5
259
  8
TEAM-NET
 10
0.0
 20
-352.877761
 30
807.294858
 70
    64
  0
VERTEX
  5
25A
  8
TEAM-NET
 10
-25.646634
 20
-351.839011
 30
807.57319
 70
    64
  0
VERTEX
  5
25B
  8
TEAM-NET
 10
-51.110474
 20
-348.711307
 30
808.411256
 70
    64
  0
VERTEX
  5
25C
  8
TEAM-NET
 10
-76.196539
 20
-343.460441
 30
809.818221
 70
    64
  0
VERTEX
  5
25D
  8
TEAM-NET
 10
-100.684074
 20
-336.030185
 30
811.809152
 70
    64
  0
VERTEX
  5
25E
  8
TEAM-NET
 10
-124.310096
 20
-326.344548
 30
814.404411
 70
    64
  0
VERTEX
  5
25F
  8
TEAM-NET
 10
-146.748639
 20
-314.313606
 30
817.628092
 70
    64
  0
VERTEX
  5
260
  8
TEAM-NET
 10
-167.584931
 20
-299.846931
 30
821.504426
 70
    64
  0
VERTEX
  5
261
  8
TEAM-NET
 10
-186.286494
 20
-282.881715
 30
826.050242
 70
    64
  0
VERTEX
  5
262
  8
TEAM-NET
 10
-202.180884
 20
-263.435956
 30
831.260717
 70
    64
  0
VERTEX
  5
263
  8
TEAM-NET
 10
-214.466108
 20
-241.695039
 30
837.086178
 70
    64
  0
VERTEX
  5
264
  8
TEAM-NET
 10
-222.299598
 20
-218.118334
 30
843.403537
 70
    64
  0
VERTEX
  5
265
  8
TEAM-NET
 10
-225.0
 20
-193.5
 30
850.0
 70
    64
  0
VERTEX
  5
266
  8
TEAM-NET
 10
225.0
 20
-193.5
 30
850.0
 70
    64
  0
VERTEX
  5
267
  8
TEAM-NET
 10
222.299598
 20
-218.768732
 30
846.673308
 70
    64
  0
VERTEX
  5
268
  8
TEAM-NET
 10
214.466108
 20
-242.968316
 30
843.487373
 70
    64
  0
VERTEX
  5
269
  8
TEAM-NET
 10
202.180884
 20
-265.283612
 30
840.549508
 70
    64
  0
VERTEX
  5
26A
  8
TEAM-NET
 10
186.286494
 20
-285.243113
 30
837.92179
 70
    64
  0
VERTEX
  5
26B
  8
TEAM-NET
 10
167.584931
 20
-302.656537
 30
835.629269
 70
    64
  0
VERTEX
  5
26C
  8
TEAM-NET
 10
146.748639
 20
-317.505411
 30
833.674378
 70
    64
  0
VERTEX
  5
26D
  8
TEAM-NET
 10
124.310096
 20
-329.854202
 30
832.048629
 70
    64
  0
VERTEX
  5
26E
  8
TEAM-NET
 10
100.684074
 20
-339.795726
 30
830.739802
 70
    64
  0
VERTEX
  5
26F
  8
TEAM-NET
 10
76.196539
 20
-347.422283
 30
829.735747
 70
    64
  0
VERTEX
  5
270
  8
TEAM-NET
 10
51.110474
 20
-352.811873
 30
829.026194
 70
    64
  0
VERTEX
  5
271
  8
TEAM-NET
 10
25.646634
 20
-356.022209
 30
828.603545
 70
    64
  0
VERTEX
  5
272
  8
TEAM-NET
 10
0.0
 20
-357.088402
 30
828.463178
 70
    64
  0
VERTEX
  5
273
  8
TEAM-NET
 10
-25.646634
 20
-356.022209
 30
828.603545
 70
    64
  0
VERTEX
  5
274
  8
TEAM-NET
 10
-51.110474
 20
-352.811873
 30
829.026194
 70
    64
  0
VERTEX
  5
275
  8
TEAM-NET
 10
-76.196539
 20
-347.422283
 30
829.735747
 70
    64
  0
VERTEX
  5
276
  8
TEAM-NET
 10
-100.684074
 20
-339.795726
 30
830.739802
 70
    64
  0
VERTEX
  5
277
  8
TEAM-NET
 10
-124.310096
 20
-329.854202
 30
832.048629
 70
    64
  0
VERTEX
  5
278
  8
TEAM-NET
 10
-146.748639
 20
-317.505411
 30
833.674378
 70
    64
  0
VERTEX
  5
279
  8
TEAM-NET
 10
-167.584931
 20
-302.656537
 30
835.629269
 70
    64
  0
VERTEX
  5
27A
  8
TEAM-NET
 10
-186.286494
 20
-285.243113
 30
837.92179
 70
    64
  0
VERTEX
  5
27B
  8
TEAM-NET
 10
-202.180884
 20
-265.283612
 30
840.549508
 70
    64
  0
VERTEX
  5
27C
  8
TEAM-NET
 10
-214.466108
 20
-242.968316
 30
843.487373
 70
    64
  0
VERTEX
  5
27D
  8
TEAM-NET
 10
-222.299598
 20
-218.768732
 30
846.673308
 70
    64
  0
VERTEX
  5
27E
  8
TEAM-NET
 10
-225.0
 20
-193.5
 30
850.0
 70
    64
  0
VERTEX
  5
27F
  8
TEAM-NET
 10
225.0
 20
-193.5
 30
850.0
 70
    64
  0
VERTEX
  5
280
  8
TEAM-NET
 10
222.299598
 20
-218.986774
 30
850.0
 70
    64
  0
VERTEX
  5
281
  8
TEAM-NET
 10
214.466108
 20
-243.395176
 30
850.0
 70
    64
  0
VERTEX
  5
282
  8
TEAM-NET
 10
202.180884
 20
-265.90303
 30
850.0
 70
    64
  0
VERTEX
  5
283
  8
TEAM-NET
 10
186.286494
 20
-286.03476
 30
850.0
 70
    64
  0
VERTEX
  5
284
  8
TEAM-NET
 10
167.584931
 20
-303.598445
 30
850.0
 70
    64
  0
VERTEX
  5
285
  8
TEAM-NET
 10
146.748639
 20
-318.575449
 30
850.0
 70
    64
  0
VERTEX
  5
286
  8
TEAM-NET
 10
124.310096
 20
-331.030797
 30
850.0
 70
    64
  0
VERTEX
  5
287
  8
TEAM-NET
 10
100.684074
 20
-341.058106
 30
850.0
 70
    64
  0
VERTEX
  5
288
  8
TEAM-NET
 10
76.196539
 20
-348.750473
 30
850.0
 70
    64
  0
VERTEX
  5
289
  8
TEAM-NET
 10
51.110474
 20
-354.186569
 30
850.0
 70
    64
  0
VERTEX
  5
28A
  8
TEAM-NET
 10
25.646634
 20
-357.424607
 30
850.0
 70
    64
  0
VERTEX
  5
28B
  8
TEAM-NET
 10
0.0
 20
-358.5
 30
850.0
 70
    64
  0
VERTEX
  5
28C
  8
TEAM-NET
 10
-25.646634
 20
-357.424607
 30
850.0
 70
    64
  0
VERTEX
  5
28D
  8
TEAM-NET
 10
-51.110474
 20
-354.186569
 30
850.0
 70
    64
  0
VERTEX
  5
28E
  8
TEAM-NET
 10
-76.196539
 20
-348.750473
 30
850.0
 70
    64
  0
VERTEX
  5
28F
  8
TEAM-NET
 10
-100.684074
 20
-341.058106
 30
850.0
 70
    64
  0
VERTEX
  5
290
  8
TEAM-NET
 10
-124.310096
 20
-331.030797
 30
850.0
 70
    64
  0
VERTEX
  5
291
  8
TEAM-NET
 10
-146.748639
 20
-318.575449
 30
850.0
 70
    64
  0
VERTEX
  5
292
  8
TEAM-NET
 10
-167.584931
 20
-303.598445
 30
850.0
 70
    64
  0
VERTEX
  5
293
  8
TEAM-NET
 10
-186.286494
 20
-286.03476
 30
850.0
 70
    64
  0
VERTEX
  5
294
  8
TEAM-NET
 10
-202.180884
 20
-265.90303
 30
850.0
 70
    64
  0
VERTEX
  5
295
  8
TEAM-NET
 10
-214.466108
 20
-243.395176
 30
850.0
 70
    64
  0
VERTEX
  5
296
  8
TEAM-NET
 10
-222.299598
 20
-218.986774
 30
850.0
 70
    64
  0
VERTEX
  5
297
  8
TEAM-NET
 10
-225.0
 20
-193.5
 30
850.0
 70
    64
  0
SEQEND
  5
299
  8
TEAM-NET
  0
POLYLINE
  5
29A
  8
TEAM-NET
 66
     1
 10
0.0
 20
0.0
 30
0.0
 70
    16
 71
     2
 72
    25
  0
VERTEX
  5
29B
  8
TEAM-NET
 10
256.0
 20
-193.5
 30
850.0
 70
    64
  0
VERTEX
  5
29C
  8
TEAM-NET
 10
253.079417
 20
-223.021857
 30
850.0
 70
    64
  0
VERTEX
  5
29D
  8
TEAM-NET
 10
244.558043
 20
-251.441999
 30
850.0
 70
    64
  0
VERTEX
  5
29E
  8
TEAM-NET
 10
231.065555
 20
-277.8742
 30
850.0
 70
    64
  0
VERTEX
  5
29F
  8
TEAM-NET
 10
213.419639
 20
-301.743395
 30
850.0
 70
    64
  0
VERTEX
  5
2A0
  8
TEAM-NET
 10
192.444123
 20
-322.755233
 30
850.0
 70
    64
  0
VERTEX
  5
2A1
  8
TEAM-NET
 10
168.86884
 20
-340.809344
 30
850.0
 70
    64
  0
VERTEX
  5
2A2
  8
TEAM-NET
 10
143.300239
 20
-355.915469
 30
850.0
 70
    64
  0
VERTEX
  5
2A3
  8
TEAM-NET
 10
116.229935
 20
-368.134015
 30
850.0
 70
    64
  0
VERTEX
  5
2A4
  8
TEAM-NET
 10
88.056857
 20
-377.540055
 30
850.0
 70
    64
  0
VERTEX
  5
2A5
  8
TEAM-NET
 10
59.110995
 20
-384.203479
 30
850.0
 70
    64
  0
VERTEX
  5
2A6
  8
TEAM-NET
 10
29.674571
 20
-388.178761
 30
850.0
 70
    64
  0
VERTEX
  5
2A7
  8
TEAM-NET
 10
0.0
 20
-389.5
 30
850.0
 70
    64
  0
VERTEX
  5
2A8
  8
TEAM-NET
 10
-29.674571
 20
-388.178761
 30
850.0
 70
    64
  0
VERTEX
  5
2A9
  8
TEAM-NET
 10
-59.110995
 20
-384.203479
 30
850.0
 70
    64
  0
VERTEX
  5
2AA
  8
TEAM-NET
 10
-88.056857
 20
-377.540055
 30
850.0
 70
    64
  0
VERTEX
  5
2AB
  8
TEAM-NET
 10
-116.229935
 20
-368.134015
 30
850.0
 70
    64
  0
VERTEX
  5
2AC
  8
TEAM-NET
 10
-143.300239
 20
-355.915469
 30
850.0
 70
    64
  0
VERTEX
  5
2AD
  8
TEAM-NET
 10
-168.86884
 20
-340.809344
 30
850.0
 70
    64
  0
VERTEX
  5
2AE
  8
TEAM-NET
 10
-192.444123
 20
-322.755233
 30
850.0
 70
    64
  0
VERTEX
  5
2AF
  8
TEAM-NET
 10
-213.419643
 20
-301.74339
 30
850.0
 70
    64
  0
VERTEX
  5
2B0
  8
TEAM-NET
 10
-231.065555
 20
-277.8742
 30
850.0
 70
    64
  0
VERTEX
  5
2B1
  8
TEAM-NET
 10
-244.558043
 20
-251.441999
 30
850.0
 70
    64
  0
VERTEX
  5
2B2
  8
TEAM-NET
 10
-253.079417
 20
-223.021857
 30
850.0
 70
    64
  0
VERTEX
  5
2B3
  8
TEAM-NET
 10
-256.0
 20
-193.5
 30
850.0
 70
    64
  0
VERTEX
  5
2B4
  8
TEAM-NET
 10
256.0
 20
-193.5
 30
835.0
 70
    64
  0
VERTEX
  5
2B5
  8
TEAM-NET
 10
253.079417
 20
-223.021857
 30
835.0
 70
    64
  0
VERTEX
  5
2B6
  8
TEAM-NET
 10
244.558043
 20
-251.441999
 30
835.0
 70
    64
  0
VERTEX
  5
2B7
  8
TEAM-NET
 10
231.065555
 20
-277.8742
 30
835.0
 70
    64
  0
VERTEX
  5
2B8
  8
TEAM-NET
 10
213.419639
 20
-301.743395
 30
835.0
 70
    64
  0
VERTEX
  5
2B9
  8
TEAM-NET
 10
192.444123
 20
-322.755233
 30
835.0
 70
    64
  0
VERTEX
  5
2BA
  8
TEAM-NET
 10
168.86884
 20
-340.809344
 30
835.0
 70
    64
  0
VERTEX
  5
2BB
  8
TEAM-NET
 10
143.300239
 20
-355.915469
 30
835.0
 70
    64
  0
VERTEX
  5
2BC
  8
TEAM-NET
 10
116.229935
 20
-368.134015
 30
835.0
 70
    64
  0
VERTEX
  5
2BD
  8
TEAM-NET
 10
88.056857
 20
-377.540055
 30
835.0
 70
    64
  0
VERTEX
  5
2BE
  8
TEAM-NET
 10
59.110995
 20
-384.203479
 30
835.0
 70
    64
  0
VERTEX
  5
2BF
  8
TEAM-NET
 10
29.674571
 20
-388.178761
 30
835.0
 70
    64
  0
VERTEX
  5
2C0
  8
TEAM-NET
 10
0.0
 20
-389.5
 30
835.0
 70
    64
  0
VERTEX
  5
2C1
  8
TEAM-NET
 10
-29.674571
 20
-388.178761
 30
835.0
 70
    64
  0
VERTEX
  5
2C2
  8
TEAM-NET
 10
-59.110995
 20
-384.203479
 30
835.0
 70
    64
  0
VERTEX
  5
2C3
  8
TEAM-NET
 10
-88.056857
 20
-377.540055
 30
835.0
 70
    64
  0
VERTEX
  5
2C4
  8
TEAM-NET
 10
-116.229935
 20
-368.134015
 30
835.0
 70
    64
  0
VERTEX
  5
2C5
  8
TEAM-NET
 10
-143.300239
 20
-355.915469
 30
835.0
 70
    64
  0
VERTEX
  5
2C6
  8
TEAM-NET
 10
-168.86884
 20
-340.809344
 30
835.0
 70
    64
  0
VERTEX
  5
2C7
  8
TEAM-NET
 10
-192.444123
 20
-322.755233
 30
835.0
 70
    64
  0
VERTEX
  5
2C8
  8
TEAM-NET
 10
-213.419643
 20
-301.74339
 30
835.0
 70
    64
  0
VERTEX
  5
2C9
  8
TEAM-NET
 10
-231.065555
 20
-277.8742
 30
835.0
 70
    64
  0
VERTEX
  5
2CA
  8
TEAM-NET
 10
-244.558043
 20
-251.441999
 30
835.0
 70
    64
  0
VERTEX
  5
2CB
  8
TEAM-NET
 10
-253.079417
 20
-223.021857
 30
835.0
 70
    64
  0
VERTEX
  5
2CC
  8
TEAM-NET
 10
-256.0
 20
-193.5
 30
835.0
 70
    64
  0
SEQEND
  5
2CD
  8
TEAM-NET
  0
POLYLINE
  5
2CE
  8
TEAM-NET
 66
     1
 10
0.0
 20
0.0
 30
0.0
 70
    16
 71
     2
 72
    25
  0
VERTEX
  5
2CF
  8
TEAM-NET
 10
256.0
 20
-193.5
 30
835.0
 70
    64
  0
VERTEX
  5
2D0
  8
TEAM-NET
 10
253.079417
 20
-163.978143
 30
835.0
 70
    64
  0
VERTEX
  5
2D1
  8
TEAM-NET
 10
244.558043
 20
-135.558001
 30
835.0
 70
    64
  0
VERTEX
  5
2D2
  8
TEAM-NET
 10
231.065555
 20
-109.1258
 30
835.0
 70
    64
  0
VERTEX
  5
2D3
  8
TEAM-NET
 10
213.419639
 20
-85.256605
 30
835.0
 70
    64
  0
VERTEX
  5
2D4
  8
TEAM-NET
 10
192.444123
 20
-64.244767
 30
835.0
 70
    64
  0
VERTEX
  5
2D5
  8
TEAM-NET
 10
168.86884
 20
-46.190656
 30
835.0
 70
    64
  0
VERTEX
  5
2D6
  8
TEAM-NET
 10
143.300239
 20
-31.084531
 30
835.0
 70
    64
  0
VERTEX
  5
2D7
  8
TEAM-NET
 10
116.229935
 20
-18.865985
 30
835.0
 70
    64
  0
VERTEX
  5
2D8
  8
TEAM-NET
 10
88.056857
 20
-9.459945
 30
835.0
 70
    64
  0
VERTEX
  5
2D9
  8
TEAM-NET
 10
59.110995
 20
-2.796521
 30
835.0
 70
    64
  0
VERTEX
  5
2DA
  8
TEAM-NET
 10
29.674571
 20
1.178761
 30
835.0
 70
    64
  0
VERTEX
  5
2DB
  8
TEAM-NET
 10
0.0
 20
2.5
 30
835.0
 70
    64
  0
VERTEX
  5
2DC
  8
TEAM-NET
 10
-29.674571
 20
1.178761
 30
835.0
 70
    64
  0
VERTEX
  5
2DD
  8
TEAM-NET
 10
-59.110995
 20
-2.796521
 30
835.0
 70
    64
  0
VERTEX
  5
2DE
  8
TEAM-NET
 10
-88.056857
 20
-9.459945
 30
835.0
 70
    64
  0
VERTEX
  5
2DF
  8
TEAM-NET
 10
-116.229935
 20
-18.865985
 30
835.0
 70
    64
  0
VERTEX
  5
2E0
  8
TEAM-NET
 10
-143.300239
 20
-31.084531
 30
835.0
 70
    64
  0
VERTEX
  5
2E1
  8
TEAM-NET
 10
-168.86884
 20
-46.190656
 30
835.0
 70
    64
  0
VERTEX
  5
2E2
  8
TEAM-NET
 10
-192.444123
 20
-64.244767
 30
835.0
 70
    64
  0
VERTEX
  5
2E3
  8
TEAM-NET
 10
-213.419643
 20
-85.25661
 30
835.0
 70
    64
  0
VERTEX
  5
2E4
  8
TEAM-NET
 10
-231.065555
 20
-109.1258
 30
835.0
 70
    64
  0
VERTEX
  5
2E5
  8
TEAM-NET
 10
-244.558043
 20
-135.558001
 30
835.0
 70
    64
  0
VERTEX
  5
2E6
  8
TEAM-NET
 10
-253.079417
 20
-163.978143
 30
835.0
 70
    64
  0
VERTEX
  5
2E7
  8
TEAM-NET
 10
-256.0
 20
-193.5
 30
835.0
 70
    64
  0
VERTEX
  5
2E8
  8
TEAM-NET
 10
256.0
 20
-193.5
 30
850.0
 70
    64
  0
VERTEX
  5
2E9
  8
TEAM-NET
 10
253.079417
 20
-163.978143
 30
850.0
 70
    64
  0
VERTEX
  5
2EA
  8
TEAM-NET
 10
244.558043
 20
-135.558001
 30
850.0
 70
    64
  0
VERTEX
  5
2EB
  8
TEAM-NET
 10
231.065555
 20
-109.1258
 30
850.0
 70
    64
  0
VERTEX
  5
2EC
  8
TEAM-NET
 10
213.419639
 20
-85.256605
 30
850.0
 70
    64
  0
VERTEX
  5
2ED
  8
TEAM-NET
 10
192.444123
 20
-64.244767
 30
850.0
 70
    64
  0
VERTEX
  5
2EE
  8
TEAM-NET
 10
168.86884
 20
-46.190656
 30
850.0
 70
    64
  0
VERTEX
  5
2EF
  8
TEAM-NET
 10
143.300239
 20
-31.084531
 30
850.0
 70
    64
  0
VERTEX
  5
2F0
  8
TEAM-NET
 10
116.229935
 20
-18.865985
 30
850.0
 70
    64
  0
VERTEX
  5
2F1
  8
TEAM-NET
 10
88.056857
 20
-9.459945
 30
850.0
 70
    64
  0
VERTEX
  5
2F2
  8
TEAM-NET
 10
59.110995
 20
-2.796521
 30
850.0
 70
    64
  0
VERTEX
  5
2F3
  8
TEAM-NET
 10
29.674571
 20
1.178761
 30
850.0
 70
    64
  0
VERTEX
  5
2F4
  8
TEAM-NET
 10
0.0
 20
2.5
 30
850.0
 70
    64
  0
VERTEX
  5
2F5
  8
TEAM-NET
 10
-29.674571
 20
1.178761
 30
850.0
 70
    64
  0
VERTEX
  5
2F6
  8
TEAM-NET
 10
-59.110995
 20
-2.796521
 30
850.0
 70
    64
  0
VERTEX
  5
2F7
  8
TEAM-NET
 10
-88.056857
 20
-9.459945
 30
850.0
 70
    64
  0
VERTEX
  5
2F8
  8
TEAM-NET
 10
-116.229935
 20
-18.865985
 30
850.0
 70
    64
  0
VERTEX
  5
2F9
  8
TEAM-NET
 10
-143.300239
 20
-31.084531
 30
850.0
 70
    64
  0
VERTEX
  5
2FA
  8
TEAM-NET
 10
-168.86884
 20
-46.190656
 30
850.0
 70
    64
  0
VERTEX
  5
2FB
  8
TEAM-NET
 10
-192.444123
 20
-64.244767
 30
850.0
 70
    64
  0
VERTEX
  5
2FC
  8
TEAM-NET
 10
-213.419643
 20
-85.25661
 30
850.0
 70
    64
  0
VERTEX
  5
2FD
  8
TEAM-NET
 10
-231.065555
 20
-109.1258
 30
850.0
 70
    64
  0
VERTEX
  5
2FE
  8
TEAM-NET
 10
-244.558043
 20
-135.558001
 30
850.0
 70
    64
  0
VERTEX
  5
2FF
  8
TEAM-NET
 10
-253.079417
 20
-163.978143
 30
850.0
 70
    64
  0
VERTEX
  5
300
  8
TEAM-NET
 10
-256.0
 20
-193.5
 30
850.0
 70
    64
  0
SEQEND
  5
301
  8
TEAM-NET
  0
POLYLINE
  5
302
  8
TEAM-BODY
 66
     1
 10
0.0
 20
0.0
 30
-835.0
 70
   128
210
0.0
220
0.0
230
-1.0
  0
VERTEX
  5
753
  8
TEAM-BODY
 10
-256.0
 20
-193.5
 30
-835.0
  0
VERTEX
  5
754
  8
TEAM-BODY
 10
-255.025843
 20
-210.582526
 30
-835.0
  0
VERTEX
  5
755
  8
TEAM-BODY
 10
-252.110785
 20
-227.535043
 30
-835.0
  0
VERTEX
  5
756
  8
TEAM-BODY
 10
-247.277012
 20
-244.228533
 30
-835.0
  0
VERTEX
  5
757
  8
TEAM-BODY
 10
-240.561311
 20
-260.535948
 30
-835.0
  0
VERTEX
  5
758
  8
TEAM-BODY
 10
-232.014793
 20
-276.333179
 30
-835.0
  0
VERTEX
  5
759
  8
TEAM-BODY
 10
-221.702503
 20
-291.5
 30
-835.0
  0
VERTEX
  5
75A
  8
TEAM-BODY
 10
-209.702923
 20
-305.920982
 30
-835.0
  0
VERTEX
  5
75B
  8
TEAM-BODY
 10
-196.107377
 20
-319.486371
 30
-835.0
  0
VERTEX
  5
75C
  8
TEAM-BODY
 10
-181.019336
 20
-332.092929
 30
-835.0
  0
VERTEX
  5
75D
  8
TEAM-BODY
 10
-164.553628
 20
-343.644711
 30
-835.0
  0
VERTEX
  5
75E
  8
TEAM-BODY
 10
-146.835568
 20
-354.053801
 30
-835.0
  0
VERTEX
  5
75F
  8
TEAM-BODY
 10
-128.0
 20
-363.240979
 30
-835.0
  0
VERTEX
  5
760
  8
TEAM-BODY
 10
-108.190275
 20
-371.136326
 30
-835.0
  0
VERTEX
  5
761
  8
TEAM-BODY
 10
-87.557157
 20
-377.679754
 30
-835.0
  0
VERTEX
  5
762
  8
TEAM-BODY
 10
-66.257676
 20
-382.821462
 30
-835.0
  0
VERTEX
  5
763
  8
TEAM-BODY
 10
-44.453933
 20
-386.52232
 30
-835.0
  0
VERTEX
  5
764
  8
TEAM-BODY
 10
-22.31187
 20
-388.754161
 30
-835.0
  0
VERTEX
  5
765
  8
TEAM-BODY
 10
0.0
 20
-389.5
 30
-835.0
  0
VERTEX
  5
766
  8
TEAM-BODY
 10
22.31187
 20
-388.754161
 30
-835.0
  0
VERTEX
  5
767
  8
TEAM-BODY
 10
44.453933
 20
-386.52232
 30
-835.0
  0
VERTEX
  5
768
  8
TEAM-BODY
 10
66.257676
 20
-382.821462
 30
-835.0
  0
VERTEX
  5
769
  8
TEAM-BODY
 10
87.557157
 20
-377.679754
 30
-835.0
  0
VERTEX
  5
76A
  8
TEAM-BODY
 10
108.190275
 20
-371.136326
 30
-835.0
  0
VERTEX
  5
76B
  8
TEAM-BODY
 10
128.0
 20
-363.240979
 30
-835.0
  0
VERTEX
  5
76C
  8
TEAM-BODY
 10
146.835568
 20
-354.053801
 30
-835.0
  0
VERTEX
  5
76D
  8
TEAM-BODY
 10
164.553628
 20
-343.644711
 30
-835.0
  0
VERTEX
  5
76E
  8
TEAM-BODY
 10
181.019336
 20
-332.092929
 30
-835.0
  0
VERTEX
  5
76F
  8
TEAM-BODY
 10
196.107377
 20
-319.486371
 30
-835.0
  0
VERTEX
  5
770
  8
TEAM-BODY
 10
209.702923
 20
-305.920982
 30
-835.0
  0
VERTEX
  5
771
  8
TEAM-BODY
 10
221.702503
 20
-291.5
 30
-835.0
  0
VERTEX
  5
772
  8
TEAM-BODY
 10
232.014793
 20
-276.333179
 30
-835.0
  0
VERTEX
  5
773
  8
TEAM-BODY
 10
240.561311
 20
-260.535948
 30
-835.0
  0
VERTEX
  5
774
  8
TEAM-BODY
 10
247.277012
 20
-244.228533
 30
-835.0
  0
VERTEX
  5
775
  8
TEAM-BODY
 10
252.110785
 20
-227.535043
 30
-835.0
  0
VERTEX
  5
776
  8
TEAM-BODY
 10
255.025843
 20
-210.582526
 30
-835.0
  0
VERTEX
  5
777
  8
TEAM-BODY
 10
256.0
 20
-193.5
 30
-835.0
  0
SEQEND
  5
778
  8
TEAM-BODY
  0
POLYLINE
  5
303
  8
TEAM-BODY
 66
     1
 10
0.0
 20
0.0
 30
835.0
 70
   128
  0
VERTEX
  5
779
  8
TEAM-BODY
 10
256.0
 20
-193.5
 30
835.0
  0
VERTEX
  5
77A
  8
TEAM-BODY
 10
255.025843
 20
-176.417474
 30
835.0
  0
VERTEX
  5
77B
  8
TEAM-BODY
 10
252.110785
 20
-159.464957
 30
835.0
  0
VERTEX
  5
77C
  8
TEAM-BODY
 10
247.277012
 20
-142.771467
 30
835.0
  0
VERTEX
  5
77D
  8
TEAM-BODY
 10
240.561311
 20
-126.464052
 30
835.0
  0
VERTEX
  5
77E
  8
TEAM-BODY
 10
232.014793
 20
-110.666821
 30
835.0
  0
VERTEX
  5
77F
  8
TEAM-BODY
 10
221.702503
 20
-95.5
 30
835.0
  0
VERTEX
  5
780
  8
TEAM-BODY
 10
209.702923
 20
-81.079018
 30
835.0
  0
VERTEX
  5
781
  8
TEAM-BODY
 10
196.107377
 20
-67.513629
 30
835.0
  0
VERTEX
  5
782
  8
TEAM-BODY
 10
181.019336
 20
-54.907071
 30
835.0
  0
VERTEX
  5
783
  8
TEAM-BODY
 10
164.553628
 20
-43.355289
 30
835.0
  0
VERTEX
  5
784
  8
TEAM-BODY
 10
146.835568
 20
-32.946199
 30
835.0
  0
VERTEX
  5
785
  8
TEAM-BODY
 10
128.0
 20
-23.759021
 30
835.0
  0
VERTEX
  5
786
  8
TEAM-BODY
 10
108.190275
 20
-15.863674
 30
835.0
  0
VERTEX
  5
787
  8
TEAM-BODY
 10
87.557157
 20
-9.320246
 30
835.0
  0
VERTEX
  5
788
  8
TEAM-BODY
 10
66.257676
 20
-4.178538
 30
835.0
  0
VERTEX
  5
789
  8
TEAM-BODY
 10
44.453933
 20
-0.47768
 30
835.0
  0
VERTEX
  5
78A
  8
TEAM-BODY
 10
22.31187
 20
1.754161
 30
835.0
  0
VERTEX
  5
78B
  8
TEAM-BODY
 10
0.0
 20
2.5
 30
835.0
  0
VERTEX
  5
78C
  8
TEAM-BODY
 10
-22.31187
 20
1.754161
 30
835.0
  0
VERTEX
  5
78D
  8
TEAM-BODY
 10
-44.453933
 20
-0.47768
 30
835.0
  0
VERTEX
  5
78E
  8
TEAM-BODY
 10
-66.257676
 20
-4.178538
 30
835.0
  0
VERTEX
  5
78F
  8
TEAM-BODY
 10
-87.557157
 20
-9.320246
 30
835.0
  0
VERTEX
  5
790
  8
TEAM-BODY
 10
-108.190275
 20
-15.863674
 30
835.0
  0
VERTEX
  5
791
  8
TEAM-BODY
 10
-128.0
 20
-23.759021
 30
835.0
  0
VERTEX
  5
792
  8
TEAM-BODY
 10
-146.835568
 20
-32.946199
 30
835.0
  0
VERTEX
  5
793
  8
TEAM-BODY
 10
-164.553628
 20
-43.355289
 30
835.0
  0
VERTEX
  5
794
  8
TEAM-BODY
 10
-181.019336
 20
-54.907071
 30
835.0
  0
VERTEX
  5
795
  8
TEAM-BODY
 10
-196.107377
 20
-67.513629
 30
835.0
  0
VERTEX
  5
796
  8
TEAM-BODY
 10
-209.702923
 20
-81.079018
 30
835.0
  0
VERTEX
  5
797
  8
TEAM-BODY
 10
-221.702503
 20
-95.5
 30
835.0
  0
VERTEX
  5
798
  8
TEAM-BODY
 10
-232.014793
 20
-110.666821
 30
835.0
  0
VERTEX
  5
799
  8
TEAM-BODY
 10
-240.561311
 20
-126.464052
 30
835.0
  0
VERTEX
  5
79A
  8
TEAM-BODY
 10
-247.277012
 20
-142.771467
 30
835.0
  0
VERTEX
  5
79B
  8
TEAM-BODY
 10
-252.110785
 20
-159.464957
 30
835.0
  0
VERTEX
  5
79C
  8
TEAM-BODY
 10
-255.025843
 20
-176.417474
 30
835.0
  0
VERTEX
  5
79D
  8
TEAM-BODY
 10
-256.0
 20
-193.5
 30
835.0
  0
SEQEND
  5
79E
  8
TEAM-BODY
  0
TEXT
  5
304
  8
TEAM-TXT
 10
-108.836879
 20
-277.787499
 30
852.0
 40
30.0
  1
team 233015
 41
0.8
 51
15.0
  7
TEAM
  0
POLYLINE
  5
307
  8
TEAM-BODY
 66
     1
 10
0.0
 20
0.0
 30
-850.0
 70
   128
210
0.0
220
0.0
230
-1.0
  0
VERTEX
  5
79F
  8
TEAM-BODY
 10
-256.0
 20
-193.5
 30
-850.0
  0
VERTEX
  5
7A0
  8
TEAM-BODY
 10
-255.025843
 20
-210.582526
 30
-850.0
  0
VERTEX
  5
7A1
  8
TEAM-BODY
 10
-252.110785
 20
-227.535043
 30
-850.0
  0
VERTEX
  5
7A2
  8
TEAM-BODY
 10
-247.277012
 20
-244.228533
 30
-850.0
  0
VERTEX
  5
7A3
  8
TEAM-BODY
 10
-240.561311
 20
-260.535948
 30
-850.0
  0
VERTEX
  5
7A4
  8
TEAM-BODY
 10
-232.014793
 20
-276.333179
 30
-850.0
  0
VERTEX
  5
7A5
  8
TEAM-BODY
 10
-221.702503
 20
-291.5
 30
-850.0
  0
VERTEX
  5
7A6
  8
TEAM-BODY
 10
-209.702923
 20
-305.920982
 30
-850.0
  0
VERTEX
  5
7A7
  8
TEAM-BODY
 10
-196.107377
 20
-319.486371
 30
-850.0
  0
VERTEX
  5
7A8
  8
TEAM-BODY
 10
-181.019336
 20
-332.092929
 30
-850.0
  0
VERTEX
  5
7A9
  8
TEAM-BODY
 10
-164.553628
 20
-343.644711
 30
-850.0
  0
VERTEX
  5
7AA
  8
TEAM-BODY
 10
-146.835568
 20
-354.053801
 30
-850.0
  0
VERTEX
  5
7AB
  8
TEAM-BODY
 10
-128.0
 20
-363.240979
 30
-850.0
  0
VERTEX
  5
7AC
  8
TEAM-BODY
 10
-108.190275
 20
-371.136326
 30
-850.0
  0
VERTEX
  5
7AD
  8
TEAM-BODY
 10
-87.557157
 20
-377.679754
 30
-850.0
  0
VERTEX
  5
7AE
  8
TEAM-BODY
 10
-66.257676
 20
-382.821462
 30
-850.0
  0
VERTEX
  5
7AF
  8
TEAM-BODY
 10
-44.453933
 20
-386.52232
 30
-850.0
  0
VERTEX
  5
7B0
  8
TEAM-BODY
 10
-22.31187
 20
-388.754161
 30
-850.0
  0
VERTEX
  5
7B1
  8
TEAM-BODY
 10
0.0
 20
-389.5
 30
-850.0
  0
VERTEX
  5
7B2
  8
TEAM-BODY
 10
22.31187
 20
-388.754161
 30
-850.0
  0
VERTEX
  5
7B3
  8
TEAM-BODY
 10
44.453933
 20
-386.52232
 30
-850.0
  0
VERTEX
  5
7B4
  8
TEAM-BODY
 10
66.257676
 20
-382.821462
 30
-850.0
  0
VERTEX
  5
7B5
  8
TEAM-BODY
 10
87.557157
 20
-377.679754
 30
-850.0
  0
VERTEX
  5
7B6
  8
TEAM-BODY
 10
108.190275
 20
-371.136326
 30
-850.0
  0
VERTEX
  5
7B7
  8
TEAM-BODY
 10
128.0
 20
-363.240979
 30
-850.0
  0
VERTEX
  5
7B8
  8
TEAM-BODY
 10
146.835568
 20
-354.053801
 30
-850.0
  0
VERTEX
  5
7B9
  8
TEAM-BODY
 10
164.553628
 20
-343.644711
 30
-850.0
  0
VERTEX
  5
7BA
  8
TEAM-BODY
 10
181.019336
 20
-332.092929
 30
-850.0
  0
VERTEX
  5
7BB
  8
TEAM-BODY
 10
196.107377
 20
-319.486371
 30
-850.0
  0
VERTEX
  5
7BC
  8
TEAM-BODY
 10
209.702923
 20
-305.920982
 30
-850.0
  0
VERTEX
  5
7BD
  8
TEAM-BODY
 10
221.702503
 20
-291.5
 30
-850.0
  0
VERTEX
  5
7BE
  8
TEAM-BODY
 10
232.014793
 20
-276.333179
 30
-850.0
  0
VERTEX
  5
7BF
  8
TEAM-BODY
 10
240.561311
 20
-260.535948
 30
-850.0
  0
VERTEX
  5
7C0
  8
TEAM-BODY
 10
247.277012
 20
-244.228533
 30
-850.0
  0
VERTEX
  5
7C1
  8
TEAM-BODY
 10
252.110785
 20
-227.535043
 30
-850.0
  0
VERTEX
  5
7C2
  8
TEAM-BODY
 10
255.025843
 20
-210.582526
 30
-850.0
  0
VERTEX
  5
7C3
  8
TEAM-BODY
 10
256.0
 20
-193.5
 30
-850.0
  0
SEQEND
  5
7C4
  8
TEAM-BODY
  0
POLYLINE
  5
308
  8
TEAM-BODY
 66
     1
 10
0.0
 20
0.0
 30
-850.0
 70
   128
210
0.0
220
0.0
230
-1.0
  0
VERTEX
  5
7C5
  8
TEAM-BODY
 10
-225.0
 20
-193.5
 30
-850.0
  0
VERTEX
  5
7C6
  8
TEAM-BODY
 10
-224.04019
 20
-208.724279
 30
-850.0
  0
VERTEX
  5
7C7
  8
TEAM-BODY
 10
-221.168947
 20
-223.81867
 30
-850.0
  0
VERTEX
  5
7C8
  8
TEAM-BODY
 10
-216.41077
 20
-238.654393
 30
-850.0
  0
VERTEX
  5
7C9
  8
TEAM-BODY
 10
-209.806252
 20
-253.104875
 30
-850.0
  0
VERTEX
  5
7CA
  8
TEAM-BODY
 10
-201.411741
 20
-267.046829
 30
-850.0
  0
VERTEX
  5
7CB
  8
TEAM-BODY
 10
-191.298856
 20
-280.361307
 30
-850.0
  0
VERTEX
  5
7CC
  8
TEAM-BODY
 10
-179.553876
 20
-292.934715
 30
-850.0
  0
VERTEX
  5
7CD
  8
TEAM-BODY
 10
-166.277006
 20
-304.659781
 30
-850.0
  0
VERTEX
  5
7CE
  8
TEAM-BODY
 10
-151.58152
 20
-315.436471
 30
-850.0
  0
VERTEX
  5
7CF
  8
TEAM-BODY
 10
-135.592793
 20
-325.172843
 30
-850.0
  0
VERTEX
  5
7D0
  8
TEAM-BODY
 10
-118.447237
 20
-333.785827
 30
-850.0
  0
VERTEX
  5
7D1
  8
TEAM-BODY
 10
-100.29113
 20
-341.201943
 30
-850.0
  0
VERTEX
  5
7D2
  8
TEAM-BODY
 10
-81.279375
 20
-347.357918
 30
-850.0
  0
VERTEX
  5
7D3
  8
TEAM-BODY
 10
-61.574173
 20
-352.201231
 30
-850.0
  0
VERTEX
  5
7D4
  8
TEAM-BODY
 10
-41.343642
 20
-355.690561
 30
-850.0
  0
VERTEX
  5
7D5
  8
TEAM-BODY
 10
-20.760381
 20
-357.796139
 30
-850.0
  0
VERTEX
  5
7D6
  8
TEAM-BODY
 10
0.0
 20
-358.5
 30
-850.0
  0
VERTEX
  5
7D7
  8
TEAM-BODY
 10
20.760381
 20
-357.796139
 30
-850.0
  0
VERTEX
  5
7D8
  8
TEAM-BODY
 10
41.343642
 20
-355.690561
 30
-850.0
  0
VERTEX
  5
7D9
  8
TEAM-BODY
 10
61.574173
 20
-352.201231
 30
-850.0
  0
VERTEX
  5
7DA
  8
TEAM-BODY
 10
81.279375
 20
-347.357918
 30
-850.0
  0
VERTEX
  5
7DB
  8
TEAM-BODY
 10
100.29113
 20
-341.201943
 30
-850.0
  0
VERTEX
  5
7DC
  8
TEAM-BODY
 10
118.447237
 20
-333.785827
 30
-850.0
  0
VERTEX
  5
7DD
  8
TEAM-BODY
 10
135.592793
 20
-325.172843
 30
-850.0
  0
VERTEX
  5
7DE
  8
TEAM-BODY
 10
151.58152
 20
-315.436471
 30
-850.0
  0
VERTEX
  5
7DF
  8
TEAM-BODY
 10
166.277006
 20
-304.659781
 30
-850.0
  0
VERTEX
  5
7E0
  8
TEAM-BODY
 10
179.553876
 20
-292.934715
 30
-850.0
  0
VERTEX
  5
7E1
  8
TEAM-BODY
 10
191.298856
 20
-280.361307
 30
-850.0
  0
VERTEX
  5
7E2
  8
TEAM-BODY
 10
201.411741
 20
-267.046829
 30
-850.0
  0
VERTEX
  5
7E3
  8
TEAM-BODY
 10
209.806252
 20
-253.104875
 30
-850.0
  0
VERTEX
  5
7E4
  8
TEAM-BODY
 10
216.41077
 20
-238.654393
 30
-850.0
  0
VERTEX
  5
7E5
  8
TEAM-BODY
 10
221.168947
 20
-223.81867
 30
-850.0
  0
VERTEX
  5
7E6
  8
TEAM-BODY
 10
224.04019
 20
-208.724279
 30
-850.0
  0
VERTEX
  5
7E7
  8
TEAM-BODY
 10
225.0
 20
-193.5
 30
-850.0
  0
SEQEND
  5
7E8
  8
TEAM-BODY
  0
POLYLINE
  5
309
  8
TEAM-NET
 66
     1
 10
0.0
 20
0.0
 30
0.0
 70
    16
 71
     2
 72
    25
  0
VERTEX
  5
30A
  8
TEAM-NET
 10
225.0
 20
-193.5
 30
850.0
 70
    64
  0
VERTEX
  5
30B
  8
TEAM-NET
 10
222.299598
 20
-218.986774
 30
850.0
 70
    64
  0
VERTEX
  5
30C
  8
TEAM-NET
 10
214.466108
 20
-243.395176
 30
850.0
 70
    64
  0
VERTEX
  5
30D
  8
TEAM-NET
 10
202.180884
 20
-265.90303
 30
850.0
 70
    64
  0
VERTEX
  5
30E
  8
TEAM-NET
 10
186.286494
 20
-286.03476
 30
850.0
 70
    64
  0
VERTEX
  5
30F
  8
TEAM-NET
 10
167.584931
 20
-303.598445
 30
850.0
 70
    64
  0
VERTEX
  5
310
  8
TEAM-NET
 10
146.748639
 20
-318.575449
 30
850.0
 70
    64
  0
VERTEX
  5
311
  8
TEAM-NET
 10
124.310096
 20
-331.030797
 30
850.0
 70
    64
  0
VERTEX
  5
312
  8
TEAM-NET
 10
100.684074
 20
-341.058106
 30
850.0
 70
    64
  0
VERTEX
  5
313
  8
TEAM-NET
 10
76.196539
 20
-348.750473
 30
850.0
 70
    64
  0
VERTEX
  5
314
  8
TEAM-NET
 10
51.110474
 20
-354.186569
 30
850.0
 70
    64
  0
VERTEX
  5
315
  8
TEAM-NET
 10
25.646634
 20
-357.424607
 30
850.0
 70
    64
  0
VERTEX
  5
316
  8
TEAM-NET
 10
0.0
 20
-358.5
 30
850.0
 70
    64
  0
VERTEX
  5
317
  8
TEAM-NET
 10
-25.646634
 20
-357.424607
 30
850.0
 70
    64
  0
VERTEX
  5
318
  8
TEAM-NET
 10
-51.110474
 20
-354.186569
 30
850.0
 70
    64
  0
VERTEX
  5
319
  8
TEAM-NET
 10
-76.196539
 20
-348.750473
 30
850.0
 70
    64
  0
VERTEX
  5
31A
  8
TEAM-NET
 10
-100.684074
 20
-341.058106
 30
850.0
 70
    64
  0
VERTEX
  5
31B
  8
TEAM-NET
 10
-124.310096
 20
-331.030797
 30
850.0
 70
    64
  0
VERTEX
  5
31C
  8
TEAM-NET
 10
-146.748639
 20
-318.575449
 30
850.0
 70
    64
  0
VERTEX
  5
31D
  8
TEAM-NET
 10
-167.584931
 20
-303.598445
 30
850.0
 70
    64
  0
VERTEX
  5
31E
  8
TEAM-NET
 10
-186.286494
 20
-286.03476
 30
850.0
 70
    64
  0
VERTEX
  5
31F
  8
TEAM-NET
 10
-202.180884
 20
-265.90303
 30
850.0
 70
    64
  0
VERTEX
  5
320
  8
TEAM-NET
 10
-214.466108
 20
-243.395176
 30
850.0
 70
    64
  0
VERTEX
  5
321
  8
TEAM-NET
 10
-222.299598
 20
-218.986774
 30
850.0
 70
    64
  0
VERTEX
  5
322
  8
TEAM-NET
 10
-225.0
 20
-193.5
 30
850.0
 70
    64
  0
VERTEX
  5
323
  8
TEAM-NET
 10
256.0
 20
-193.5
 30
850.0
 70
    64
  0
VERTEX
  5
324
  8
TEAM-NET
 10
253.079417
 20
-223.021857
 30
850.0
 70
    64
  0
VERTEX
  5
325
  8
TEAM-NET
 10
244.558043
 20
-251.441999
 30
850.0
 70
    64
  0
VERTEX
  5
326
  8
TEAM-NET
 10
231.065555
 20
-277.8742
 30
850.0
 70
    64
  0
VERTEX
  5
327
  8
TEAM-NET
 10
213.419639
 20
-301.743395
 30
850.0
 70
    64
  0
VERTEX
  5
328
  8
TEAM-NET
 10
192.444123
 20
-322.755233
 30
850.0
 70
    64
  0
VERTEX
  5
329
  8
TEAM-NET
 10
168.86884
 20
-340.809344
 30
850.0
 70
    64
  0
VERTEX
  5
32A
  8
TEAM-NET
 10
143.300239
 20
-355.915469
 30
850.0
 70
    64
  0
VERTEX
  5
32B
  8
TEAM-NET
 10
116.229935
 20
-368.134015
 30
850.0
 70
    64
  0
VERTEX
  5
32C
  8
TEAM-NET
 10
88.056857
 20
-377.540055
 30
850.0
 70
    64
  0
VERTEX
  5
32D
  8
TEAM-NET
 10
59.110995
 20
-384.203479
 30
850.0
 70
    64
  0
VERTEX
  5
32E
  8
TEAM-NET
 10
29.674571
 20
-388.178761
 30
850.0
 70
    64
  0
VERTEX
  5
32F
  8
TEAM-NET
 10
0.0
 20
-389.5
 30
850.0
 70
    64
  0
VERTEX
  5
330
  8
TEAM-NET
 10
-29.674571
 20
-388.178761
 30
850.0
 70
    64
  0
VERTEX
  5
331
  8
TEAM-NET
 10
-59.110995
 20
-384.203479
 30
850.0
 70
    64
  0
VERTEX
  5
332
  8
TEAM-NET
 10
-88.056857
 20
-377.540055
 30
850.0
 70
    64
  0
VERTEX
  5
333
  8
TEAM-NET
 10
-116.229935
 20
-368.134015
 30
850.0
 70
    64
  0
VERTEX
  5
334
  8
TEAM-NET
 10
-143.300239
 20
-355.915469
 30
850.0
 70
    64
  0
VERTEX
  5
335
  8
TEAM-NET
 10
-168.86884
 20
-340.809344
 30
850.0
 70
    64
  0
VERTEX
  5
336
  8
TEAM-NET
 10
-192.444123
 20
-322.755233
 30
850.0
 70
    64
  0
VERTEX
  5
337
  8
TEAM-NET
 10
-213.419643
 20
-301.74339
 30
850.0
 70
    64
  0
VERTEX
  5
338
  8
TEAM-NET
 10
-231.065555
 20
-277.8742
 30
850.0
 70
    64
  0
VERTEX
  5
339
  8
TEAM-NET
 10
-244.558043
 20
-251.441999
 30
850.0
 70
    64
  0
VERTEX
  5
33A
  8
TEAM-NET
 10
-253.079417
 20
-223.021857
 30
850.0
 70
    64
  0
VERTEX
  5
33B
  8
TEAM-NET
 10
-256.0
 20
-193.5
 30
850.0
 70
    64
  0
SEQEND
  5
33C
  8
TEAM-NET
  0
POLYLINE
  5
33D
  8
TEAM-BODY
 66
     1
 10
0.0
 20
0.0
 30
850.0
 70
   128
  0
VERTEX
  5
7E9
  8
TEAM-BODY
 10
225.0
 20
-193.5
 30
850.0
  0
VERTEX
  5
7EA
  8
TEAM-BODY
 10
224.04019
 20
-178.275721
 30
850.0
  0
VERTEX
  5
7EB
  8
TEAM-BODY
 10
221.168947
 20
-163.18133
 30
850.0
  0
VERTEX
  5
7EC
  8
TEAM-BODY
 10
216.41077
 20
-148.345607
 30
850.0
  0
VERTEX
  5
7ED
  8
TEAM-BODY
 10
209.806252
 20
-133.895125
 30
850.0
  0
VERTEX
  5
7EE
  8
TEAM-BODY
 10
201.411741
 20
-119.953171
 30
850.0
  0
VERTEX
  5
7EF
  8
TEAM-BODY
 10
191.298856
 20
-106.638693
 30
850.0
  0
VERTEX
  5
7F0
  8
TEAM-BODY
 10
179.553876
 20
-94.065285
 30
850.0
  0
VERTEX
  5
7F1
  8
TEAM-BODY
 10
166.277006
 20
-82.340219
 30
850.0
  0
VERTEX
  5
7F2
  8
TEAM-BODY
 10
151.58152
 20
-71.563529
 30
850.0
  0
VERTEX
  5
7F3
  8
TEAM-BODY
 10
135.592793
 20
-61.827157
 30
850.0
  0
VERTEX
  5
7F4
  8
TEAM-BODY
 10
118.447237
 20
-53.214173
 30
850.0
  0
VERTEX
  5
7F5
  8
TEAM-BODY
 10
100.29113
 20
-45.798057
 30
850.0
  0
VERTEX
  5
7F6
  8
TEAM-BODY
 10
81.279375
 20
-39.642082
 30
850.0
  0
VERTEX
  5
7F7
  8
TEAM-BODY
 10
61.574173
 20
-34.798769
 30
850.0
  0
VERTEX
  5
7F8
  8
TEAM-BODY
 10
41.343642
 20
-31.309439
 30
850.0
  0
VERTEX
  5
7F9
  8
TEAM-BODY
 10
20.760381
 20
-29.203861
 30
850.0
  0
VERTEX
  5
7FA
  8
TEAM-BODY
 10
0.0
 20
-28.5
 30
850.0
  0
VERTEX
  5
7FB
  8
TEAM-BODY
 10
-20.760381
 20
-29.203861
 30
850.0
  0
VERTEX
  5
7FC
  8
TEAM-BODY
 10
-41.343642
 20
-31.309439
 30
850.0
  0
VERTEX
  5
7FD
  8
TEAM-BODY
 10
-61.574173
 20
-34.798769
 30
850.0
  0
VERTEX
  5
7FE
  8
TEAM-BODY
 10
-81.279375
 20
-39.642082
 30
850.0
  0
VERTEX
  5
7FF
  8
TEAM-BODY
 10
-100.29113
 20
-45.798057
 30
850.0
  0
VERTEX
  5
800
  8
TEAM-BODY
 10
-118.447237
 20
-53.214173
 30
850.0
  0
VERTEX
  5
801
  8
TEAM-BODY
 10
-135.592793
 20
-61.827157
 30
850.0
  0
VERTEX
  5
802
  8
TEAM-BODY
 10
-151.58152
 20
-71.563529
 30
850.0
  0
VERTEX
  5
803
  8
TEAM-BODY
 10
-166.277006
 20
-82.340219
 30
850.0
  0
VERTEX
  5
804
  8
TEAM-BODY
 10
-179.553876
 20
-94.065285
 30
850.0
  0
VERTEX
  5
805
  8
TEAM-BODY
 10
-191.298856
 20
-106.638693
 30
850.0
  0
VERTEX
  5
806
  8
TEAM-BODY
 10
-201.411741
 20
-119.953171
 30
850.0
  0
VERTEX
  5
807
  8
TEAM-BODY
 10
-209.806252
 20
-133.895125
 30
850.0
  0
VERTEX
  5
808
  8
TEAM-BODY
 10
-216.41077
 20
-148.345607
 30
850.0
  0
VERTEX
  5
809
  8
TEAM-BODY
 10
-221.168947
 20
-163.18133
 30
850.0
  0
VERTEX
  5
80A
  8
TEAM-BODY
 10
-224.04019
 20
-178.275721
 30
850.0
  0
VERTEX
  5
80B
  8
TEAM-BODY
 10
-225.0
 20
-193.5
 30
850.0
  0
SEQEND
  5
80C
  8
TEAM-BODY
  0
POLYLINE
  5
33E
  8
TEAM-BODY
 66
     1
 10
0.0
 20
0.0
 30
850.0
 70
   128
  0
VERTEX
  5
80D
  8
TEAM-BODY
 10
256.0
 20
-193.5
 30
850.0
  0
VERTEX
  5
80E
  8
TEAM-BODY
 10
255.025843
 20
-176.417474
 30
850.0
  0
VERTEX
  5
80F
  8
TEAM-BODY
 10
252.110785
 20
-159.464957
 30
850.0
  0
VERTEX
  5
810
  8
TEAM-BODY
 10
247.277012
 20
-142.771467
 30
850.0
  0
VERTEX
  5
811
  8
TEAM-BODY
 10
240.561311
 20
-126.464052
 30
850.0
  0
VERTEX
  5
812
  8
TEAM-BODY
 10
232.014793
 20
-110.666821
 30
850.0
  0
VERTEX
  5
813
  8
TEAM-BODY
 10
221.702503
 20
-95.5
 30
850.0
  0
VERTEX
  5
814
  8
TEAM-BODY
 10
209.702923
 20
-81.079018
 30
850.0
  0
VERTEX
  5
815
  8
TEAM-BODY
 10
196.107377
 20
-67.513629
 30
850.0
  0
VERTEX
  5
816
  8
TEAM-BODY
 10
181.019336
 20
-54.907071
 30
850.0
  0
VERTEX
  5
817
  8
TEAM-BODY
 10
164.553628
 20
-43.355289
 30
850.0
  0
VERTEX
  5
818
  8
TEAM-BODY
 10
146.835568
 20
-32.946199
 30
850.0
  0
VERTEX
  5
819
  8
TEAM-BODY
 10
128.0
 20
-23.759021
 30
850.0
  0
VERTEX
  5
81A
  8
TEAM-BODY
 10
108.190275
 20
-15.863674
 30
850.0
  0
VERTEX
  5
81B
  8
TEAM-BODY
 10
87.557157
 20
-9.320246
 30
850.0
  0
VERTEX
  5
81C
  8
TEAM-BODY
 10
66.257676
 20
-4.178538
 30
850.0
  0
VERTEX
  5
81D
  8
TEAM-BODY
 10
44.453933
 20
-0.47768
 30
850.0
  0
VERTEX
  5
81E
  8
TEAM-BODY
 10
22.31187
 20
1.754161
 30
850.0
  0
VERTEX
  5
81F
  8
TEAM-BODY
 10
0.0
 20
2.5
 30
850.0
  0
VERTEX
  5
820
  8
TEAM-BODY
 10
-22.31187
 20
1.754161
 30
850.0
  0
VERTEX
  5
821
  8
TEAM-BODY
 10
-44.453933
 20
-0.47768
 30
850.0
  0
VERTEX
  5
822
  8
TEAM-BODY
 10
-66.257676
 20
-4.178538
 30
850.0
  0
VERTEX
  5
823
  8
TEAM-BODY
 10
-87.557157
 20
-9.320246
 30
850.0
  0
VERTEX
  5
824
  8
TEAM-BODY
 10
-108.190275
 20
-15.863674
 30
850.0
  0
VERTEX
  5
825
  8
TEAM-BODY
 10
-128.0
 20
-23.759021
 30
850.0
  0
VERTEX
  5
826
  8
TEAM-BODY
 10
-146.835568
 20
-32.946199
 30
850.0
  0
VERTEX
  5
827
  8
TEAM-BODY
 10
-164.553628
 20
-43.355289
 30
850.0
  0
VERTEX
  5
828
  8
TEAM-BODY
 10
-181.019336
 20
-54.907071
 30
850.0
  0
VERTEX
  5
829
  8
TEAM-BODY
 10
-196.107377
 20
-67.513629
 30
850.0
  0
VERTEX
  5
82A
  8
TEAM-BODY
 10
-209.702923
 20
-81.079018
 30
850.0
  0
VERTEX
  5
82B
  8
TEAM-BODY
 10
-221.702503
 20
-95.5
 30
850.0
  0
VERTEX
  5
82C
  8
TEAM-BODY
 10
-232.014793
 20
-110.666821
 30
850.0
  0
VERTEX
  5
82D
  8
TEAM-BODY
 10
-240.561311
 20
-126.464052
 30
850.0
  0
VERTEX
  5
82E
  8
TEAM-BODY
 10
-247.277012
 20
-142.771467
 30
850.0
  0
VERTEX
  5
82F
  8
TEAM-BODY
 10
-252.110785
 20
-159.464957
 30
850.0
  0
VERTEX
  5
830
  8
TEAM-BODY
 10
-255.025843
 20
-176.417474
 30
850.0
  0
VERTEX
  5
831
  8
TEAM-BODY
 10
-256.0
 20
-193.5
 30
850.0
  0
SEQEND
  5
832
  8
TEAM-BODY
  0
POLYLINE
  5
33F
  8
TEAM-NET
 66
     1
 10
0.0
 20
0.0
 30
0.0
 70
    16
 71
     2
 72
    25
  0
VERTEX
  5
340
  8
TEAM-NET
 10
225.0
 20
-193.5
 30
850.0
 70
    64
  0
VERTEX
  5
341
  8
TEAM-NET
 10
222.299598
 20
-168.013226
 30
850.0
 70
    64
  0
VERTEX
  5
342
  8
TEAM-NET
 10
214.466108
 20
-143.604824
 30
850.0
 70
    64
  0
VERTEX
  5
343
  8
TEAM-NET
 10
202.180884
 20
-121.09697
 30
850.0
 70
    64
  0
VERTEX
  5
344
  8
TEAM-NET
 10
186.286494
 20
-100.96524
 30
850.0
 70
    64
  0
VERTEX
  5
345
  8
TEAM-NET
 10
167.584931
 20
-83.401555
 30
850.0
 70
    64
  0
VERTEX
  5
346
  8
TEAM-NET
 10
146.748639
 20
-68.424551
 30
850.0
 70
    64
  0
VERTEX
  5
347
  8
TEAM-NET
 10
124.310096
 20
-55.969203
 30
850.0
 70
    64
  0
VERTEX
  5
348
  8
TEAM-NET
 10
100.684074
 20
-45.941894
 30
850.0
 70
    64
  0
VERTEX
  5
349
  8
TEAM-NET
 10
76.196539
 20
-38.249527
 30
850.0
 70
    64
  0
VERTEX
  5
34A
  8
TEAM-NET
 10
51.110474
 20
-32.813431
 30
850.0
 70
    64
  0
VERTEX
  5
34B
  8
TEAM-NET
 10
25.646634
 20
-29.575393
 30
850.0
 70
    64
  0
VERTEX
  5
34C
  8
TEAM-NET
 10
0.0
 20
-28.5
 30
850.0
 70
    64
  0
VERTEX
  5
34D
  8
TEAM-NET
 10
-25.646634
 20
-29.575393
 30
850.0
 70
    64
  0
VERTEX
  5
34E
  8
TEAM-NET
 10
-51.110474
 20
-32.813431
 30
850.0
 70
    64
  0
VERTEX
  5
34F
  8
TEAM-NET
 10
-76.196539
 20
-38.249527
 30
850.0
 70
    64
  0
VERTEX
  5
350
  8
TEAM-NET
 10
-100.684074
 20
-45.941894
 30
850.0
 70
    64
  0
VERTEX
  5
351
  8
TEAM-NET
 10
-124.310096
 20
-55.969203
 30
850.0
 70
    64
  0
VERTEX
  5
352
  8
TEAM-NET
 10
-146.748639
 20
-68.424551
 30
850.0
 70
    64
  0
VERTEX
  5
353
  8
TEAM-NET
 10
-167.584931
 20
-83.401555
 30
850.0
 70
    64
  0
VERTEX
  5
354
  8
TEAM-NET
 10
-186.286494
 20
-100.96524
 30
850.0
 70
    64
  0
VERTEX
  5
355
  8
TEAM-NET
 10
-202.180884
 20
-121.09697
 30
850.0
 70
    64
  0
VERTEX
  5
356
  8
TEAM-NET
 10
-214.466108
 20
-143.604824
 30
850.0
 70
    64
  0
VERTEX
  5
357
  8
TEAM-NET
 10
-222.299598
 20
-168.013226
 30
850.0
 70
    64
  0
VERTEX
  5
358
  8
TEAM-NET
 10
-225.0
 20
-193.5
 30
850.0
 70
    64
  0
VERTEX
  5
359
  8
TEAM-NET
 10
256.0
 20
-193.5
 30
850.0
 70
    64
  0
VERTEX
  5
35A
  8
TEAM-NET
 10
253.079417
 20
-163.978143
 30
850.0
 70
    64
  0
VERTEX
  5
35B
  8
TEAM-NET
 10
244.558043
 20
-135.558001
 30
850.0
 70
    64
  0
VERTEX
  5
35C
  8
TEAM-NET
 10
231.065555
 20
-109.1258
 30
850.0
 70
    64
  0
VERTEX
  5
35D
  8
TEAM-NET
 10
213.419639
 20
-85.256605
 30
850.0
 70
    64
  0
VERTEX
  5
35E
  8
TEAM-NET
 10
192.444123
 20
-64.244767
 30
850.0
 70
    64
  0
VERTEX
  5
35F
  8
TEAM-NET
 10
168.86884
 20
-46.190656
 30
850.0
 70
    64
  0
VERTEX
  5
360
  8
TEAM-NET
 10
143.300239
 20
-31.084531
 30
850.0
 70
    64
  0
VERTEX
  5
361
  8
TEAM-NET
 10
116.229935
 20
-18.865985
 30
850.0
 70
    64
  0
VERTEX
  5
362
  8
TEAM-NET
 10
88.056857
 20
-9.459945
 30
850.0
 70
    64
  0
VERTEX
  5
363
  8
TEAM-NET
 10
59.110995
 20
-2.796521
 30
850.0
 70
    64
  0
VERTEX
  5
364
  8
TEAM-NET
 10
29.674571
 20
1.178761
 30
850.0
 70
    64
  0
VERTEX
  5
365
  8
TEAM-NET
 10
0.0
 20
2.5
 30
850.0
 70
    64
  0
VERTEX
  5
366
  8
TEAM-NET
 10
-29.674571
 20
1.178761
 30
850.0
 70
    64
  0
VERTEX
  5
367
  8
TEAM-NET
 10
-59.110995
 20
-2.796521
 30
850.0
 70
    64
  0
VERTEX
  5
368
  8
TEAM-NET
 10
-88.056857
 20
-9.459945
 30
850.0
 70
    64
  0
VERTEX
  5
369
  8
TEAM-NET
 10
-116.229935
 20
-18.865985
 30
850.0
 70
    64
  0
VERTEX
  5
36A
  8
TEAM-NET
 10
-143.300239
 20
-31.084531
 30
850.0
 70
    64
  0
VERTEX
  5
36B
  8
TEAM-NET
 10
-168.86884
 20
-46.190656
 30
850.0
 70
    64
  0
VERTEX
  5
36C
  8
TEAM-NET
 10
-192.444123
 20
-64.244767
 30
850.0
 70
    64
  0
VERTEX
  5
36D
  8
TEAM-NET
 10
-213.419643
 20
-85.25661
 30
850.0
 70
    64
  0
VERTEX
  5
36E
  8
TEAM-NET
 10
-231.065555
 20
-109.1258
 30
850.0
 70
    64
  0
VERTEX
  5
36F
  8
TEAM-NET
 10
-244.558043
 20
-135.558001
 30
850.0
 70
    64
  0
VERTEX
  5
370
  8
TEAM-NET
 10
-253.079417
 20
-163.978143
 30
850.0
 70
    64
  0
VERTEX
  5
371
  8
TEAM-NET
 10
-256.0
 20
-193.5
 30
850.0
 70
    64
  0
SEQEND
  5
372
  8
TEAM-NET
  0
ENDSEC
  0
EOF
