  0
SECTION
  2
HEADER
  9
$ACADVER
  1
AC1009
  9
$INSBASE
 10
0.0
 20
0.0
 30
842.0
  9
$EXTMIN
 10
-300.025793
 20
-500.018777
 30
-0.038511
  9
$EXTMAX
 10
300.018572
 20
10.006111
 30
850.034882
  9
$LIMMIN
 10
-300.025793
 20
-500.018777
  9
$LIMMAX
 10
300.018572
 20
10.006111
  9
$ORTHOMODE
 70
     1
  9
$REGENMODE
 70
     1
  9
$FILLMODE
 70
     1
  9
$QTEXTMODE
 70
     0
  9
$MIRRTEXT
 70
     0
  9
$DRAGMODE
 70
     2
  9
$LTSCALE
 40
50.0
  9
$OSMODE
 70
     7
  9
$ATTMODE
 70
     1
  9
$TEXTSIZE
 40
200.0
  9
$TRACEWID
 40
1.0
  9
$TEXTSTYLE
  7
STANDARD
  9
$CLAYER
  8
TEAM-MAS
  9
$CELTYPE
  6
BYLAYER
  9
$CECOLOR
 62
   256
  9
$DIMSCALE
 40
1.0
  9
$DIMASZ
 40
20.0
  9
$DIMEXO
 40
10.0
  9
$DIMDLI
 40
1.0
  9
$DIMRND
 40
0.0
  9
$DIMDLE
 40
0.0
  9
$DIMEXE
 40
1.0
  9
$DIMTP
 40
0.0
  9
$DIMTM
 40
0.0
  9
$DIMTXT
 40
35.0
  9
$DIMCEN
 40
1.0
  9
$DIMTSZ
 40
0.0
  9
$DIMTOL
 70
     0
  9
$DIMLIM
 70
     0
  9
$DIMTIH
 70
     0
  9
$DIMTOH
 70
     0
  9
$DIMSE1
 70
     0
  9
$DIMSE2
 70
     0
  9
$DIMTAD
 70
     0
  9
$DIMZIN
 70
     0
  9
$DIMBLK
  1

  9
$DIMASO
 70
     1
  9
$DIMSHO
 70
     0
  9
$DIMPOST
  1

  9
$DIMAPOST
  1

  9
$DIMALT
 70
     0
  9
$DIMALTD
 70
     2
  9
$DIMALTF
 40
25.4
  9
$DIMLFAC
 40
1.0
  9
$DIMTOFL
 70
     0
  9
$DIMTVP
 40
0.0
  9
$DIMTIX
 70
     0
  9
$DIMSOXD
 70
     0
  9
$DIMSAH
 70
     0
  9
$DIMBLK1
  1

  9
$DIMBLK2
  1

  9
$DIMSTYLE
  2
TEAM
  9
$DIMCLRD
 70
     9
  9
$DIMCLRE
 70
     9
  9
$DIMCLRT
 70
    11
  9
$DIMTFAC
 40
1.0
  9
$DIMGAP
 40
7.0
  9
$LUNITS
 70
     2
  9
$LUPREC
 70
     1
  9
$SKETCHINC
 40
1.0
  9
$FILLETRAD
 40
44.0
  9
$AUNITS
 70
     0
  9
$AUPREC
 70
     0
  9
$MENU
  1
ROPLANS
  9
$ELEVATION
 40
0.0
  9
$PELEVATION
 40
0.0
  9
$THICKNESS
 40
0.0
  9
$LIMCHECK
 70
     0
  9
$BLIPMODE
 70
     1
  9
$CHAMFERA
 40
0.0
  9
$CHAMFERB
 40
0.0
  9
$SKPOLY
 70
     0
  9
$TDCREATE
 40
2450392.957851
  9
$TDUPDATE
 40
2455981.928629
  9
$TDINDWG
 40
3.777306
  9
$TDUSRTIMER
 40
3.777306
  9
$USRTIMER
 70
     1
  9
$ANGBASE
 50
0.0
  9
$ANGDIR
 70
     0
  9
$PDMODE
 70
     0
  9
$PDSIZE
 40
0.0
  9
$PLINEWID
 40
0.0
  9
$COORDS
 70
     2
  9
$SPLFRAME
 70
     0
  9
$SPLINETYPE
 70
     6
  9
$SPLINESEGS
 70
     8
  9
$ATTDIA
 70
     0
  9
$ATTREQ
 70
     0
  9
$HANDLING
 70
     1
  9
$HANDSEED
  5
904
  9
$SURFTAB1
 70
    36
  9
$SURFTAB2
 70
    36
  9
$SURFTYPE
 70
     6
  9
$SURFU
 70
     6
  9
$SURFV
 70
     6
  9
$UCSNAME
  2

  9
$UCSORG
 10
0.0
 20
0.0
 30
0.0
  9
$UCSXDIR
 10
1.0
 20
0.0
 30
0.0
  9
$UCSYDIR
 10
0.0
 20
1.0
 30
0.0
  9
$PUCSNAME
  2

  9
$PUCSORG
 10
0.0
 20
0.0
 30
0.0
  9
$PUCSXDIR
 10
1.0
 20
0.0
 30
0.0
  9
$PUCSYDIR
 10
0.0
 20
1.0
 30
0.0
  9
$USERI1
 70
     0
  9
$USERI2
 70
     0
  9
$USERI3
 70
     0
  9
$USERI4
 70
     0
  9
$USERI5
 70
     0
  9
$USERR1
 40
0.0
  9
$USERR2
 40
0.0
  9
$USERR3
 40
0.0
  9
$USERR4
 40
0.0
  9
$USERR5
 40
0.0
  9
$WORLDVIEW
 70
     1
  9
$SHADEDGE
 70
     0
  9
$SHADEDIF
 70
    70
  9
$TILEMODE
 70
     1
  9
$MAXACTVP
 70
    16
  9
$PLIMCHECK
 70
     0
  9
$PEXTMIN
 10
-0.805942
 20
0.005011
 30
0.0
  9
$PEXTMAX
 10
20.250094
 20
11.356329
 30
0.0
  9
$PLIMMIN
 10
0.0
 20
0.0
  9
$PLIMMAX
 10
12.0
 20
9.0
  9
$UNITMODE
 70
     0
  9
$VISRETAIN
 70
     0
  9
$PLINEGEN
 70
     0
  9
$PSLTSCALE
 70
     0
  0
ENDSEC
  0
SECTION
  2
TABLES
  0
TABLE
  2
VPORT
 70
     2
  0
VPORT
  2
*ACTIVE
 70
     0
 10
0.0
 20
0.0
 11
1.0
 21
1.0
 12
-0.003611
 22
-245.006333
 13
0.0
 23
0.0
 14
1.0
 24
1.0
 15
50.0
 25
50.0
 16
0.0
 26
0.0
 36
1.0
 17
0.0
 27
0.0
 37
0.0
 40
513.222536
 41
1.903766
 42
50.0
 43
0.0
 44
0.0
 50
0.0
 51
0.0
 71
     0
 72
   100
 73
     1
 74
     1
 75
     0
 76
     0
 77
     0
 78
     0
  0
ENDTAB
  0
TABLE
  2
LTYPE
 70
     2
  0
LTYPE
  2
CONTINUOUS
 70
     0
  3
Solid Line
 72
    65
 73
     0
 40
0.0
  0
LTYPE
  2
31
 70
     0
  3

 72
    65
 73
     4
 40
2.1
 49
1.5
 49
-0.3
 49
0.0
 49
-0.3
  0
ENDTAB
  0
TABLE
  2
LAYER
 70
     9
  0
LAYER
  2
0
 70
     0
 62
     7
  6
CONTINUOUS
  0
LAYER
  2
TEAM-BODY
 70
     0
 62
     2
  6
CONTINUOUS
  0
LAYER
  2
TEAM-AXE
 70
     0
 62
    10
  6
31
  0
LAYER
  2
TEAM-MAS
 70
     0
 62
     9
  6
CONTINUOUS
  0
LAYER
  2
TEAM-TXT
 70
     0
 62
    11
  6
CONTINUOUS
  0
LAYER
  2
TEAM-DET1
 70
     0
 62
     4
  6
CONTINUOUS
  0
LAYER
  2
TEAM-KAN
 70
     0
 62
     6
  6
CONTINUOUS
  0
LAYER
  2
TEAM-NET
 70
     0
 62
    15
  6
CONTINUOUS
  0
LAYER
  2
TEAM-INSP
 70
     0
 62
     5
  6
CONTINUOUS
  0
ENDTAB
  0
TABLE
  2
STYLE
 70
     2
  0
STYLE
  2
STANDARD
 70
     0
 40
0.0
 41
1.0
 50
0.0
 71
     0
 42
200.0
  3
txt
  4

  0
STYLE
  2
TEAM
 70
     0
 40
0.0
 41
0.8
 50
15.0
 71
     0
 42
7.0
  3
ROMANS.shx
  4

  0
ENDTAB
  0
TABLE
  2
VIEW
 70
     0
  0
ENDTAB
  0
TABLE
  2
UCS
 70
     0
  0
ENDTAB
  0
TABLE
  2
APPID
 70
     1
  0
APPID
  2
ACAD
 70
     0
  0
ENDTAB
  0
TABLE
  2
DIMSTYLE
 70
     1
  0
DIMSTYLE
  2
TEAM
 70
     0
  3

  4

  5

  6

  7

 40
1.0
 41
20.0
 42
10.0
 43
1.0
 44
1.0
 45
0.0
 46
0.0
 47
0.0
 48
0.0
140
35.0
141
1.0
142
0.0
143
25.4
144
1.0
145
0.0
146
1.0
147
7.0
 71
     0
 72
     0
 73
     0
 74
     0
 75
     0
 76
     0
 77
     0
 78
     0
170
     0
171
     2
172
     0
173
     0
174
     0
175
     0
176
     9
177
     9
178
    11
  0
ENDTAB
  0
ENDSEC
  0
SECTION
  2
BLOCKS
  0
BLOCK
  8
0
  2
$MODEL_SPACE
 70
     0
 10
0.0
 20
0.0
 30
0.0
  3
$MODEL_SPACE
  1

  0
ENDBLK
  5
7F9
  8
0
  0
BLOCK
 67
     1
  8
0
  2
$PAPER_SPACE
 70
     0
 10
0.0
 20
0.0
 30
0.0
  3
$PAPER_SPACE
  1

  0
ENDBLK
  5
7F7
 67
     1
  8
0
  0
ENDSEC
  0
SECTION
  2
ENTITIES
  0
CIRCLE
  5
20
  8
TEAM-INSP
 10
0.0
 20
0.0
 30
0.0
 40
10.0
  0
POLYLINE
  5
22
  8
TEAM-NET
 66
     1
 10
0.0
 20
0.0
 30
0.0
 70
    16
 71
    37
 72
    37
  0
VERTEX
  5
23
  8
TEAM-NET
 10
237.5
 20
-287.5
 30
850.0
 70
    64
  0
VERTEX
  5
24
  8
TEAM-NET
 10
236.333638
 20
-268.940453
 30
850.0
 70
    64
  0
VERTEX
  5
25
  8
TEAM-NET
 10
232.872828
 20
-250.66874
 30
850.0
 70
    64
  0
VERTEX
  5
26
  8
TEAM-NET
 10
227.226283
 20
-232.949333
 30
850.0
 70
    64
  0
VERTEX
  5
27
  8
TEAM-NET
 10
219.557022
 20
-216.005914
 30
850.0
 70
    64
  0
VERTEX
  5
28
  8
TEAM-NET
 10
210.061594
 20
-200.013004
 30
850.0
 70
    64
  0
VERTEX
  5
29
  8
TEAM-NET
 10
198.950185
 20
-185.096182
 30
850.0
 70
    64
  0
VERTEX
  5
2A
  8
TEAM-NET
 10
186.431113
 20
-171.338155
 30
850.0
 70
    64
  0
VERTEX
  5
2B
  8
TEAM-NET
 10
172.700775
 20
-158.787478
 30
850.0
 70
    64
  0
VERTEX
  5
2C
  8
TEAM-NET
 10
157.93843
 20
-147.467525
 30
850.0
 70
    64
  0
VERTEX
  5
2D
  8
TEAM-NET
 10
142.304491
 20
-137.384362
 30
850.0
 70
    64
  0
VERTEX
  5
2E
  8
TEAM-NET
 10
125.941043
 20
-128.533041
 30
850.0
 70
    64
  0
VERTEX
  5
2F
  8
TEAM-NET
 10
108.973572
 20
-120.902326
 30
850.0
 70
    64
  0
VERTEX
  5
30
  8
TEAM-NET
 10
91.513225
 20
-114.478094
 30
850.0
 70
    64
  0
VERTEX
  5
31
  8
TEAM-NET
 10
73.659217
 20
-109.245706
 30
850.0
 70
    64
  0
VERTEX
  5
32
  8
TEAM-NET
 10
55.50117
 20
-105.191619
 30
850.0
 70
    64
  0
VERTEX
  5
33
  8
TEAM-NET
 10
37.121304
 20
-102.304451
 30
850.0
 70
    64
  0
VERTEX
  5
34
  8
TEAM-NET
 10
18.596465
 20
-100.575668
 30
850.0
 70
    64
  0
VERTEX
  5
35
  8
TEAM-NET
 10
0.0
 20
-100.0
 30
850.0
 70
    64
  0
VERTEX
  5
36
  8
TEAM-NET
 10
-18.596465
 20
-100.575668
 30
850.0
 70
    64
  0
VERTEX
  5
37
  8
TEAM-NET
 10
-37.121304
 20
-102.304451
 30
850.0
 70
    64
  0
VERTEX
  5
38
  8
TEAM-NET
 10
-55.50117
 20
-105.191619
 30
850.0
 70
    64
  0
VERTEX
  5
39
  8
TEAM-NET
 10
-73.659217
 20
-109.245706
 30
850.0
 70
    64
  0
VERTEX
  5
3A
  8
TEAM-NET
 10
-91.513225
 20
-114.478094
 30
850.0
 70
    64
  0
VERTEX
  5
3B
  8
TEAM-NET
 10
-108.973572
 20
-120.902326
 30
850.0
 70
    64
  0
VERTEX
  5
3C
  8
TEAM-NET
 10
-125.941043
 20
-128.533041
 30
850.0
 70
    64
  0
VERTEX
  5
3D
  8
TEAM-NET
 10
-142.304491
 20
-137.384362
 30
850.0
 70
    64
  0
VERTEX
  5
3E
  8
TEAM-NET
 10
-157.93843
 20
-147.467525
 30
850.0
 70
    64
  0
VERTEX
  5
3F
  8
TEAM-NET
 10
-172.700775
 20
-158.787478
 30
850.0
 70
    64
  0
VERTEX
  5
40
  8
TEAM-NET
 10
-186.431113
 20
-171.338155
 30
850.0
 70
    64
  0
VERTEX
  5
41
  8
TEAM-NET
 10
-198.950185
 20
-185.096182
 30
850.0
 70
    64
  0
VERTEX
  5
42
  8
TEAM-NET
 10
-210.061594
 20
-200.013004
 30
850.0
 70
    64
  0
VERTEX
  5
43
  8
TEAM-NET
 10
-219.557022
 20
-216.005914
 30
850.0
 70
    64
  0
VERTEX
  5
44
  8
TEAM-NET
 10
-227.226283
 20
-232.949333
 30
850.0
 70
    64
  0
VERTEX
  5
45
  8
TEAM-NET
 10
-232.872828
 20
-250.66874
 30
850.0
 70
    64
  0
VERTEX
  5
46
  8
TEAM-NET
 10
-236.333638
 20
-268.940453
 30
850.0
 70
    64
  0
VERTEX
  5
47
  8
TEAM-NET
 10
-237.5
 20
-287.5
 30
850.0
 70
    64
  0
VERTEX
  5
48
  8
TEAM-NET
 10
237.5
 20
-287.5
 30
850.0
 70
    64
  0
VERTEX
  5
49
  8
TEAM-NET
 10
236.333638
 20
-269.011078
 30
848.382429
 70
    64
  0
VERTEX
  5
4A
  8
TEAM-NET
 10
232.872828
 20
-250.808894
 30
846.789944
 70
    64
  0
VERTEX
  5
4B
  8
TEAM-NET
 10
227.226283
 20
-233.156914
 30
845.245596
 70
    64
  0
VERTEX
  5
4C
  8
TEAM-NET
 10
219.557022
 20
-216.27797
 30
843.76888
 70
    64
  0
VERTEX
  5
4D
  8
TEAM-NET
 10
210.061594
 20
-200.345918
 30
842.375006
 70
    64
  0
VERTEX
  5
4E
  8
TEAM-NET
 10
198.950185
 20
-185.48586
 30
841.074919
 70
    64
  0
VERTEX
  5
4F
  8
TEAM-NET
 10
186.431113
 20
-171.780186
 30
839.875828
 70
    64
  0
VERTEX
  5
50
  8
TEAM-NET
 10
172.700775
 20
-159.277268
 30
838.781965
 70
    64
  0
VERTEX
  5
51
  8
TEAM-NET
 10
157.93843
 20
-148.00039
 30
837.795366
 70
    64
  0
VERTEX
  5
52
  8
TEAM-NET
 10
142.304491
 20
-137.955597
 30
836.91656
 70
    64
  0
VERTEX
  5
53
  8
TEAM-NET
 10
125.941043
 20
-129.137958
 30
836.145117
 70
    64
  0
VERTEX
  5
54
  8
TEAM-NET
 10
108.973572
 20
-121.53628
 30
835.480056
 70
    64
  0
VERTEX
  5
55
  8
TEAM-NET
 10
91.513225
 20
-115.136494
 30
834.920147
 70
    64
  0
VERTEX
  5
56
  8
TEAM-NET
 10
73.659217
 20
-109.924017
 30
834.464115
 70
    64
  0
VERTEX
  5
57
  8
TEAM-NET
 10
55.50117
 20
-105.885358
 30
834.110778
 70
    64
  0
VERTEX
  5
58
  8
TEAM-NET
 10
37.121304
 20
-103.009176
 30
833.859144
 70
    64
  0
VERTEX
  5
59
  8
TEAM-NET
 10
18.596465
 20
-101.286971
 30
833.708471
 70
    64
  0
VERTEX
  5
5A
  8
TEAM-NET
 10
0.0
 20
-100.713494
 30
833.658298
 70
    64
  0
VERTEX
  5
5B
  8
TEAM-NET
 10
-18.596465
 20
-101.286971
 30
833.708471
 70
    64
  0
VERTEX
  5
5C
  8
TEAM-NET
 10
-37.121304
 20
-103.009176
 30
833.859144
 70
    64
  0
VERTEX
  5
5D
  8
TEAM-NET
 10
-55.50117
 20
-105.885358
 30
834.110778
 70
    64
  0
VERTEX
  5
5E
  8
TEAM-NET
 10
-73.659217
 20
-109.924017
 30
834.464115
 70
    64
  0
VERTEX
  5
5F
  8
TEAM-NET
 10
-91.513225
 20
-115.136494
 30
834.920147
 70
    64
  0
VERTEX
  5
60
  8
TEAM-NET
 10
-108.973572
 20
-121.53628
 30
835.480056
 70
    64
  0
VERTEX
  5
61
  8
TEAM-NET
 10
-125.941043
 20
-129.137958
 30
836.145117
 70
    64
  0
VERTEX
  5
62
  8
TEAM-NET
 10
-142.304491
 20
-137.955597
 30
836.91656
 70
    64
  0
VERTEX
  5
63
  8
TEAM-NET
 10
-157.93843
 20
-148.00039
 30
837.795366
 70
    64
  0
VERTEX
  5
64
  8
TEAM-NET
 10
-172.700775
 20
-159.277268
 30
838.781965
 70
    64
  0
VERTEX
  5
65
  8
TEAM-NET
 10
-186.431113
 20
-171.780186
 30
839.875828
 70
    64
  0
VERTEX
  5
66
  8
TEAM-NET
 10
-198.950185
 20
-185.48586
 30
841.074919
 70
    64
  0
VERTEX
  5
67
  8
TEAM-NET
 10
-210.061594
 20
-200.345918
 30
842.375006
 70
    64
  0
VERTEX
  5
68
  8
TEAM-NET
 10
-219.557022
 20
-216.27797
 30
843.76888
 70
    64
  0
VERTEX
  5
69
  8
TEAM-NET
 10
-227.226283
 20
-233.156914
 30
845.245596
 70
    64
  0
VERTEX
  5
6A
  8
TEAM-NET
 10
-232.872828
 20
-250.808894
 30
846.789944
 70
    64
  0
VERTEX
  5
6B
  8
TEAM-NET
 10
-236.333638
 20
-269.011078
 30
848.382429
 70
    64
  0
VERTEX
  5
6C
  8
TEAM-NET
 10
-237.5
 20
-287.5
 30
850.0
 70
    64
  0
VERTEX
  5
6D
  8
TEAM-NET
 10
237.5
 20
-287.5
 30
850.0
 70
    64
  0
VERTEX
  5
6E
  8
TEAM-NET
 10
236.333638
 20
-269.222414
 30
846.777169
 70
    64
  0
VERTEX
  5
6F
  8
TEAM-NET
 10
232.872828
 20
-251.228289
 30
843.604319
 70
    64
  0
VERTEX
  5
70
  8
TEAM-NET
 10
227.226283
 20
-233.77808
 30
840.527376
 70
    64
  0
VERTEX
  5
71
  8
TEAM-NET
 10
219.557022
 20
-217.09207
 30
837.585182
 70
    64
  0
VERTEX
  5
72
  8
TEAM-NET
 10
210.061594
 20
-201.342128
 30
834.808043
 70
    64
  0
VERTEX
  5
73
  8
TEAM-NET
 10
198.950185
 20
-186.651926
 30
832.217764
 70
    64
  0
VERTEX
  5
74
  8
TEAM-NET
 10
186.431113
 20
-173.102914
 30
829.828707
 70
    64
  0
VERTEX
  5
75
  8
TEAM-NET
 10
172.700775
 20
-160.74291
 30
827.649305
 70
    64
  0
VERTEX
  5
76
  8
TEAM-NET
 10
157.93843
 20
-149.594932
 30
825.683616
 70
    64
  0
VERTEX
  5
77
  8
TEAM-NET
 10
142.304491
 20
-139.664956
 30
823.932693
 70
    64
  0
VERTEX
  5
78
  8
TEAM-NET
 10
125.941043
 20
-130.948106
 30
822.395677
 70
    64
  0
VERTEX
  5
79
  8
TEAM-NET
 10
108.973572
 20
-123.433319
 30
821.070617
 70
    64
  0
VERTEX
  5
7A
  8
TEAM-NET
 10
91.513225
 20
-117.106685
 30
819.955061
 70
    64
  0
VERTEX
  5
7B
  8
TEAM-NET
 10
73.659217
 20
-111.953789
 30
819.046467
 70
    64
  0
VERTEX
  5
7C
  8
TEAM-NET
 10
55.50117
 20
-107.961293
 30
818.342482
 70
    64
  0
VERTEX
  5
7D
  8
TEAM-NET
 10
37.121304
 20
-105.117988
 30
817.84113
 70
    64
  0
VERTEX
  5
7E
  8
TEAM-NET
 10
18.596465
 20
-103.415469
 30
817.54093
 70
    64
  0
VERTEX
  5
7F
  8
TEAM-NET
 10
0.0
 20
-102.848546
 30
817.440967
 70
    64
  0
VERTEX
  5
80
  8
TEAM-NET
 10
-18.596465
 20
-103.415469
 30
817.54093
 70
    64
  0
VERTEX
  5
81
  8
TEAM-NET
 10
-37.121304
 20
-105.117988
 30
817.84113
 70
    64
  0
VERTEX
  5
82
  8
TEAM-NET
 10
-55.50117
 20
-107.961293
 30
818.342482
 70
    64
  0
VERTEX
  5
83
  8
TEAM-NET
 10
-73.659217
 20
-111.953789
 30
819.046467
 70
    64
  0
VERTEX
  5
84
  8
TEAM-NET
 10
-91.513225
 20
-117.106685
 30
819.955061
 70
    64
  0
VERTEX
  5
85
  8
TEAM-NET
 10
-108.973572
 20
-123.433319
 30
821.070617
 70
    64
  0
VERTEX
  5
86
  8
TEAM-NET
 10
-125.941043
 20
-130.948106
 30
822.395677
 70
    64
  0
VERTEX
  5
87
  8
TEAM-NET
 10
-142.304491
 20
-139.664956
 30
823.932693
 70
    64
  0
VERTEX
  5
88
  8
TEAM-NET
 10
-157.93843
 20
-149.594932
 30
825.683616
 70
    64
  0
VERTEX
  5
89
  8
TEAM-NET
 10
-172.700775
 20
-160.74291
 30
827.649305
 70
    64
  0
VERTEX
  5
8A
  8
TEAM-NET
 10
-186.431113
 20
-173.102914
 30
829.828707
 70
    64
  0
VERTEX
  5
8B
  8
TEAM-NET
 10
-198.950185
 20
-186.651926
 30
832.217764
 70
    64
  0
VERTEX
  5
8C
  8
TEAM-NET
 10
-210.061594
 20
-201.342128
 30
834.808043
 70
    64
  0
VERTEX
  5
8D
  8
TEAM-NET
 10
-219.557022
 20
-217.09207
 30
837.585182
 70
    64
  0
VERTEX
  5
8E
  8
TEAM-NET
 10
-227.226283
 20
-233.77808
 30
840.527376
 70
    64
  0
VERTEX
  5
8F
  8
TEAM-NET
 10
-232.872828
 20
-251.228289
 30
843.604319
 70
    64
  0
VERTEX
  5
90
  8
TEAM-NET
 10
-236.333638
 20
-269.222414
 30
846.777169
 70
    64
  0
VERTEX
  5
91
  8
TEAM-NET
 10
-237.5
 20
-287.5
 30
850.0
 70
    64
  0
VERTEX
  5
92
  8
TEAM-NET
 10
237.5
 20
-287.5
 30
850.0
 70
    64
  0
VERTEX
  5
93
  8
TEAM-NET
 10
236.333638
 20
-269.572854
 30
845.196436
 70
    64
  0
VERTEX
  5
94
  8
TEAM-NET
 10
232.872828
 20
-251.923735
 30
840.467368
 70
    64
  0
VERTEX
  5
95
  8
TEAM-NET
 10
227.226283
 20
-234.808101
 30
835.881248
 70
    64
  0
VERTEX
  5
96
  8
TEAM-NET
 10
219.557022
 20
-218.442016
 30
831.495969
 70
    64
  0
VERTEX
  5
97
  8
TEAM-NET
 10
210.061594
 20
-202.994051
 30
827.356699
 70
    64
  0
VERTEX
  5
98
  8
TEAM-NET
 10
198.950185
 20
-188.585508
 30
823.495942
 70
    64
  0
VERTEX
  5
99
  8
TEAM-NET
 10
186.431113
 20
-175.296274
 30
819.935102
 70
    64
  0
VERTEX
  5
9A
  8
TEAM-NET
 10
172.700775
 20
-163.173251
 30
816.686748
 70
    64
  0
VERTEX
  5
9B
  8
TEAM-NET
 10
157.93843
 20
-152.239015
 30
813.756928
 70
    64
  0
VERTEX
  5
9C
  8
TEAM-NET
 10
142.304491
 20
-142.499428
 30
811.147214
 70
    64
  0
VERTEX
  5
9D
  8
TEAM-NET
 10
125.941043
 20
-133.949709
 30
808.856323
 70
    64
  0
VERTEX
  5
9E
  8
TEAM-NET
 10
108.973572
 20
-126.579004
 30
806.881349
 70
    64
  0
VERTEX
  5
9F
  8
TEAM-NET
 10
91.513225
 20
-120.373672
 30
805.218635
 70
    64
  0
VERTEX
  5
A0
  8
TEAM-NET
 10
73.659217
 20
-115.319574
 30
803.864394
 70
    64
  0
VERTEX
  5
A1
  8
TEAM-NET
 10
55.50117
 20
-111.403627
 30
802.815119
 70
    64
  0
VERTEX
  5
A2
  8
TEAM-NET
 10
37.121304
 20
-108.614837
 30
802.067865
 70
    64
  0
VERTEX
  5
A3
  8
TEAM-NET
 10
18.596465
 20
-106.94496
 30
801.620423
 70
    64
  0
VERTEX
  5
A4
  8
TEAM-NET
 10
0.0
 20
-106.388908
 30
801.471429
 70
    64
  0
VERTEX
  5
A5
  8
TEAM-NET
 10
-18.596465
 20
-106.94496
 30
801.620423
 70
    64
  0
VERTEX
  5
A6
  8
TEAM-NET
 10
-37.121304
 20
-108.614837
 30
802.067865
 70
    64
  0
VERTEX
  5
A7
  8
TEAM-NET
 10
-55.50117
 20
-111.403627
 30
802.815119
 70
    64
  0
VERTEX
  5
A8
  8
TEAM-NET
 10
-73.659217
 20
-115.319574
 30
803.864394
 70
    64
  0
VERTEX
  5
A9
  8
TEAM-NET
 10
-91.513225
 20
-120.373672
 30
805.218635
 70
    64
  0
VERTEX
  5
AA
  8
TEAM-NET
 10
-108.973572
 20
-126.579004
 30
806.881349
 70
    64
  0
VERTEX
  5
AB
  8
TEAM-NET
 10
-125.941043
 20
-133.949709
 30
808.856323
 70
    64
  0
VERTEX
  5
AC
  8
TEAM-NET
 10
-142.304491
 20
-142.499428
 30
811.147214
 70
    64
  0
VERTEX
  5
AD
  8
TEAM-NET
 10
-157.93843
 20
-152.239015
 30
813.756928
 70
    64
  0
VERTEX
  5
AE
  8
TEAM-NET
 10
-172.700775
 20
-163.173251
 30
816.686748
 70
    64
  0
VERTEX
  5
AF
  8
TEAM-NET
 10
-186.431113
 20
-175.296274
 30
819.935102
 70
    64
  0
VERTEX
  5
B0
  8
TEAM-NET
 10
-198.950185
 20
-188.585508
 30
823.495942
 70
    64
  0
VERTEX
  5
B1
  8
TEAM-NET
 10
-210.061594
 20
-202.994051
 30
827.356699
 70
    64
  0
VERTEX
  5
B2
  8
TEAM-NET
 10
-219.557022
 20
-218.442016
 30
831.495969
 70
    64
  0
VERTEX
  5
B3
  8
TEAM-NET
 10
-227.226283
 20
-234.808101
 30
835.881248
 70
    64
  0
VERTEX
  5
B4
  8
TEAM-NET
 10
-232.872828
 20
-251.923735
 30
840.467368
 70
    64
  0
VERTEX
  5
B5
  8
TEAM-NET
 10
-236.333638
 20
-269.572854
 30
845.196436
 70
    64
  0
VERTEX
  5
B6
  8
TEAM-NET
 10
-237.5
 20
-287.5
 30
850.0
 70
    64
  0
VERTEX
  5
B7
  8
TEAM-NET
 10
237.5
 20
-287.5
 30
850.0
 70
    64
  0
VERTEX
  5
B8
  8
TEAM-NET
 10
236.333638
 20
-270.059731
 30
843.652261
 70
    64
  0
VERTEX
  5
B9
  8
TEAM-NET
 10
232.872828
 20
-252.889937
 30
837.402967
 70
    64
  0
VERTEX
  5
BA
  8
TEAM-NET
 10
227.226283
 20
-236.23914
 30
831.342573
 70
    64
  0
VERTEX
  5
BB
  8
TEAM-NET
 10
219.557022
 20
-220.317535
 30
825.547582
 70
    64
  0
VERTEX
  5
BC
  8
TEAM-NET
 10
210.061594
 20
-205.289115
 30
820.077685
 70
    64
  0
VERTEX
  5
BD
  8
TEAM-NET
 10
198.950185
 20
-191.271888
 30
814.975832
 70
    64
  0
VERTEX
  5
BE
  8
TEAM-NET
 10
186.431113
 20
-178.343571
 30
810.270309
 70
    64
  0
VERTEX
  5
BF
  8
TEAM-NET
 10
172.700775
 20
-166.549793
 30
805.977725
 70
    64
  0
VERTEX
  5
C0
  8
TEAM-NET
 10
157.93843
 20
-155.912516
 30
802.106073
 70
    64
  0
VERTEX
  5
C1
  8
TEAM-NET
 10
142.304491
 20
-146.437443
 30
798.657428
 70
    64
  0
VERTEX
  5
C2
  8
TEAM-NET
 10
125.941043
 20
-138.119922
 30
795.630098
 70
    64
  0
VERTEX
  5
C3
  8
TEAM-NET
 10
108.973572
 20
-130.949395
 30
793.02024
 70
    64
  0
VERTEX
  5
C4
  8
TEAM-NET
 10
91.513225
 20
-124.912591
 30
790.823023
 70
    64
  0
VERTEX
  5
C5
  8
TEAM-NET
 10
73.659217
 20
-119.995755
 30
789.033441
 70
    64
  0
VERTEX
  5
C6
  8
TEAM-NET
 10
55.50117
 20
-116.18616
 30
787.646862
 70
    64
  0
VERTEX
  5
C7
  8
TEAM-NET
 10
37.121304
 20
-113.47311
 30
786.659392
 70
    64
  0
VERTEX
  5
C8
  8
TEAM-NET
 10
18.596465
 20
-111.848585
 30
786.068113
 70
    64
  0
VERTEX
  5
C9
  8
TEAM-NET
 10
0.0
 20
-111.307634
 30
785.871223
 70
    64
  0
VERTEX
  5
CA
  8
TEAM-NET
 10
-18.596465
 20
-111.848585
 30
786.068113
 70
    64
  0
VERTEX
  5
CB
  8
TEAM-NET
 10
-37.121304
 20
-113.47311
 30
786.659392
 70
    64
  0
VERTEX
  5
CC
  8
TEAM-NET
 10
-55.50117
 20
-116.18616
 30
787.646862
 70
    64
  0
VERTEX
  5
CD
  8
TEAM-NET
 10
-73.659217
 20
-119.995755
 30
789.033441
 70
    64
  0
VERTEX
  5
CE
  8
TEAM-NET
 10
-91.513225
 20
-124.912591
 30
790.823023
 70
    64
  0
VERTEX
  5
CF
  8
TEAM-NET
 10
-108.973572
 20
-130.949395
 30
793.02024
 70
    64
  0
VERTEX
  5
D0
  8
TEAM-NET
 10
-125.941043
 20
-138.119922
 30
795.630098
 70
    64
  0
VERTEX
  5
D1
  8
TEAM-NET
 10
-142.304491
 20
-146.437443
 30
798.657428
 70
    64
  0
VERTEX
  5
D2
  8
TEAM-NET
 10
-157.93843
 20
-155.912516
 30
802.106073
 70
    64
  0
VERTEX
  5
D3
  8
TEAM-NET
 10
-172.700775
 20
-166.549793
 30
805.977725
 70
    64
  0
VERTEX
  5
D4
  8
TEAM-NET
 10
-186.431113
 20
-178.343571
 30
810.270309
 70
    64
  0
VERTEX
  5
D5
  8
TEAM-NET
 10
-198.950185
 20
-191.271888
 30
814.975832
 70
    64
  0
VERTEX
  5
D6
  8
TEAM-NET
 10
-210.061594
 20
-205.289115
 30
820.077685
 70
    64
  0
VERTEX
  5
D7
  8
TEAM-NET
 10
-219.557022
 20
-220.317535
 30
825.547582
 70
    64
  0
VERTEX
  5
D8
  8
TEAM-NET
 10
-227.226283
 20
-236.23914
 30
831.342573
 70
    64
  0
VERTEX
  5
D9
  8
TEAM-NET
 10
-232.872828
 20
-252.889937
 30
837.402967
 70
    64
  0
VERTEX
  5
DA
  8
TEAM-NET
 10
-236.333638
 20
-270.059731
 30
843.652261
 70
    64
  0
VERTEX
  5
DB
  8
TEAM-NET
 10
-237.5
 20
-287.5
 30
850.0
 70
    64
  0
VERTEX
  5
DC
  8
TEAM-NET
 10
237.5
 20
-287.5
 30
850.0
 70
    64
  0
VERTEX
  5
DD
  8
TEAM-NET
 10
236.333638
 20
-270.679338
 30
842.156397
 70
    64
  0
VERTEX
  5
DE
  8
TEAM-NET
 10
232.872828
 20
-254.119542
 30
834.434437
 70
    64
  0
VERTEX
  5
DF
  8
TEAM-NET
 10
227.226283
 20
-238.060305
 30
826.945892
 70
    64
  0
VERTEX
  5
E0
  8
TEAM-NET
 10
219.557022
 20
-222.704353
 30
819.785294
 70
    64
  0
VERTEX
  5
E1
  8
TEAM-NET
 10
210.061594
 20
-208.209854
 30
813.026398
 70
    64
  0
VERTEX
  5
E2
  8
TEAM-NET
 10
198.950185
 20
-194.690622
 30
806.722276
 70
    64
  0
VERTEX
  5
E3
  8
TEAM-NET
 10
186.431113
 20
-182.221615
 30
800.907883
 70
    64
  0
VERTEX
  5
E4
  8
TEAM-NET
 10
172.700775
 20
-170.846839
 30
795.603738
 70
    64
  0
VERTEX
  5
E5
  8
TEAM-NET
 10
157.93843
 20
-160.587477
 30
790.819719
 70
    64
  0
VERTEX
  5
E6
  8
TEAM-NET
 10
142.304491
 20
-151.449028
 30
786.55839
 70
    64
  0
VERTEX
  5
E7
  8
TEAM-NET
 10
125.941043
 20
-143.427007
 30
782.81766
 70
    64
  0
VERTEX
  5
E8
  8
TEAM-NET
 10
108.973572
 20
-136.511231
 30
779.592781
 70
    64
  0
VERTEX
  5
E9
  8
TEAM-NET
 10
91.513225
 20
-130.688899
 30
776.877783
 70
    64
  0
VERTEX
  5
EA
  8
TEAM-NET
 10
73.659217
 20
-125.946745
 30
774.66648
 70
    64
  0
VERTEX
  5
EB
  8
TEAM-NET
 10
55.50117
 20
-122.272495
 30
772.953149
 70
    64
  0
VERTEX
  5
EC
  8
TEAM-NET
 10
37.121304
 20
-119.655832
 30
771.732979
 70
    64
  0
VERTEX
  5
ED
  8
TEAM-NET
 10
18.596465
 20
-118.089022
 30
771.002364
 70
    64
  0
VERTEX
  5
EE
  8
TEAM-NET
 10
0.0
 20
-117.56729
 30
770.759076
 70
    64
  0
VERTEX
  5
EF
  8
TEAM-NET
 10
-18.596465
 20
-118.089022
 30
771.002364
 70
    64
  0
VERTEX
  5
F0
  8
TEAM-NET
 10
-37.121304
 20
-119.655832
 30
771.732979
 70
    64
  0
VERTEX
  5
F1
  8
TEAM-NET
 10
-55.50117
 20
-122.272495
 30
772.953149
 70
    64
  0
VERTEX
  5
F2
  8
TEAM-NET
 10
-73.659217
 20
-125.946745
 30
774.66648
 70
    64
  0
VERTEX
  5
F3
  8
TEAM-NET
 10
-91.513225
 20
-130.688899
 30
776.877783
 70
    64
  0
VERTEX
  5
F4
  8
TEAM-NET
 10
-108.973572
 20
-136.511231
 30
779.592781
 70
    64
  0
VERTEX
  5
F5
  8
TEAM-NET
 10
-125.941043
 20
-143.427007
 30
782.81766
 70
    64
  0
VERTEX
  5
F6
  8
TEAM-NET
 10
-142.304491
 20
-151.449028
 30
786.55839
 70
    64
  0
VERTEX
  5
F7
  8
TEAM-NET
 10
-157.93843
 20
-160.587477
 30
790.819719
 70
    64
  0
VERTEX
  5
F8
  8
TEAM-NET
 10
-172.700775
 20
-170.846839
 30
795.603738
 70
    64
  0
VERTEX
  5
F9
  8
TEAM-NET
 10
-186.431113
 20
-182.221615
 30
800.907883
 70
    64
  0
VERTEX
  5
FA
  8
TEAM-NET
 10
-198.950185
 20
-194.690622
 30
806.722276
 70
    64
  0
VERTEX
  5
FB
  8
TEAM-NET
 10
-210.061594
 20
-208.209854
 30
813.026398
 70
    64
  0
VERTEX
  5
FC
  8
TEAM-NET
 10
-219.557022
 20
-222.704353
 30
819.785294
 70
    64
  0
VERTEX
  5
FD
  8
TEAM-NET
 10
-227.226283
 20
-238.060305
 30
826.945892
 70
    64
  0
VERTEX
  5
FE
  8
TEAM-NET
 10
-232.872828
 20
-254.119542
 30
834.434437
 70
    64
  0
VERTEX
  5
FF
  8
TEAM-NET
 10
-236.333638
 20
-270.679338
 30
842.156397
 70
    64
  0
VERTEX
  5
100
  8
TEAM-NET
 10
-237.5
 20
-287.5
 30
850.0
 70
    64
  0
VERTEX
  5
101
  8
TEAM-NET
 10
237.5
 20
-287.5
 30
850.0
 70
    64
  0
VERTEX
  5
102
  8
TEAM-NET
 10
236.333638
 20
-271.426961
 30
840.720227
 70
    64
  0
VERTEX
  5
103
  8
TEAM-NET
 10
232.872828
 20
-255.603193
 30
831.58437
 70
    64
  0
VERTEX
  5
104
  8
TEAM-NET
 10
227.226283
 20
-240.257736
 30
822.724666
 70
    64
  0
VERTEX
  5
105
  8
TEAM-NET
 10
219.557022
 20
-225.584305
 30
814.252957
 70
    64
  0
VERTEX
  5
106
  8
TEAM-NET
 10
210.061594
 20
-211.734039
 30
806.256502
 70
    64
  0
VERTEX
  5
107
  8
TEAM-NET
 10
198.950185
 20
-198.815692
 30
798.798091
 70
    64
  0
VERTEX
  5
108
  8
TEAM-NET
 10
186.431113
 20
-186.900891
 30
791.919077
 70
    64
  0
VERTEX
  5
109
  8
TEAM-NET
 10
172.700775
 20
-176.031686
 30
785.643739
 70
    64
  0
VERTEX
  5
10A
  8
TEAM-NET
 10
157.93843
 20
-166.228319
 30
779.983762
 70
    64
  0
VERTEX
  5
10B
  8
TEAM-NET
 10
142.304491
 20
-157.496044
 30
774.942181
 70
    64
  0
VERTEX
  5
10C
  8
TEAM-NET
 10
125.941043
 20
-149.830575
 30
770.516521
 70
    64
  0
VERTEX
  5
10D
  8
TEAM-NET
 10
108.973572
 20
-143.222182
 30
766.701163
 70
    64
  0
VERTEX
  5
10E
  8
TEAM-NET
 10
91.513225
 20
-137.658634
 30
763.489047
 70
    64
  0
VERTEX
  5
10F
  8
TEAM-NET
 10
73.659217
 20
-133.127253
 30
760.872853
 70
    64
  0
VERTEX
  5
110
  8
TEAM-NET
 10
55.50117
 20
-129.616311
 30
758.84581
 70
    64
  0
VERTEX
  5
111
  8
TEAM-NET
 10
37.121304
 20
-127.11595
 30
757.402226
 70
    64
  0
VERTEX
  5
112
  8
TEAM-NET
 10
18.596465
 20
-125.61878
 30
756.537834
 70
    64
  0
VERTEX
  5
113
  8
TEAM-NET
 10
0.0
 20
-125.120237
 30
756.25
 70
    64
  0
VERTEX
  5
114
  8
TEAM-NET
 10
-18.596465
 20
-125.61878
 30
756.537834
 70
    64
  0
VERTEX
  5
115
  8
TEAM-NET
 10
-37.121304
 20
-127.11595
 30
757.402226
 70
    64
  0
VERTEX
  5
116
  8
TEAM-NET
 10
-55.50117
 20
-129.616311
 30
758.84581
 70
    64
  0
VERTEX
  5
117
  8
TEAM-NET
 10
-73.659217
 20
-133.127253
 30
760.872853
 70
    64
  0
VERTEX
  5
118
  8
TEAM-NET
 10
-91.513225
 20
-137.658634
 30
763.489047
 70
    64
  0
VERTEX
  5
119
  8
TEAM-NET
 10
-108.973572
 20
-143.222182
 30
766.701163
 70
    64
  0
VERTEX
  5
11A
  8
TEAM-NET
 10
-125.941043
 20
-149.830575
 30
770.516521
 70
    64
  0
VERTEX
  5
11B
  8
TEAM-NET
 10
-142.304491
 20
-157.496044
 30
774.942181
 70
    64
  0
VERTEX
  5
11C
  8
TEAM-NET
 10
-157.93843
 20
-166.228319
 30
779.983762
 70
    64
  0
VERTEX
  5
11D
  8
TEAM-NET
 10
-172.700775
 20
-176.031686
 30
785.643739
 70
    64
  0
VERTEX
  5
11E
  8
TEAM-NET
 10
-186.431113
 20
-186.900891
 30
791.919077
 70
    64
  0
VERTEX
  5
11F
  8
TEAM-NET
 10
-198.950185
 20
-198.815692
 30
798.798091
 70
    64
  0
VERTEX
  5
120
  8
TEAM-NET
 10
-210.061594
 20
-211.734039
 30
806.256502
 70
    64
  0
VERTEX
  5
121
  8
TEAM-NET
 10
-219.557022
 20
-225.584305
 30
814.252957
 70
    64
  0
VERTEX
  5
122
  8
TEAM-NET
 10
-227.226283
 20
-240.257736
 30
822.724666
 70
    64
  0
VERTEX
  5
123
  8
TEAM-NET
 10
-232.872828
 20
-255.603193
 30
831.58437
 70
    64
  0
VERTEX
  5
124
  8
TEAM-NET
 10
-236.333638
 20
-271.426961
 30
840.720227
 70
    64
  0
VERTEX
  5
125
  8
TEAM-NET
 10
-237.5
 20
-287.5
 30
850.0
 70
    64
  0
VERTEX
  5
126
  8
TEAM-NET
 10
237.5
 20
-287.5
 30
850.0
 70
    64
  0
VERTEX
  5
127
  8
TEAM-NET
 10
236.333638
 20
-272.296909
 30
839.354681
 70
    64
  0
VERTEX
  5
128
  8
TEAM-NET
 10
232.872828
 20
-257.329598
 30
828.874457
 70
    64
  0
VERTEX
  5
129
  8
TEAM-NET
 10
227.226283
 20
-242.814709
 30
818.711023
 70
    64
  0
VERTEX
  5
12A
  8
TEAM-NET
 10
219.557022
 20
-228.935473
 30
808.992677
 70
    64
  0
VERTEX
  5
12B
  8
TEAM-NET
 10
210.061594
 20
-215.834848
 30
799.81952
 70
    64
  0
VERTEX
  5
12C
  8
TEAM-NET
 10
198.950185
 20
-203.615703
 30
791.263583
 70
    64
  0
VERTEX
  5
12D
  8
TEAM-NET
 10
186.431113
 20
-192.345787
 30
783.372303
 70
    64
  0
VERTEX
  5
12E
  8
TEAM-NET
 10
172.700775
 20
-182.064874
 30
776.17353
 70
    64
  0
VERTEX
  5
12F
  8
TEAM-NET
 10
157.93843
 20
-172.792111
 30
769.680672
 70
    64
  0
VERTEX
  5
130
  8
TEAM-NET
 10
142.304491
 20
-164.532468
 30
763.897207
 70
    64
  0
VERTEX
  5
131
  8
TEAM-NET
 10
125.941043
 20
-157.281891
 30
758.820298
 70
    64
  0
VERTEX
  5
132
  8
TEAM-NET
 10
108.973572
 20
-151.031175
 30
754.4435
 70
    64
  0
VERTEX
  5
133
  8
TEAM-NET
 10
91.513225
 20
-145.768752
 30
750.758712
 70
    64
  0
VERTEX
  5
134
  8
TEAM-NET
 10
73.659217
 20
-141.482631
 30
747.757537
 70
    64
  0
VERTEX
  5
135
  8
TEAM-NET
 10
55.50117
 20
-138.161717
 30
745.432209
 70
    64
  0
VERTEX
  5
136
  8
TEAM-NET
 10
37.121304
 20
-135.796688
 30
743.776197
 70
    64
  0
VERTEX
  5
137
  8
TEAM-NET
 10
18.596465
 20
-134.380551
 30
742.784608
 70
    64
  0
VERTEX
  5
138
  8
TEAM-NET
 10
0.0
 20
-133.908992
 30
742.454418
 70
    64
  0
VERTEX
  5
139
  8
TEAM-NET
 10
-18.596465
 20
-134.380551
 30
742.784608
 70
    64
  0
VERTEX
  5
13A
  8
TEAM-NET
 10
-37.121304
 20
-135.796688
 30
743.776197
 70
    64
  0
VERTEX
  5
13B
  8
TEAM-NET
 10
-55.50117
 20
-138.161717
 30
745.432209
 70
    64
  0
VERTEX
  5
13C
  8
TEAM-NET
 10
-73.659217
 20
-141.482631
 30
747.757537
 70
    64
  0
VERTEX
  5
13D
  8
TEAM-NET
 10
-91.513225
 20
-145.768752
 30
750.758712
 70
    64
  0
VERTEX
  5
13E
  8
TEAM-NET
 10
-108.973572
 20
-151.031175
 30
754.4435
 70
    64
  0
VERTEX
  5
13F
  8
TEAM-NET
 10
-125.941043
 20
-157.281891
 30
758.820298
 70
    64
  0
VERTEX
  5
140
  8
TEAM-NET
 10
-142.304491
 20
-164.532468
 30
763.897207
 70
    64
  0
VERTEX
  5
141
  8
TEAM-NET
 10
-157.93843
 20
-172.792111
 30
769.680672
 70
    64
  0
VERTEX
  5
142
  8
TEAM-NET
 10
-172.700775
 20
-182.064874
 30
776.17353
 70
    64
  0
VERTEX
  5
143
  8
TEAM-NET
 10
-186.431113
 20
-192.345787
 30
783.372303
 70
    64
  0
VERTEX
  5
144
  8
TEAM-NET
 10
-198.950185
 20
-203.615703
 30
791.263583
 70
    64
  0
VERTEX
  5
145
  8
TEAM-NET
 10
-210.061594
 20
-215.834848
 30
799.81952
 70
    64
  0
VERTEX
  5
146
  8
TEAM-NET
 10
-219.557022
 20
-228.935473
 30
808.992677
 70
    64
  0
VERTEX
  5
147
  8
TEAM-NET
 10
-227.226283
 20
-242.814709
 30
818.711023
 70
    64
  0
VERTEX
  5
148
  8
TEAM-NET
 10
-232.872828
 20
-257.329598
 30
828.874457
 70
    64
  0
VERTEX
  5
149
  8
TEAM-NET
 10
-236.333638
 20
-272.296909
 30
839.354681
 70
    64
  0
VERTEX
  5
14A
  8
TEAM-NET
 10
-237.5
 20
-287.5
 30
850.0
 70
    64
  0
VERTEX
  5
14B
  8
TEAM-NET
 10
237.5
 20
-287.5
 30
850.0
 70
    64
  0
VERTEX
  5
14C
  8
TEAM-NET
 10
236.333638
 20
-273.282562
 30
838.070153
 70
    64
  0
VERTEX
  5
14D
  8
TEAM-NET
 10
232.872828
 20
-259.285618
 30
826.325322
 70
    64
  0
VERTEX
  5
14E
  8
TEAM-NET
 10
227.226283
 20
-245.711764
 30
814.935507
 70
    64
  0
VERTEX
  5
14F
  8
TEAM-NET
 10
219.557022
 20
-232.732353
 30
804.044487
 70
    64
  0
VERTEX
  5
150
  8
TEAM-NET
 10
210.061594
 20
-220.481073
 30
793.764443
 70
    64
  0
VERTEX
  5
151
  8
TEAM-NET
 10
198.950185
 20
-209.054124
 30
784.176095
 70
    64
  0
VERTEX
  5
152
  8
TEAM-NET
 10
186.431113
 20
-198.514864
 30
775.332605
 70
    64
  0
VERTEX
  5
153
  8
TEAM-NET
 10
172.700775
 20
-188.900488
 30
767.265185
 70
    64
  0
VERTEX
  5
154
  8
TEAM-NET
 10
157.93843
 20
-180.2289
 30
759.98886
 70
    64
  0
VERTEX
  5
155
  8
TEAM-NET
 10
142.304491
 20
-172.50475
 30
753.507528
 70
    64
  0
VERTEX
  5
156
  8
TEAM-NET
 10
125.941043
 20
-165.724244
 30
747.818008
 70
    64
  0
VERTEX
  5
157
  8
TEAM-NET
 10
108.973572
 20
-159.878778
 30
742.913079
 70
    64
  0
VERTEX
  5
158
  8
TEAM-NET
 10
91.513225
 20
-154.95753
 30
738.783662
 70
    64
  0
VERTEX
  5
159
  8
TEAM-NET
 10
73.659217
 20
-150.949289
 30
735.420348
 70
    64
  0
VERTEX
  5
15A
  8
TEAM-NET
 10
55.50117
 20
-147.843678
 30
732.814432
 70
    64
  0
VERTEX
  5
15B
  8
TEAM-NET
 10
37.121304
 20
-145.631979
 30
730.958596
 70
    64
  0
VERTEX
  5
15C
  8
TEAM-NET
 10
18.596465
 20
-144.307654
 30
729.847355
 70
    64
  0
VERTEX
  5
15D
  8
TEAM-NET
 10
0.0
 20
-143.866667
 30
729.477323
 70
    64
  0
VERTEX
  5
15E
  8
TEAM-NET
 10
-18.596465
 20
-144.307654
 30
729.847355
 70
    64
  0
VERTEX
  5
15F
  8
TEAM-NET
 10
-37.121304
 20
-145.631979
 30
730.958596
 70
    64
  0
VERTEX
  5
160
  8
TEAM-NET
 10
-55.50117
 20
-147.843678
 30
732.814432
 70
    64
  0
VERTEX
  5
161
  8
TEAM-NET
 10
-73.659217
 20
-150.949289
 30
735.420348
 70
    64
  0
VERTEX
  5
162
  8
TEAM-NET
 10
-91.513225
 20
-154.95753
 30
738.783662
 70
    64
  0
VERTEX
  5
163
  8
TEAM-NET
 10
-108.973572
 20
-159.878778
 30
742.913079
 70
    64
  0
VERTEX
  5
164
  8
TEAM-NET
 10
-125.941043
 20
-165.724244
 30
747.818008
 70
    64
  0
VERTEX
  5
165
  8
TEAM-NET
 10
-142.304491
 20
-172.50475
 30
753.507528
 70
    64
  0
VERTEX
  5
166
  8
TEAM-NET
 10
-157.93843
 20
-180.2289
 30
759.98886
 70
    64
  0
VERTEX
  5
167
  8
TEAM-NET
 10
-172.700775
 20
-188.900488
 30
767.265185
 70
    64
  0
VERTEX
  5
168
  8
TEAM-NET
 10
-186.431113
 20
-198.514864
 30
775.332605
 70
    64
  0
VERTEX
  5
169
  8
TEAM-NET
 10
-198.950185
 20
-209.054124
 30
784.176095
 70
    64
  0
VERTEX
  5
16A
  8
TEAM-NET
 10
-210.061594
 20
-220.481073
 30
793.764443
 70
    64
  0
VERTEX
  5
16B
  8
TEAM-NET
 10
-219.557022
 20
-232.732353
 30
804.044487
 70
    64
  0
VERTEX
  5
16C
  8
TEAM-NET
 10
-227.226283
 20
-245.711764
 30
814.935507
 70
    64
  0
VERTEX
  5
16D
  8
TEAM-NET
 10
-232.872828
 20
-259.285618
 30
826.325322
 70
    64
  0
VERTEX
  5
16E
  8
TEAM-NET
 10
-236.333638
 20
-273.282562
 30
838.070153
 70
    64
  0
VERTEX
  5
16F
  8
TEAM-NET
 10
-237.5
 20
-287.5
 30
850.0
 70
    64
  0
VERTEX
  5
170
  8
TEAM-NET
 10
237.5
 20
-287.5
 30
850.0
 70
    64
  0
VERTEX
  5
171
  8
TEAM-NET
 10
236.333638
 20
-274.376419
 30
836.876419
 70
    64
  0
VERTEX
  5
172
  8
TEAM-NET
 10
232.872828
 20
-261.456366
 30
823.956366
 70
    64
  0
VERTEX
  5
173
  8
TEAM-NET
 10
227.226283
 20
-248.926853
 30
811.426853
 70
    64
  0
VERTEX
  5
174
  8
TEAM-NET
 10
219.557022
 20
-236.946047
 30
799.446047
 70
    64
  0
VERTEX
  5
175
  8
TEAM-NET
 10
210.061594
 20
-225.637352
 30
788.137352
 70
    64
  0
VERTEX
  5
176
  8
TEAM-NET
 10
198.950185
 20
-215.089566
 30
777.589566
 70
    64
  0
VERTEX
  5
177
  8
TEAM-NET
 10
186.431113
 20
-205.361172
 30
767.861172
 70
    64
  0
VERTEX
  5
178
  8
TEAM-NET
 10
172.700775
 20
-196.486503
 30
758.986503
 70
    64
  0
VERTEX
  5
179
  8
TEAM-NET
 10
157.93843
 20
-188.482087
 30
750.982087
 70
    64
  0
VERTEX
  5
17A
  8
TEAM-NET
 10
142.304491
 20
-181.352214
 30
743.852214
 70
    64
  0
VERTEX
  5
17B
  8
TEAM-NET
 10
125.941043
 20
-175.093385
 30
737.593385
 70
    64
  0
VERTEX
  5
17C
  8
TEAM-NET
 10
108.973572
 20
-169.697655
 30
732.197655
 70
    64
  0
VERTEX
  5
17D
  8
TEAM-NET
 10
91.513225
 20
-165.155037
 30
727.655037
 70
    64
  0
VERTEX
  5
17E
  8
TEAM-NET
 10
73.659217
 20
-161.45518
 30
723.95518
 70
    64
  0
VERTEX
  5
17F
  8
TEAM-NET
 10
55.50117
 20
-158.588508
 30
721.088508
 70
    64
  0
VERTEX
  5
180
  8
TEAM-NET
 10
37.121304
 20
-156.546972
 30
719.046972
 70
    64
  0
VERTEX
  5
181
  8
TEAM-NET
 10
18.596465
 20
-155.324537
 30
717.824537
 70
    64
  0
VERTEX
  5
182
  8
TEAM-NET
 10
0.0
 20
-154.917479
 30
717.417479
 70
    64
  0
VERTEX
  5
183
  8
TEAM-NET
 10
-18.596465
 20
-155.324537
 30
717.824537
 70
    64
  0
VERTEX
  5
184
  8
TEAM-NET
 10
-37.121304
 20
-156.546972
 30
719.046972
 70
    64
  0
VERTEX
  5
185
  8
TEAM-NET
 10
-55.50117
 20
-158.588508
 30
721.088508
 70
    64
  0
VERTEX
  5
186
  8
TEAM-NET
 10
-73.659217
 20
-161.45518
 30
723.95518
 70
    64
  0
VERTEX
  5
187
  8
TEAM-NET
 10
-91.513225
 20
-165.155037
 30
727.655037
 70
    64
  0
VERTEX
  5
188
  8
TEAM-NET
 10
-108.973572
 20
-169.697655
 30
732.197655
 70
    64
  0
VERTEX
  5
189
  8
TEAM-NET
 10
-125.941043
 20
-175.093385
 30
737.593385
 70
    64
  0
VERTEX
  5
18A
  8
TEAM-NET
 10
-142.304491
 20
-181.352214
 30
743.852214
 70
    64
  0
VERTEX
  5
18B
  8
TEAM-NET
 10
-157.93843
 20
-188.482087
 30
750.982087
 70
    64
  0
VERTEX
  5
18C
  8
TEAM-NET
 10
-172.700775
 20
-196.486503
 30
758.986503
 70
    64
  0
VERTEX
  5
18D
  8
TEAM-NET
 10
-186.431113
 20
-205.361172
 30
767.861172
 70
    64
  0
VERTEX
  5
18E
  8
TEAM-NET
 10
-198.950185
 20
-215.089566
 30
777.589566
 70
    64
  0
VERTEX
  5
18F
  8
TEAM-NET
 10
-210.061594
 20
-225.637352
 30
788.137352
 70
    64
  0
VERTEX
  5
190
  8
TEAM-NET
 10
-219.557022
 20
-236.946047
 30
799.446047
 70
    64
  0
VERTEX
  5
191
  8
TEAM-NET
 10
-227.226283
 20
-248.926853
 30
811.426853
 70
    64
  0
VERTEX
  5
192
  8
TEAM-NET
 10
-232.872828
 20
-261.456366
 30
823.956366
 70
    64
  0
VERTEX
  5
193
  8
TEAM-NET
 10
-236.333638
 20
-274.376419
 30
836.876419
 70
    64
  0
VERTEX
  5
194
  8
TEAM-NET
 10
-237.5
 20
-287.5
 30
850.0
 70
    64
  0
VERTEX
  5
195
  8
TEAM-NET
 10
237.5
 20
-287.5
 30
850.0
 70
    64
  0
VERTEX
  5
196
  8
TEAM-NET
 10
236.333638
 20
-275.570153
 30
835.782562
 70
    64
  0
VERTEX
  5
197
  8
TEAM-NET
 10
232.872828
 20
-263.825322
 30
821.785618
 70
    64
  0
VERTEX
  5
198
  8
TEAM-NET
 10
227.226283
 20
-252.435507
 30
808.211764
 70
    64
  0
VERTEX
  5
199
  8
TEAM-NET
 10
219.557022
 20
-241.544487
 30
795.232353
 70
    64
  0
VERTEX
  5
19A
  8
TEAM-NET
 10
210.061594
 20
-231.264443
 30
782.981073
 70
    64
  0
VERTEX
  5
19B
  8
TEAM-NET
 10
198.950185
 20
-221.676095
 30
771.554124
 70
    64
  0
VERTEX
  5
19C
  8
TEAM-NET
 10
186.431113
 20
-212.832605
 30
761.014864
 70
    64
  0
VERTEX
  5
19D
  8
TEAM-NET
 10
172.700775
 20
-204.765185
 30
751.400488
 70
    64
  0
VERTEX
  5
19E
  8
TEAM-NET
 10
157.93843
 20
-197.48886
 30
742.7289
 70
    64
  0
VERTEX
  5
19F
  8
TEAM-NET
 10
142.304491
 20
-191.007528
 30
735.00475
 70
    64
  0
VERTEX
  5
1A0
  8
TEAM-NET
 10
125.941043
 20
-185.318008
 30
728.224244
 70
    64
  0
VERTEX
  5
1A1
  8
TEAM-NET
 10
108.973572
 20
-180.413079
 30
722.378778
 70
    64
  0
VERTEX
  5
1A2
  8
TEAM-NET
 10
91.513225
 20
-176.283662
 30
717.45753
 70
    64
  0
VERTEX
  5
1A3
  8
TEAM-NET
 10
73.659217
 20
-172.920348
 30
713.449289
 70
    64
  0
VERTEX
  5
1A4
  8
TEAM-NET
 10
55.50117
 20
-170.314432
 30
710.343678
 70
    64
  0
VERTEX
  5
1A5
  8
TEAM-NET
 10
37.121304
 20
-168.458596
 30
708.131979
 70
    64
  0
VERTEX
  5
1A6
  8
TEAM-NET
 10
18.596465
 20
-167.347355
 30
706.807654
 70
    64
  0
VERTEX
  5
1A7
  8
TEAM-NET
 10
0.0
 20
-166.977323
 30
706.366667
 70
    64
  0
VERTEX
  5
1A8
  8
TEAM-NET
 10
-18.596465
 20
-167.347355
 30
706.807654
 70
    64
  0
VERTEX
  5
1A9
  8
TEAM-NET
 10
-37.121304
 20
-168.458596
 30
708.131979
 70
    64
  0
VERTEX
  5
1AA
  8
TEAM-NET
 10
-55.50117
 20
-170.314432
 30
710.343678
 70
    64
  0
VERTEX
  5
1AB
  8
TEAM-NET
 10
-73.659217
 20
-172.920348
 30
713.449289
 70
    64
  0
VERTEX
  5
1AC
  8
TEAM-NET
 10
-91.513225
 20
-176.283662
 30
717.45753
 70
    64
  0
VERTEX
  5
1AD
  8
TEAM-NET
 10
-108.973572
 20
-180.413079
 30
722.378778
 70
    64
  0
VERTEX
  5
1AE
  8
TEAM-NET
 10
-125.941043
 20
-185.318008
 30
728.224244
 70
    64
  0
VERTEX
  5
1AF
  8
TEAM-NET
 10
-142.304491
 20
-191.007528
 30
735.00475
 70
    64
  0
VERTEX
  5
1B0
  8
TEAM-NET
 10
-157.93843
 20
-197.48886
 30
742.7289
 70
    64
  0
VERTEX
  5
1B1
  8
TEAM-NET
 10
-172.700775
 20
-204.765185
 30
751.400488
 70
    64
  0
VERTEX
  5
1B2
  8
TEAM-NET
 10
-186.431113
 20
-212.832605
 30
761.014864
 70
    64
  0
VERTEX
  5
1B3
  8
TEAM-NET
 10
-198.950185
 20
-221.676095
 30
771.554124
 70
    64
  0
VERTEX
  5
1B4
  8
TEAM-NET
 10
-210.061594
 20
-231.264443
 30
782.981073
 70
    64
  0
VERTEX
  5
1B5
  8
TEAM-NET
 10
-219.557022
 20
-241.544487
 30
795.232353
 70
    64
  0
VERTEX
  5
1B6
  8
TEAM-NET
 10
-227.226283
 20
-252.435507
 30
808.211764
 70
    64
  0
VERTEX
  5
1B7
  8
TEAM-NET
 10
-232.872828
 20
-263.825322
 30
821.785618
 70
    64
  0
VERTEX
  5
1B8
  8
TEAM-NET
 10
-236.333638
 20
-275.570153
 30
835.782562
 70
    64
  0
VERTEX
  5
1B9
  8
TEAM-NET
 10
-237.5
 20
-287.5
 30
850.0
 70
    64
  0
VERTEX
  5
1BA
  8
TEAM-NET
 10
237.5
 20
-287.5
 30
850.0
 70
    64
  0
VERTEX
  5
1BB
  8
TEAM-NET
 10
236.333638
 20
-276.854681
 30
834.796909
 70
    64
  0
VERTEX
  5
1BC
  8
TEAM-NET
 10
232.872828
 20
-266.374457
 30
819.829598
 70
    64
  0
VERTEX
  5
1BD
  8
TEAM-NET
 10
227.226283
 20
-256.211023
 30
805.314709
 70
    64
  0
VERTEX
  5
1BE
  8
TEAM-NET
 10
219.557022
 20
-246.492677
 30
791.435473
 70
    64
  0
VERTEX
  5
1BF
  8
TEAM-NET
 10
210.061594
 20
-237.31952
 30
778.334848
 70
    64
  0
VERTEX
  5
1C0
  8
TEAM-NET
 10
198.950185
 20
-228.763583
 30
766.115703
 70
    64
  0
VERTEX
  5
1C1
  8
TEAM-NET
 10
186.431113
 20
-220.872303
 30
754.845787
 70
    64
  0
VERTEX
  5
1C2
  8
TEAM-NET
 10
172.700775
 20
-213.67353
 30
744.564874
 70
    64
  0
VERTEX
  5
1C3
  8
TEAM-NET
 10
157.93843
 20
-207.180672
 30
735.292111
 70
    64
  0
VERTEX
  5
1C4
  8
TEAM-NET
 10
142.304491
 20
-201.397207
 30
727.032468
 70
    64
  0
VERTEX
  5
1C5
  8
TEAM-NET
 10
125.941043
 20
-196.320298
 30
719.781891
 70
    64
  0
VERTEX
  5
1C6
  8
TEAM-NET
 10
108.973572
 20
-191.9435
 30
713.531175
 70
    64
  0
VERTEX
  5
1C7
  8
TEAM-NET
 10
91.513225
 20
-188.258712
 30
708.268752
 70
    64
  0
VERTEX
  5
1C8
  8
TEAM-NET
 10
73.659217
 20
-185.257537
 30
703.982631
 70
    64
  0
VERTEX
  5
1C9
  8
TEAM-NET
 10
55.50117
 20
-182.932209
 30
700.661717
 70
    64
  0
VERTEX
  5
1CA
  8
TEAM-NET
 10
37.121304
 20
-181.276197
 30
698.296688
 70
    64
  0
VERTEX
  5
1CB
  8
TEAM-NET
 10
18.596465
 20
-180.284608
 30
696.880551
 70
    64
  0
VERTEX
  5
1CC
  8
TEAM-NET
 10
0.0
 20
-179.954418
 30
696.408992
 70
    64
  0
VERTEX
  5
1CD
  8
TEAM-NET
 10
-18.596465
 20
-180.284608
 30
696.880551
 70
    64
  0
VERTEX
  5
1CE
  8
TEAM-NET
 10
-37.121304
 20
-181.276197
 30
698.296688
 70
    64
  0
VERTEX
  5
1CF
  8
TEAM-NET
 10
-55.50117
 20
-182.932209
 30
700.661717
 70
    64
  0
VERTEX
  5
1D0
  8
TEAM-NET
 10
-73.659217
 20
-185.257537
 30
703.982631
 70
    64
  0
VERTEX
  5
1D1
  8
TEAM-NET
 10
-91.513225
 20
-188.258712
 30
708.268752
 70
    64
  0
VERTEX
  5
1D2
  8
TEAM-NET
 10
-108.973572
 20
-191.9435
 30
713.531175
 70
    64
  0
VERTEX
  5
1D3
  8
TEAM-NET
 10
-125.941043
 20
-196.320298
 30
719.781891
 70
    64
  0
VERTEX
  5
1D4
  8
TEAM-NET
 10
-142.304491
 20
-201.397207
 30
727.032468
 70
    64
  0
VERTEX
  5
1D5
  8
TEAM-NET
 10
-157.93843
 20
-207.180672
 30
735.292111
 70
    64
  0
VERTEX
  5
1D6
  8
TEAM-NET
 10
-172.700775
 20
-213.67353
 30
744.564874
 70
    64
  0
VERTEX
  5
1D7
  8
TEAM-NET
 10
-186.431113
 20
-220.872303
 30
754.845787
 70
    64
  0
VERTEX
  5
1D8
  8
TEAM-NET
 10
-198.950185
 20
-228.763583
 30
766.115703
 70
    64
  0
VERTEX
  5
1D9
  8
TEAM-NET
 10
-210.061594
 20
-237.31952
 30
778.334848
 70
    64
  0
VERTEX
  5
1DA
  8
TEAM-NET
 10
-219.557022
 20
-246.492677
 30
791.435473
 70
    64
  0
VERTEX
  5
1DB
  8
TEAM-NET
 10
-227.226283
 20
-256.211023
 30
805.314709
 70
    64
  0
VERTEX
  5
1DC
  8
TEAM-NET
 10
-232.872828
 20
-266.374457
 30
819.829598
 70
    64
  0
VERTEX
  5
1DD
  8
TEAM-NET
 10
-236.333638
 20
-276.854681
 30
834.796909
 70
    64
  0
VERTEX
  5
1DE
  8
TEAM-NET
 10
-237.5
 20
-287.5
 30
850.0
 70
    64
  0
VERTEX
  5
1DF
  8
TEAM-NET
 10
237.5
 20
-287.5
 30
850.0
 70
    64
  0
VERTEX
  5
1E0
  8
TEAM-NET
 10
236.333638
 20
-278.220227
 30
833.926961
 70
    64
  0
VERTEX
  5
1E1
  8
TEAM-NET
 10
232.872828
 20
-269.08437
 30
818.103193
 70
    64
  0
VERTEX
  5
1E2
  8
TEAM-NET
 10
227.226283
 20
-260.224666
 30
802.757736
 70
    64
  0
VERTEX
  5
1E3
  8
TEAM-NET
 10
219.557022
 20
-251.752957
 30
788.084305
 70
    64
  0
VERTEX
  5
1E4
  8
TEAM-NET
 10
210.061594
 20
-243.756502
 30
774.234039
 70
    64
  0
VERTEX
  5
1E5
  8
TEAM-NET
 10
198.950185
 20
-236.298091
 30
761.315692
 70
    64
  0
VERTEX
  5
1E6
  8
TEAM-NET
 10
186.431113
 20
-229.419077
 30
749.400891
 70
    64
  0
VERTEX
  5
1E7
  8
TEAM-NET
 10
172.700775
 20
-223.143739
 30
738.531686
 70
    64
  0
VERTEX
  5
1E8
  8
TEAM-NET
 10
157.93843
 20
-217.483762
 30
728.728319
 70
    64
  0
VERTEX
  5
1E9
  8
TEAM-NET
 10
142.304491
 20
-212.442181
 30
719.996044
 70
    64
  0
VERTEX
  5
1EA
  8
TEAM-NET
 10
125.941043
 20
-208.016521
 30
712.330575
 70
    64
  0
VERTEX
  5
1EB
  8
TEAM-NET
 10
108.973572
 20
-204.201163
 30
705.722182
 70
    64
  0
VERTEX
  5
1EC
  8
TEAM-NET
 10
91.513225
 20
-200.989047
 30
700.158634
 70
    64
  0
VERTEX
  5
1ED
  8
TEAM-NET
 10
73.659217
 20
-198.372853
 30
695.627253
 70
    64
  0
VERTEX
  5
1EE
  8
TEAM-NET
 10
55.50117
 20
-196.34581
 30
692.116311
 70
    64
  0
VERTEX
  5
1EF
  8
TEAM-NET
 10
37.121304
 20
-194.902226
 30
689.61595
 70
    64
  0
VERTEX
  5
1F0
  8
TEAM-NET
 10
18.596465
 20
-194.037834
 30
688.11878
 70
    64
  0
VERTEX
  5
1F1
  8
TEAM-NET
 10
0.0
 20
-193.75
 30
687.620237
 70
    64
  0
VERTEX
  5
1F2
  8
TEAM-NET
 10
-18.596465
 20
-194.037834
 30
688.11878
 70
    64
  0
VERTEX
  5
1F3
  8
TEAM-NET
 10
-37.121304
 20
-194.902226
 30
689.61595
 70
    64
  0
VERTEX
  5
1F4
  8
TEAM-NET
 10
-55.50117
 20
-196.34581
 30
692.116311
 70
    64
  0
VERTEX
  5
1F5
  8
TEAM-NET
 10
-73.659217
 20
-198.372853
 30
695.627253
 70
    64
  0
VERTEX
  5
1F6
  8
TEAM-NET
 10
-91.513225
 20
-200.989047
 30
700.158634
 70
    64
  0
VERTEX
  5
1F7
  8
TEAM-NET
 10
-108.973572
 20
-204.201163
 30
705.722182
 70
    64
  0
VERTEX
  5
1F8
  8
TEAM-NET
 10
-125.941043
 20
-208.016521
 30
712.330575
 70
    64
  0
VERTEX
  5
1F9
  8
TEAM-NET
 10
-142.304491
 20
-212.442181
 30
719.996044
 70
    64
  0
VERTEX
  5
1FA
  8
TEAM-NET
 10
-157.93843
 20
-217.483762
 30
728.728319
 70
    64
  0
VERTEX
  5
1FB
  8
TEAM-NET
 10
-172.700775
 20
-223.143739
 30
738.531686
 70
    64
  0
VERTEX
  5
1FC
  8
TEAM-NET
 10
-186.431113
 20
-229.419077
 30
749.400891
 70
    64
  0
VERTEX
  5
1FD
  8
TEAM-NET
 10
-198.950185
 20
-236.298091
 30
761.315692
 70
    64
  0
VERTEX
  5
1FE
  8
TEAM-NET
 10
-210.061594
 20
-243.756502
 30
774.234039
 70
    64
  0
VERTEX
  5
1FF
  8
TEAM-NET
 10
-219.557022
 20
-251.752957
 30
788.084305
 70
    64
  0
VERTEX
  5
200
  8
TEAM-NET
 10
-227.226283
 20
-260.224666
 30
802.757736
 70
    64
  0
VERTEX
  5
201
  8
TEAM-NET
 10
-232.872828
 20
-269.08437
 30
818.103193
 70
    64
  0
VERTEX
  5
202
  8
TEAM-NET
 10
-236.333638
 20
-278.220227
 30
833.926961
 70
    64
  0
VERTEX
  5
203
  8
TEAM-NET
 10
-237.5
 20
-287.5
 30
850.0
 70
    64
  0
VERTEX
  5
204
  8
TEAM-NET
 10
237.5
 20
-287.5
 30
850.0
 70
    64
  0
VERTEX
  5
205
  8
TEAM-NET
 10
236.333638
 20
-279.656397
 30
833.179338
 70
    64
  0
VERTEX
  5
206
  8
TEAM-NET
 10
232.872828
 20
-271.934437
 30
816.619542
 70
    64
  0
VERTEX
  5
207
  8
TEAM-NET
 10
227.226283
 20
-264.445892
 30
800.560305
 70
    64
  0
VERTEX
  5
208
  8
TEAM-NET
 10
219.557022
 20
-257.285294
 30
785.204353
 70
    64
  0
VERTEX
  5
209
  8
TEAM-NET
 10
210.061594
 20
-250.526398
 30
770.709854
 70
    64
  0
VERTEX
  5
20A
  8
TEAM-NET
 10
198.950185
 20
-244.222276
 30
757.190622
 70
    64
  0
VERTEX
  5
20B
  8
TEAM-NET
 10
186.431113
 20
-238.407883
 30
744.721615
 70
    64
  0
VERTEX
  5
20C
  8
TEAM-NET
 10
172.700775
 20
-233.103738
 30
733.346839
 70
    64
  0
VERTEX
  5
20D
  8
TEAM-NET
 10
157.93843
 20
-228.319719
 30
723.087477
 70
    64
  0
VERTEX
  5
20E
  8
TEAM-NET
 10
142.304491
 20
-224.05839
 30
713.949028
 70
    64
  0
VERTEX
  5
20F
  8
TEAM-NET
 10
125.941043
 20
-220.31766
 30
705.927007
 70
    64
  0
VERTEX
  5
210
  8
TEAM-NET
 10
108.973572
 20
-217.092781
 30
699.011231
 70
    64
  0
VERTEX
  5
211
  8
TEAM-NET
 10
91.513225
 20
-214.377783
 30
693.188899
 70
    64
  0
VERTEX
  5
212
  8
TEAM-NET
 10
73.659217
 20
-212.16648
 30
688.446745
 70
    64
  0
VERTEX
  5
213
  8
TEAM-NET
 10
55.50117
 20
-210.453149
 30
684.772495
 70
    64
  0
VERTEX
  5
214
  8
TEAM-NET
 10
37.121304
 20
-209.232979
 30
682.155832
 70
    64
  0
VERTEX
  5
215
  8
TEAM-NET
 10
18.596465
 20
-208.502364
 30
680.589022
 70
    64
  0
VERTEX
  5
216
  8
TEAM-NET
 10
0.0
 20
-208.259076
 30
680.06729
 70
    64
  0
VERTEX
  5
217
  8
TEAM-NET
 10
-18.596465
 20
-208.502364
 30
680.589022
 70
    64
  0
VERTEX
  5
218
  8
TEAM-NET
 10
-37.121304
 20
-209.232979
 30
682.155832
 70
    64
  0
VERTEX
  5
219
  8
TEAM-NET
 10
-55.50117
 20
-210.453149
 30
684.772495
 70
    64
  0
VERTEX
  5
21A
  8
TEAM-NET
 10
-73.659217
 20
-212.16648
 30
688.446745
 70
    64
  0
VERTEX
  5
21B
  8
TEAM-NET
 10
-91.513225
 20
-214.377783
 30
693.188899
 70
    64
  0
VERTEX
  5
21C
  8
TEAM-NET
 10
-108.973572
 20
-217.092781
 30
699.011231
 70
    64
  0
VERTEX
  5
21D
  8
TEAM-NET
 10
-125.941043
 20
-220.31766
 30
705.927007
 70
    64
  0
VERTEX
  5
21E
  8
TEAM-NET
 10
-142.304491
 20
-224.05839
 30
713.949028
 70
    64
  0
VERTEX
  5
21F
  8
TEAM-NET
 10
-157.93843
 20
-228.319719
 30
723.087477
 70
    64
  0
VERTEX
  5
220
  8
TEAM-NET
 10
-172.700775
 20
-233.103738
 30
733.346839
 70
    64
  0
VERTEX
  5
221
  8
TEAM-NET
 10
-186.431113
 20
-238.407883
 30
744.721615
 70
    64
  0
VERTEX
  5
222
  8
TEAM-NET
 10
-198.950185
 20
-244.222276
 30
757.190622
 70
    64
  0
VERTEX
  5
223
  8
TEAM-NET
 10
-210.061594
 20
-250.526398
 30
770.709854
 70
    64
  0
VERTEX
  5
224
  8
TEAM-NET
 10
-219.557022
 20
-257.285294
 30
785.204353
 70
    64
  0
VERTEX
  5
225
  8
TEAM-NET
 10
-227.226283
 20
-264.445892
 30
800.560305
 70
    64
  0
VERTEX
  5
226
  8
TEAM-NET
 10
-232.872828
 20
-271.934437
 30
816.619542
 70
    64
  0
VERTEX
  5
227
  8
TEAM-NET
 10
-236.333638
 20
-279.656397
 30
833.179338
 70
    64
  0
VERTEX
  5
228
  8
TEAM-NET
 10
-237.5
 20
-287.5
 30
850.0
 70
    64
  0
VERTEX
  5
229
  8
TEAM-NET
 10
237.5
 20
-287.5
 30
850.0
 70
    64
  0
VERTEX
  5
22A
  8
TEAM-NET
 10
236.333638
 20
-281.152261
 30
832.559731
 70
    64
  0
VERTEX
  5
22B
  8
TEAM-NET
 10
232.872828
 20
-274.902967
 30
815.389937
 70
    64
  0
VERTEX
  5
22C
  8
TEAM-NET
 10
227.226283
 20
-268.842573
 30
798.73914
 70
    64
  0
VERTEX
  5
22D
  8
TEAM-NET
 10
219.557022
 20
-263.047582
 30
782.817535
 70
    64
  0
VERTEX
  5
22E
  8
TEAM-NET
 10
210.061594
 20
-257.577685
 30
767.789115
 70
    64
  0
VERTEX
  5
22F
  8
TEAM-NET
 10
198.950185
 20
-252.475832
 30
753.771888
 70
    64
  0
VERTEX
  5
230
  8
TEAM-NET
 10
186.431113
 20
-247.770309
 30
740.843571
 70
    64
  0
VERTEX
  5
231
  8
TEAM-NET
 10
172.700775
 20
-243.477725
 30
729.049793
 70
    64
  0
VERTEX
  5
232
  8
TEAM-NET
 10
157.93843
 20
-239.606073
 30
718.412516
 70
    64
  0
VERTEX
  5
233
  8
TEAM-NET
 10
142.304491
 20
-236.157428
 30
708.937443
 70
    64
  0
VERTEX
  5
234
  8
TEAM-NET
 10
125.941043
 20
-233.130098
 30
700.619922
 70
    64
  0
VERTEX
  5
235
  8
TEAM-NET
 10
108.973572
 20
-230.52024
 30
693.449395
 70
    64
  0
VERTEX
  5
236
  8
TEAM-NET
 10
91.513225
 20
-228.323023
 30
687.412591
 70
    64
  0
VERTEX
  5
237
  8
TEAM-NET
 10
73.659217
 20
-226.533441
 30
682.495755
 70
    64
  0
VERTEX
  5
238
  8
TEAM-NET
 10
55.50117
 20
-225.146862
 30
678.68616
 70
    64
  0
VERTEX
  5
239
  8
TEAM-NET
 10
37.121304
 20
-224.159392
 30
675.97311
 70
    64
  0
VERTEX
  5
23A
  8
TEAM-NET
 10
18.596465
 20
-223.568113
 30
674.348585
 70
    64
  0
VERTEX
  5
23B
  8
TEAM-NET
 10
0.0
 20
-223.371223
 30
673.807634
 70
    64
  0
VERTEX
  5
23C
  8
TEAM-NET
 10
-18.596465
 20
-223.568113
 30
674.348585
 70
    64
  0
VERTEX
  5
23D
  8
TEAM-NET
 10
-37.121304
 20
-224.159392
 30
675.97311
 70
    64
  0
VERTEX
  5
23E
  8
TEAM-NET
 10
-55.50117
 20
-225.146862
 30
678.68616
 70
    64
  0
VERTEX
  5
23F
  8
TEAM-NET
 10
-73.659217
 20
-226.533441
 30
682.495755
 70
    64
  0
VERTEX
  5
240
  8
TEAM-NET
 10
-91.513225
 20
-228.323023
 30
687.412591
 70
    64
  0
VERTEX
  5
241
  8
TEAM-NET
 10
-108.973572
 20
-230.52024
 30
693.449395
 70
    64
  0
VERTEX
  5
242
  8
TEAM-NET
 10
-125.941043
 20
-233.130098
 30
700.619922
 70
    64
  0
VERTEX
  5
243
  8
TEAM-NET
 10
-142.304491
 20
-236.157428
 30
708.937443
 70
    64
  0
VERTEX
  5
244
  8
TEAM-NET
 10
-157.93843
 20
-239.606073
 30
718.412516
 70
    64
  0
VERTEX
  5
245
  8
TEAM-NET
 10
-172.700775
 20
-243.477725
 30
729.049793
 70
    64
  0
VERTEX
  5
246
  8
TEAM-NET
 10
-186.431113
 20
-247.770309
 30
740.843571
 70
    64
  0
VERTEX
  5
247
  8
TEAM-NET
 10
-198.950185
 20
-252.475832
 30
753.771888
 70
    64
  0
VERTEX
  5
248
  8
TEAM-NET
 10
-210.061594
 20
-257.577685
 30
767.789115
 70
    64
  0
VERTEX
  5
249
  8
TEAM-NET
 10
-219.557022
 20
-263.047582
 30
782.817535
 70
    64
  0
VERTEX
  5
24A
  8
TEAM-NET
 10
-227.226283
 20
-268.842573
 30
798.73914
 70
    64
  0
VERTEX
  5
24B
  8
TEAM-NET
 10
-232.872828
 20
-274.902967
 30
815.389937
 70
    64
  0
VERTEX
  5
24C
  8
TEAM-NET
 10
-236.333638
 20
-281.152261
 30
832.559731
 70
    64
  0
VERTEX
  5
24D
  8
TEAM-NET
 10
-237.5
 20
-287.5
 30
850.0
 70
    64
  0
VERTEX
  5
24E
  8
TEAM-NET
 10
237.5
 20
-287.5
 30
850.0
 70
    64
  0
VERTEX
  5
24F
  8
TEAM-NET
 10
236.333638
 20
-282.696436
 30
832.072854
 70
    64
  0
VERTEX
  5
250
  8
TEAM-NET
 10
232.872828
 20
-277.967368
 30
814.423735
 70
    64
  0
VERTEX
  5
251
  8
TEAM-NET
 10
227.226283
 20
-273.381248
 30
797.308101
 70
    64
  0
VERTEX
  5
252
  8
TEAM-NET
 10
219.557022
 20
-268.995969
 30
780.942016
 70
    64
  0
VERTEX
  5
253
  8
TEAM-NET
 10
210.061594
 20
-264.856699
 30
765.494051
 70
    64
  0
VERTEX
  5
254
  8
TEAM-NET
 10
198.950185
 20
-260.995942
 30
751.085508
 70
    64
  0
VERTEX
  5
255
  8
TEAM-NET
 10
186.431113
 20
-257.435102
 30
737.796274
 70
    64
  0
VERTEX
  5
256
  8
TEAM-NET
 10
172.700775
 20
-254.186748
 30
725.673251
 70
    64
  0
VERTEX
  5
257
  8
TEAM-NET
 10
157.93843
 20
-251.256928
 30
714.739015
 70
    64
  0
VERTEX
  5
258
  8
TEAM-NET
 10
142.304491
 20
-248.647214
 30
704.999428
 70
    64
  0
VERTEX
  5
259
  8
TEAM-NET
 10
125.941043
 20
-246.356323
 30
696.449709
 70
    64
  0
VERTEX
  5
25A
  8
TEAM-NET
 10
108.973572
 20
-244.381349
 30
689.079004
 70
    64
  0
VERTEX
  5
25B
  8
TEAM-NET
 10
91.513225
 20
-242.718635
 30
682.873672
 70
    64
  0
VERTEX
  5
25C
  8
TEAM-NET
 10
73.659217
 20
-241.364394
 30
677.819574
 70
    64
  0
VERTEX
  5
25D
  8
TEAM-NET
 10
55.50117
 20
-240.315119
 30
673.903627
 70
    64
  0
VERTEX
  5
25E
  8
TEAM-NET
 10
37.121304
 20
-239.567865
 30
671.114837
 70
    64
  0
VERTEX
  5
25F
  8
TEAM-NET
 10
18.596465
 20
-239.120423
 30
669.44496
 70
    64
  0
VERTEX
  5
260
  8
TEAM-NET
 10
0.0
 20
-238.971429
 30
668.888908
 70
    64
  0
VERTEX
  5
261
  8
TEAM-NET
 10
-18.596465
 20
-239.120423
 30
669.44496
 70
    64
  0
VERTEX
  5
262
  8
TEAM-NET
 10
-37.121304
 20
-239.567865
 30
671.114837
 70
    64
  0
VERTEX
  5
263
  8
TEAM-NET
 10
-55.50117
 20
-240.315119
 30
673.903627
 70
    64
  0
VERTEX
  5
264
  8
TEAM-NET
 10
-73.659217
 20
-241.364394
 30
677.819574
 70
    64
  0
VERTEX
  5
265
  8
TEAM-NET
 10
-91.513225
 20
-242.718635
 30
682.873672
 70
    64
  0
VERTEX
  5
266
  8
TEAM-NET
 10
-108.973572
 20
-244.381349
 30
689.079004
 70
    64
  0
VERTEX
  5
267
  8
TEAM-NET
 10
-125.941043
 20
-246.356323
 30
696.449709
 70
    64
  0
VERTEX
  5
268
  8
TEAM-NET
 10
-142.304491
 20
-248.647214
 30
704.999428
 70
    64
  0
VERTEX
  5
269
  8
TEAM-NET
 10
-157.93843
 20
-251.256928
 30
714.739015
 70
    64
  0
VERTEX
  5
26A
  8
TEAM-NET
 10
-172.700775
 20
-254.186748
 30
725.673251
 70
    64
  0
VERTEX
  5
26B
  8
TEAM-NET
 10
-186.431113
 20
-257.435102
 30
737.796274
 70
    64
  0
VERTEX
  5
26C
  8
TEAM-NET
 10
-198.950185
 20
-260.995942
 30
751.085508
 70
    64
  0
VERTEX
  5
26D
  8
TEAM-NET
 10
-210.061594
 20
-264.856699
 30
765.494051
 70
    64
  0
VERTEX
  5
26E
  8
TEAM-NET
 10
-219.557022
 20
-268.995969
 30
780.942016
 70
    64
  0
VERTEX
  5
26F
  8
TEAM-NET
 10
-227.226283
 20
-273.381248
 30
797.308101
 70
    64
  0
VERTEX
  5
270
  8
TEAM-NET
 10
-232.872828
 20
-277.967368
 30
814.423735
 70
    64
  0
VERTEX
  5
271
  8
TEAM-NET
 10
-236.333638
 20
-282.696436
 30
832.072854
 70
    64
  0
VERTEX
  5
272
  8
TEAM-NET
 10
-237.5
 20
-287.5
 30
850.0
 70
    64
  0
VERTEX
  5
273
  8
TEAM-NET
 10
237.5
 20
-287.5
 30
850.0
 70
    64
  0
VERTEX
  5
274
  8
TEAM-NET
 10
236.333638
 20
-284.277169
 30
831.722414
 70
    64
  0
VERTEX
  5
275
  8
TEAM-NET
 10
232.872828
 20
-281.104319
 30
813.728289
 70
    64
  0
VERTEX
  5
276
  8
TEAM-NET
 10
227.226283
 20
-278.027376
 30
796.27808
 70
    64
  0
VERTEX
  5
277
  8
TEAM-NET
 10
219.557022
 20
-275.085182
 30
779.59207
 70
    64
  0
VERTEX
  5
278
  8
TEAM-NET
 10
210.061594
 20
-272.308043
 30
763.842128
 70
    64
  0
VERTEX
  5
279
  8
TEAM-NET
 10
198.950185
 20
-269.717764
 30
749.151926
 70
    64
  0
VERTEX
  5
27A
  8
TEAM-NET
 10
186.431113
 20
-267.328707
 30
735.602914
 70
    64
  0
VERTEX
  5
27B
  8
TEAM-NET
 10
172.700775
 20
-265.149305
 30
723.24291
 70
    64
  0
VERTEX
  5
27C
  8
TEAM-NET
 10
157.93843
 20
-263.183616
 30
712.094932
 70
    64
  0
VERTEX
  5
27D
  8
TEAM-NET
 10
142.304491
 20
-261.432693
 30
702.164956
 70
    64
  0
VERTEX
  5
27E
  8
TEAM-NET
 10
125.941043
 20
-259.895677
 30
693.448106
 70
    64
  0
VERTEX
  5
27F
  8
TEAM-NET
 10
108.973572
 20
-258.570617
 30
685.933319
 70
    64
  0
VERTEX
  5
280
  8
TEAM-NET
 10
91.513225
 20
-257.455061
 30
679.606685
 70
    64
  0
VERTEX
  5
281
  8
TEAM-NET
 10
73.659217
 20
-256.546467
 30
674.453789
 70
    64
  0
VERTEX
  5
282
  8
TEAM-NET
 10
55.50117
 20
-255.842482
 30
670.461293
 70
    64
  0
VERTEX
  5
283
  8
TEAM-NET
 10
37.121304
 20
-255.34113
 30
667.617988
 70
    64
  0
VERTEX
  5
284
  8
TEAM-NET
 10
18.596465
 20
-255.04093
 30
665.915469
 70
    64
  0
VERTEX
  5
285
  8
TEAM-NET
 10
0.0
 20
-254.940967
 30
665.348546
 70
    64
  0
VERTEX
  5
286
  8
TEAM-NET
 10
-18.596465
 20
-255.04093
 30
665.915469
 70
    64
  0
VERTEX
  5
287
  8
TEAM-NET
 10
-37.121304
 20
-255.34113
 30
667.617988
 70
    64
  0
VERTEX
  5
288
  8
TEAM-NET
 10
-55.50117
 20
-255.842482
 30
670.461293
 70
    64
  0
VERTEX
  5
289
  8
TEAM-NET
 10
-73.659217
 20
-256.546467
 30
674.453789
 70
    64
  0
VERTEX
  5
28A
  8
TEAM-NET
 10
-91.513225
 20
-257.455061
 30
679.606685
 70
    64
  0
VERTEX
  5
28B
  8
TEAM-NET
 10
-108.973572
 20
-258.570617
 30
685.933319
 70
    64
  0
VERTEX
  5
28C
  8
TEAM-NET
 10
-125.941043
 20
-259.895677
 30
693.448106
 70
    64
  0
VERTEX
  5
28D
  8
TEAM-NET
 10
-142.304491
 20
-261.432693
 30
702.164956
 70
    64
  0
VERTEX
  5
28E
  8
TEAM-NET
 10
-157.93843
 20
-263.183616
 30
712.094932
 70
    64
  0
VERTEX
  5
28F
  8
TEAM-NET
 10
-172.700775
 20
-265.149305
 30
723.24291
 70
    64
  0
VERTEX
  5
290
  8
TEAM-NET
 10
-186.431113
 20
-267.328707
 30
735.602914
 70
    64
  0
VERTEX
  5
291
  8
TEAM-NET
 10
-198.950185
 20
-269.717764
 30
749.151926
 70
    64
  0
VERTEX
  5
292
  8
TEAM-NET
 10
-210.061594
 20
-272.308043
 30
763.842128
 70
    64
  0
VERTEX
  5
293
  8
TEAM-NET
 10
-219.557022
 20
-275.085182
 30
779.59207
 70
    64
  0
VERTEX
  5
294
  8
TEAM-NET
 10
-227.226283
 20
-278.027376
 30
796.27808
 70
    64
  0
VERTEX
  5
295
  8
TEAM-NET
 10
-232.872828
 20
-281.104319
 30
813.728289
 70
    64
  0
VERTEX
  5
296
  8
TEAM-NET
 10
-236.333638
 20
-284.277169
 30
831.722414
 70
    64
  0
VERTEX
  5
297
  8
TEAM-NET
 10
-237.5
 20
-287.5
 30
850.0
 70
    64
  0
VERTEX
  5
298
  8
TEAM-NET
 10
237.5
 20
-287.5
 30
850.0
 70
    64
  0
VERTEX
  5
299
  8
TEAM-NET
 10
236.333638
 20
-285.882429
 30
831.511078
 70
    64
  0
VERTEX
  5
29A
  8
TEAM-NET
 10
232.872828
 20
-284.289944
 30
813.308894
 70
    64
  0
VERTEX
  5
29B
  8
TEAM-NET
 10
227.226283
 20
-282.745596
 30
795.656914
 70
    64
  0
VERTEX
  5
29C
  8
TEAM-NET
 10
219.557022
 20
-281.26888
 30
778.77797
 70
    64
  0
VERTEX
  5
29D
  8
TEAM-NET
 10
210.061594
 20
-279.875006
 30
762.845918
 70
    64
  0
VERTEX
  5
29E
  8
TEAM-NET
 10
198.950185
 20
-278.574919
 30
747.98586
 70
    64
  0
VERTEX
  5
29F
  8
TEAM-NET
 10
186.431113
 20
-277.375828
 30
734.280186
 70
    64
  0
VERTEX
  5
2A0
  8
TEAM-NET
 10
172.700775
 20
-276.281965
 30
721.777268
 70
    64
  0
VERTEX
  5
2A1
  8
TEAM-NET
 10
157.93843
 20
-275.295366
 30
710.50039
 70
    64
  0
VERTEX
  5
2A2
  8
TEAM-NET
 10
142.304491
 20
-274.41656
 30
700.455597
 70
    64
  0
VERTEX
  5
2A3
  8
TEAM-NET
 10
125.941043
 20
-273.645117
 30
691.637958
 70
    64
  0
VERTEX
  5
2A4
  8
TEAM-NET
 10
108.973572
 20
-272.980056
 30
684.03628
 70
    64
  0
VERTEX
  5
2A5
  8
TEAM-NET
 10
91.513225
 20
-272.420147
 30
677.636494
 70
    64
  0
VERTEX
  5
2A6
  8
TEAM-NET
 10
73.659217
 20
-271.964115
 30
672.424017
 70
    64
  0
VERTEX
  5
2A7
  8
TEAM-NET
 10
55.50117
 20
-271.610778
 30
668.385358
 70
    64
  0
VERTEX
  5
2A8
  8
TEAM-NET
 10
37.121304
 20
-271.359144
 30
665.509176
 70
    64
  0
VERTEX
  5
2A9
  8
TEAM-NET
 10
18.596465
 20
-271.208471
 30
663.786971
 70
    64
  0
VERTEX
  5
2AA
  8
TEAM-NET
 10
0.0
 20
-271.158298
 30
663.213494
 70
    64
  0
VERTEX
  5
2AB
  8
TEAM-NET
 10
-18.596465
 20
-271.208471
 30
663.786971
 70
    64
  0
VERTEX
  5
2AC
  8
TEAM-NET
 10
-37.121304
 20
-271.359144
 30
665.509176
 70
    64
  0
VERTEX
  5
2AD
  8
TEAM-NET
 10
-55.50117
 20
-271.610778
 30
668.385358
 70
    64
  0
VERTEX
  5
2AE
  8
TEAM-NET
 10
-73.659217
 20
-271.964115
 30
672.424017
 70
    64
  0
VERTEX
  5
2AF
  8
TEAM-NET
 10
-91.513225
 20
-272.420147
 30
677.636494
 70
    64
  0
VERTEX
  5
2B0
  8
TEAM-NET
 10
-108.973572
 20
-272.980056
 30
684.03628
 70
    64
  0
VERTEX
  5
2B1
  8
TEAM-NET
 10
-125.941043
 20
-273.645117
 30
691.637958
 70
    64
  0
VERTEX
  5
2B2
  8
TEAM-NET
 10
-142.304491
 20
-274.41656
 30
700.455597
 70
    64
  0
VERTEX
  5
2B3
  8
TEAM-NET
 10
-157.93843
 20
-275.295366
 30
710.50039
 70
    64
  0
VERTEX
  5
2B4
  8
TEAM-NET
 10
-172.700775
 20
-276.281965
 30
721.777268
 70
    64
  0
VERTEX
  5
2B5
  8
TEAM-NET
 10
-186.431113
 20
-277.375828
 30
734.280186
 70
    64
  0
VERTEX
  5
2B6
  8
TEAM-NET
 10
-198.950185
 20
-278.574919
 30
747.98586
 70
    64
  0
VERTEX
  5
2B7
  8
TEAM-NET
 10
-210.061594
 20
-279.875006
 30
762.845918
 70
    64
  0
VERTEX
  5
2B8
  8
TEAM-NET
 10
-219.557022
 20
-281.26888
 30
778.77797
 70
    64
  0
VERTEX
  5
2B9
  8
TEAM-NET
 10
-227.226283
 20
-282.745596
 30
795.656914
 70
    64
  0
VERTEX
  5
2BA
  8
TEAM-NET
 10
-232.872828
 20
-284.289944
 30
813.308894
 70
    64
  0
VERTEX
  5
2BB
  8
TEAM-NET
 10
-236.333638
 20
-285.882429
 30
831.511078
 70
    64
  0
VERTEX
  5
2BC
  8
TEAM-NET
 10
-237.5
 20
-287.5
 30
850.0
 70
    64
  0
VERTEX
  5
2BD
  8
TEAM-NET
 10
237.5
 20
-287.5
 30
850.0
 70
    64
  0
VERTEX
  5
2BE
  8
TEAM-NET
 10
236.333638
 20
-287.5
 30
831.440453
 70
    64
  0
VERTEX
  5
2BF
  8
TEAM-NET
 10
232.872828
 20
-287.5
 30
813.16874
 70
    64
  0
VERTEX
  5
2C0
  8
TEAM-NET
 10
227.226283
 20
-287.5
 30
795.449333
 70
    64
  0
VERTEX
  5
2C1
  8
TEAM-NET
 10
219.557022
 20
-287.5
 30
778.505914
 70
    64
  0
VERTEX
  5
2C2
  8
TEAM-NET
 10
210.061594
 20
-287.5
 30
762.513004
 70
    64
  0
VERTEX
  5
2C3
  8
TEAM-NET
 10
198.950185
 20
-287.5
 30
747.596182
 70
    64
  0
VERTEX
  5
2C4
  8
TEAM-NET
 10
186.431113
 20
-287.5
 30
733.838155
 70
    64
  0
VERTEX
  5
2C5
  8
TEAM-NET
 10
172.700775
 20
-287.5
 30
721.287478
 70
    64
  0
VERTEX
  5
2C6
  8
TEAM-NET
 10
157.93843
 20
-287.5
 30
709.967525
 70
    64
  0
VERTEX
  5
2C7
  8
TEAM-NET
 10
142.304491
 20
-287.5
 30
699.884362
 70
    64
  0
VERTEX
  5
2C8
  8
TEAM-NET
 10
125.941043
 20
-287.5
 30
691.033041
 70
    64
  0
VERTEX
  5
2C9
  8
TEAM-NET
 10
108.973572
 20
-287.5
 30
683.402326
 70
    64
  0
VERTEX
  5
2CA
  8
TEAM-NET
 10
91.513225
 20
-287.5
 30
676.978094
 70
    64
  0
VERTEX
  5
2CB
  8
TEAM-NET
 10
73.659217
 20
-287.5
 30
671.745706
 70
    64
  0
VERTEX
  5
2CC
  8
TEAM-NET
 10
55.50117
 20
-287.5
 30
667.691619
 70
    64
  0
VERTEX
  5
2CD
  8
TEAM-NET
 10
37.121304
 20
-287.5
 30
664.804451
 70
    64
  0
VERTEX
  5
2CE
  8
TEAM-NET
 10
18.596465
 20
-287.5
 30
663.075668
 70
    64
  0
VERTEX
  5
2CF
  8
TEAM-NET
 10
0.0
 20
-287.5
 30
662.5
 70
    64
  0
VERTEX
  5
2D0
  8
TEAM-NET
 10
-18.596465
 20
-287.5
 30
663.075668
 70
    64
  0
VERTEX
  5
2D1
  8
TEAM-NET
 10
-37.121304
 20
-287.5
 30
664.804451
 70
    64
  0
VERTEX
  5
2D2
  8
TEAM-NET
 10
-55.50117
 20
-287.5
 30
667.691619
 70
    64
  0
VERTEX
  5
2D3
  8
TEAM-NET
 10
-73.659217
 20
-287.5
 30
671.745706
 70
    64
  0
VERTEX
  5
2D4
  8
TEAM-NET
 10
-91.513225
 20
-287.5
 30
676.978094
 70
    64
  0
VERTEX
  5
2D5
  8
TEAM-NET
 10
-108.973572
 20
-287.5
 30
683.402326
 70
    64
  0
VERTEX
  5
2D6
  8
TEAM-NET
 10
-125.941043
 20
-287.5
 30
691.033041
 70
    64
  0
VERTEX
  5
2D7
  8
TEAM-NET
 10
-142.304491
 20
-287.5
 30
699.884362
 70
    64
  0
VERTEX
  5
2D8
  8
TEAM-NET
 10
-157.93843
 20
-287.5
 30
709.967525
 70
    64
  0
VERTEX
  5
2D9
  8
TEAM-NET
 10
-172.700775
 20
-287.5
 30
721.287478
 70
    64
  0
VERTEX
  5
2DA
  8
TEAM-NET
 10
-186.431113
 20
-287.5
 30
733.838155
 70
    64
  0
VERTEX
  5
2DB
  8
TEAM-NET
 10
-198.950185
 20
-287.5
 30
747.596182
 70
    64
  0
VERTEX
  5
2DC
  8
TEAM-NET
 10
-210.061594
 20
-287.5
 30
762.513004
 70
    64
  0
VERTEX
  5
2DD
  8
TEAM-NET
 10
-219.557022
 20
-287.5
 30
778.505914
 70
    64
  0
VERTEX
  5
2DE
  8
TEAM-NET
 10
-227.226283
 20
-287.5
 30
795.449333
 70
    64
  0
VERTEX
  5
2DF
  8
TEAM-NET
 10
-232.872828
 20
-287.5
 30
813.16874
 70
    64
  0
VERTEX
  5
2E0
  8
TEAM-NET
 10
-236.333638
 20
-287.5
 30
831.440453
 70
    64
  0
VERTEX
  5
2E1
  8
TEAM-NET
 10
-237.5
 20
-287.5
 30
850.0
 70
    64
  0
VERTEX
  5
2E2
  8
TEAM-NET
 10
237.5
 20
-287.5
 30
850.0
 70
    64
  0
VERTEX
  5
2E3
  8
TEAM-NET
 10
236.333638
 20
-289.117571
 30
831.511078
 70
    64
  0
VERTEX
  5
2E4
  8
TEAM-NET
 10
232.872828
 20
-290.710056
 30
813.308894
 70
    64
  0
VERTEX
  5
2E5
  8
TEAM-NET
 10
227.226283
 20
-292.254404
 30
795.656914
 70
    64
  0
VERTEX
  5
2E6
  8
TEAM-NET
 10
219.557022
 20
-293.73112
 30
778.77797
 70
    64
  0
VERTEX
  5
2E7
  8
TEAM-NET
 10
210.061594
 20
-295.124994
 30
762.845918
 70
    64
  0
VERTEX
  5
2E8
  8
TEAM-NET
 10
198.950185
 20
-296.425081
 30
747.98586
 70
    64
  0
VERTEX
  5
2E9
  8
TEAM-NET
 10
186.431113
 20
-297.624172
 30
734.280186
 70
    64
  0
VERTEX
  5
2EA
  8
TEAM-NET
 10
172.700775
 20
-298.718035
 30
721.777268
 70
    64
  0
VERTEX
  5
2EB
  8
TEAM-NET
 10
157.93843
 20
-299.704634
 30
710.50039
 70
    64
  0
VERTEX
  5
2EC
  8
TEAM-NET
 10
142.304491
 20
-300.58344
 30
700.455597
 70
    64
  0
VERTEX
  5
2ED
  8
TEAM-NET
 10
125.941043
 20
-301.354883
 30
691.637958
 70
    64
  0
VERTEX
  5
2EE
  8
TEAM-NET
 10
108.973572
 20
-302.019944
 30
684.03628
 70
    64
  0
VERTEX
  5
2EF
  8
TEAM-NET
 10
91.513225
 20
-302.579853
 30
677.636494
 70
    64
  0
VERTEX
  5
2F0
  8
TEAM-NET
 10
73.659217
 20
-303.035885
 30
672.424017
 70
    64
  0
VERTEX
  5
2F1
  8
TEAM-NET
 10
55.50117
 20
-303.389222
 30
668.385358
 70
    64
  0
VERTEX
  5
2F2
  8
TEAM-NET
 10
37.121304
 20
-303.640856
 30
665.509176
 70
    64
  0
VERTEX
  5
2F3
  8
TEAM-NET
 10
18.596465
 20
-303.791529
 30
663.786971
 70
    64
  0
VERTEX
  5
2F4
  8
TEAM-NET
 10
0.0
 20
-303.841702
 30
663.213494
 70
    64
  0
VERTEX
  5
2F5
  8
TEAM-NET
 10
-18.596465
 20
-303.791529
 30
663.786971
 70
    64
  0
VERTEX
  5
2F6
  8
TEAM-NET
 10
-37.121304
 20
-303.640856
 30
665.509176
 70
    64
  0
VERTEX
  5
2F7
  8
TEAM-NET
 10
-55.50117
 20
-303.389222
 30
668.385358
 70
    64
  0
VERTEX
  5
2F8
  8
TEAM-NET
 10
-73.659217
 20
-303.035885
 30
672.424017
 70
    64
  0
VERTEX
  5
2F9
  8
TEAM-NET
 10
-91.513225
 20
-302.579853
 30
677.636494
 70
    64
  0
VERTEX
  5
2FA
  8
TEAM-NET
 10
-108.973572
 20
-302.019944
 30
684.03628
 70
    64
  0
VERTEX
  5
2FB
  8
TEAM-NET
 10
-125.941043
 20
-301.354883
 30
691.637958
 70
    64
  0
VERTEX
  5
2FC
  8
TEAM-NET
 10
-142.304491
 20
-300.58344
 30
700.455597
 70
    64
  0
VERTEX
  5
2FD
  8
TEAM-NET
 10
-157.93843
 20
-299.704634
 30
710.50039
 70
    64
  0
VERTEX
  5
2FE
  8
TEAM-NET
 10
-172.700775
 20
-298.718035
 30
721.777268
 70
    64
  0
VERTEX
  5
2FF
  8
TEAM-NET
 10
-186.431113
 20
-297.624172
 30
734.280186
 70
    64
  0
VERTEX
  5
300
  8
TEAM-NET
 10
-198.950185
 20
-296.425081
 30
747.98586
 70
    64
  0
VERTEX
  5
301
  8
TEAM-NET
 10
-210.061594
 20
-295.124994
 30
762.845918
 70
    64
  0
VERTEX
  5
302
  8
TEAM-NET
 10
-219.557022
 20
-293.73112
 30
778.77797
 70
    64
  0
VERTEX
  5
303
  8
TEAM-NET
 10
-227.226283
 20
-292.254404
 30
795.656914
 70
    64
  0
VERTEX
  5
304
  8
TEAM-NET
 10
-232.872828
 20
-290.710056
 30
813.308894
 70
    64
  0
VERTEX
  5
305
  8
TEAM-NET
 10
-236.333638
 20
-289.117571
 30
831.511078
 70
    64
  0
VERTEX
  5
306
  8
TEAM-NET
 10
-237.5
 20
-287.5
 30
850.0
 70
    64
  0
VERTEX
  5
307
  8
TEAM-NET
 10
237.5
 20
-287.5
 30
850.0
 70
    64
  0
VERTEX
  5
308
  8
TEAM-NET
 10
236.333638
 20
-290.722831
 30
831.722414
 70
    64
  0
VERTEX
  5
309
  8
TEAM-NET
 10
232.872828
 20
-293.895681
 30
813.728289
 70
    64
  0
VERTEX
  5
30A
  8
TEAM-NET
 10
227.226283
 20
-296.972624
 30
796.27808
 70
    64
  0
VERTEX
  5
30B
  8
TEAM-NET
 10
219.557022
 20
-299.914818
 30
779.59207
 70
    64
  0
VERTEX
  5
30C
  8
TEAM-NET
 10
210.061594
 20
-302.691957
 30
763.842128
 70
    64
  0
VERTEX
  5
30D
  8
TEAM-NET
 10
198.950185
 20
-305.282236
 30
749.151926
 70
    64
  0
VERTEX
  5
30E
  8
TEAM-NET
 10
186.431113
 20
-307.671293
 30
735.602914
 70
    64
  0
VERTEX
  5
30F
  8
TEAM-NET
 10
172.700775
 20
-309.850695
 30
723.24291
 70
    64
  0
VERTEX
  5
310
  8
TEAM-NET
 10
157.93843
 20
-311.816384
 30
712.094932
 70
    64
  0
VERTEX
  5
311
  8
TEAM-NET
 10
142.304491
 20
-313.567307
 30
702.164956
 70
    64
  0
VERTEX
  5
312
  8
TEAM-NET
 10
125.941043
 20
-315.104323
 30
693.448106
 70
    64
  0
VERTEX
  5
313
  8
TEAM-NET
 10
108.973572
 20
-316.429383
 30
685.933319
 70
    64
  0
VERTEX
  5
314
  8
TEAM-NET
 10
91.513225
 20
-317.544939
 30
679.606685
 70
    64
  0
VERTEX
  5
315
  8
TEAM-NET
 10
73.659217
 20
-318.453533
 30
674.453789
 70
    64
  0
VERTEX
  5
316
  8
TEAM-NET
 10
55.50117
 20
-319.157518
 30
670.461293
 70
    64
  0
VERTEX
  5
317
  8
TEAM-NET
 10
37.121304
 20
-319.65887
 30
667.617988
 70
    64
  0
VERTEX
  5
318
  8
TEAM-NET
 10
18.596465
 20
-319.95907
 30
665.915469
 70
    64
  0
VERTEX
  5
319
  8
TEAM-NET
 10
0.0
 20
-320.059033
 30
665.348546
 70
    64
  0
VERTEX
  5
31A
  8
TEAM-NET
 10
-18.596465
 20
-319.95907
 30
665.915469
 70
    64
  0
VERTEX
  5
31B
  8
TEAM-NET
 10
-37.121304
 20
-319.65887
 30
667.617988
 70
    64
  0
VERTEX
  5
31C
  8
TEAM-NET
 10
-55.50117
 20
-319.157518
 30
670.461293
 70
    64
  0
VERTEX
  5
31D
  8
TEAM-NET
 10
-73.659217
 20
-318.453533
 30
674.453789
 70
    64
  0
VERTEX
  5
31E
  8
TEAM-NET
 10
-91.513225
 20
-317.544939
 30
679.606685
 70
    64
  0
VERTEX
  5
31F
  8
TEAM-NET
 10
-108.973572
 20
-316.429383
 30
685.933319
 70
    64
  0
VERTEX
  5
320
  8
TEAM-NET
 10
-125.941043
 20
-315.104323
 30
693.448106
 70
    64
  0
VERTEX
  5
321
  8
TEAM-NET
 10
-142.304491
 20
-313.567307
 30
702.164956
 70
    64
  0
VERTEX
  5
322
  8
TEAM-NET
 10
-157.93843
 20
-311.816384
 30
712.094932
 70
    64
  0
VERTEX
  5
323
  8
TEAM-NET
 10
-172.700775
 20
-309.850695
 30
723.24291
 70
    64
  0
VERTEX
  5
324
  8
TEAM-NET
 10
-186.431113
 20
-307.671293
 30
735.602914
 70
    64
  0
VERTEX
  5
325
  8
TEAM-NET
 10
-198.950185
 20
-305.282236
 30
749.151926
 70
    64
  0
VERTEX
  5
326
  8
TEAM-NET
 10
-210.061594
 20
-302.691957
 30
763.842128
 70
    64
  0
VERTEX
  5
327
  8
TEAM-NET
 10
-219.557022
 20
-299.914818
 30
779.59207
 70
    64
  0
VERTEX
  5
328
  8
TEAM-NET
 10
-227.226283
 20
-296.972624
 30
796.27808
 70
    64
  0
VERTEX
  5
329
  8
TEAM-NET
 10
-232.872828
 20
-293.895681
 30
813.728289
 70
    64
  0
VERTEX
  5
32A
  8
TEAM-NET
 10
-236.333638
 20
-290.722831
 30
831.722414
 70
    64
  0
VERTEX
  5
32B
  8
TEAM-NET
 10
-237.5
 20
-287.5
 30
850.0
 70
    64
  0
VERTEX
  5
32C
  8
TEAM-NET
 10
237.5
 20
-287.5
 30
850.0
 70
    64
  0
VERTEX
  5
32D
  8
TEAM-NET
 10
236.333638
 20
-292.303564
 30
832.072854
 70
    64
  0
VERTEX
  5
32E
  8
TEAM-NET
 10
232.872828
 20
-297.032632
 30
814.423735
 70
    64
  0
VERTEX
  5
32F
  8
TEAM-NET
 10
227.226283
 20
-301.618752
 30
797.308101
 70
    64
  0
VERTEX
  5
330
  8
TEAM-NET
 10
219.557022
 20
-306.004031
 30
780.942016
 70
    64
  0
VERTEX
  5
331
  8
TEAM-NET
 10
210.061594
 20
-310.143301
 30
765.494051
 70
    64
  0
VERTEX
  5
332
  8
TEAM-NET
 10
198.950185
 20
-314.004058
 30
751.085508
 70
    64
  0
VERTEX
  5
333
  8
TEAM-NET
 10
186.431113
 20
-317.564898
 30
737.796274
 70
    64
  0
VERTEX
  5
334
  8
TEAM-NET
 10
172.700775
 20
-320.813252
 30
725.673251
 70
    64
  0
VERTEX
  5
335
  8
TEAM-NET
 10
157.93843
 20
-323.743072
 30
714.739015
 70
    64
  0
VERTEX
  5
336
  8
TEAM-NET
 10
142.304491
 20
-326.352786
 30
704.999428
 70
    64
  0
VERTEX
  5
337
  8
TEAM-NET
 10
125.941043
 20
-328.643677
 30
696.449709
 70
    64
  0
VERTEX
  5
338
  8
TEAM-NET
 10
108.973572
 20
-330.618651
 30
689.079004
 70
    64
  0
VERTEX
  5
339
  8
TEAM-NET
 10
91.513225
 20
-332.281365
 30
682.873672
 70
    64
  0
VERTEX
  5
33A
  8
TEAM-NET
 10
73.659217
 20
-333.635606
 30
677.819574
 70
    64
  0
VERTEX
  5
33B
  8
TEAM-NET
 10
55.50117
 20
-334.684881
 30
673.903627
 70
    64
  0
VERTEX
  5
33C
  8
TEAM-NET
 10
37.121304
 20
-335.432135
 30
671.114837
 70
    64
  0
VERTEX
  5
33D
  8
TEAM-NET
 10
18.596465
 20
-335.879577
 30
669.44496
 70
    64
  0
VERTEX
  5
33E
  8
TEAM-NET
 10
0.0
 20
-336.028571
 30
668.888908
 70
    64
  0
VERTEX
  5
33F
  8
TEAM-NET
 10
-18.596465
 20
-335.879577
 30
669.44496
 70
    64
  0
VERTEX
  5
340
  8
TEAM-NET
 10
-37.121304
 20
-335.432135
 30
671.114837
 70
    64
  0
VERTEX
  5
341
  8
TEAM-NET
 10
-55.50117
 20
-334.684881
 30
673.903627
 70
    64
  0
VERTEX
  5
342
  8
TEAM-NET
 10
-73.659217
 20
-333.635606
 30
677.819574
 70
    64
  0
VERTEX
  5
343
  8
TEAM-NET
 10
-91.513225
 20
-332.281365
 30
682.873672
 70
    64
  0
VERTEX
  5
344
  8
TEAM-NET
 10
-108.973572
 20
-330.618651
 30
689.079004
 70
    64
  0
VERTEX
  5
345
  8
TEAM-NET
 10
-125.941043
 20
-328.643677
 30
696.449709
 70
    64
  0
VERTEX
  5
346
  8
TEAM-NET
 10
-142.304491
 20
-326.352786
 30
704.999428
 70
    64
  0
VERTEX
  5
347
  8
TEAM-NET
 10
-157.93843
 20
-323.743072
 30
714.739015
 70
    64
  0
VERTEX
  5
348
  8
TEAM-NET
 10
-172.700775
 20
-320.813252
 30
725.673251
 70
    64
  0
VERTEX
  5
349
  8
TEAM-NET
 10
-186.431113
 20
-317.564898
 30
737.796274
 70
    64
  0
VERTEX
  5
34A
  8
TEAM-NET
 10
-198.950185
 20
-314.004058
 30
751.085508
 70
    64
  0
VERTEX
  5
34B
  8
TEAM-NET
 10
-210.061594
 20
-310.143301
 30
765.494051
 70
    64
  0
VERTEX
  5
34C
  8
TEAM-NET
 10
-219.557022
 20
-306.004031
 30
780.942016
 70
    64
  0
VERTEX
  5
34D
  8
TEAM-NET
 10
-227.226283
 20
-301.618752
 30
797.308101
 70
    64
  0
VERTEX
  5
34E
  8
TEAM-NET
 10
-232.872828
 20
-297.032632
 30
814.423735
 70
    64
  0
VERTEX
  5
34F
  8
TEAM-NET
 10
-236.333638
 20
-292.303564
 30
832.072854
 70
    64
  0
VERTEX
  5
350
  8
TEAM-NET
 10
-237.5
 20
-287.5
 30
850.0
 70
    64
  0
VERTEX
  5
351
  8
TEAM-NET
 10
237.5
 20
-287.5
 30
850.0
 70
    64
  0
VERTEX
  5
352
  8
TEAM-NET
 10
236.333638
 20
-293.847739
 30
832.559731
 70
    64
  0
VERTEX
  5
353
  8
TEAM-NET
 10
232.872828
 20
-300.097033
 30
815.389937
 70
    64
  0
VERTEX
  5
354
  8
TEAM-NET
 10
227.226283
 20
-306.157427
 30
798.73914
 70
    64
  0
VERTEX
  5
355
  8
TEAM-NET
 10
219.557022
 20
-311.952418
 30
782.817535
 70
    64
  0
VERTEX
  5
356
  8
TEAM-NET
 10
210.061594
 20
-317.422315
 30
767.789115
 70
    64
  0
VERTEX
  5
357
  8
TEAM-NET
 10
198.950185
 20
-322.524168
 30
753.771888
 70
    64
  0
VERTEX
  5
358
  8
TEAM-NET
 10
186.431113
 20
-327.229691
 30
740.843571
 70
    64
  0
VERTEX
  5
359
  8
TEAM-NET
 10
172.700775
 20
-331.522275
 30
729.049793
 70
    64
  0
VERTEX
  5
35A
  8
TEAM-NET
 10
157.93843
 20
-335.393927
 30
718.412516
 70
    64
  0
VERTEX
  5
35B
  8
TEAM-NET
 10
142.304491
 20
-338.842572
 30
708.937443
 70
    64
  0
VERTEX
  5
35C
  8
TEAM-NET
 10
125.941043
 20
-341.869902
 30
700.619922
 70
    64
  0
VERTEX
  5
35D
  8
TEAM-NET
 10
108.973572
 20
-344.47976
 30
693.449395
 70
    64
  0
VERTEX
  5
35E
  8
TEAM-NET
 10
91.513225
 20
-346.676977
 30
687.412591
 70
    64
  0
VERTEX
  5
35F
  8
TEAM-NET
 10
73.659217
 20
-348.466559
 30
682.495755
 70
    64
  0
VERTEX
  5
360
  8
TEAM-NET
 10
55.50117
 20
-349.853138
 30
678.68616
 70
    64
  0
VERTEX
  5
361
  8
TEAM-NET
 10
37.121304
 20
-350.840608
 30
675.97311
 70
    64
  0
VERTEX
  5
362
  8
TEAM-NET
 10
18.596465
 20
-351.431887
 30
674.348585
 70
    64
  0
VERTEX
  5
363
  8
TEAM-NET
 10
0.0
 20
-351.628777
 30
673.807634
 70
    64
  0
VERTEX
  5
364
  8
TEAM-NET
 10
-18.596465
 20
-351.431887
 30
674.348585
 70
    64
  0
VERTEX
  5
365
  8
TEAM-NET
 10
-37.121304
 20
-350.840608
 30
675.97311
 70
    64
  0
VERTEX
  5
366
  8
TEAM-NET
 10
-55.50117
 20
-349.853138
 30
678.68616
 70
    64
  0
VERTEX
  5
367
  8
TEAM-NET
 10
-73.659217
 20
-348.466559
 30
682.495755
 70
    64
  0
VERTEX
  5
368
  8
TEAM-NET
 10
-91.513225
 20
-346.676977
 30
687.412591
 70
    64
  0
VERTEX
  5
369
  8
TEAM-NET
 10
-108.973572
 20
-344.47976
 30
693.449395
 70
    64
  0
VERTEX
  5
36A
  8
TEAM-NET
 10
-125.941043
 20
-341.869902
 30
700.619922
 70
    64
  0
VERTEX
  5
36B
  8
TEAM-NET
 10
-142.304491
 20
-338.842572
 30
708.937443
 70
    64
  0
VERTEX
  5
36C
  8
TEAM-NET
 10
-157.93843
 20
-335.393927
 30
718.412516
 70
    64
  0
VERTEX
  5
36D
  8
TEAM-NET
 10
-172.700775
 20
-331.522275
 30
729.049793
 70
    64
  0
VERTEX
  5
36E
  8
TEAM-NET
 10
-186.431113
 20
-327.229691
 30
740.843571
 70
    64
  0
VERTEX
  5
36F
  8
TEAM-NET
 10
-198.950185
 20
-322.524168
 30
753.771888
 70
    64
  0
VERTEX
  5
370
  8
TEAM-NET
 10
-210.061594
 20
-317.422315
 30
767.789115
 70
    64
  0
VERTEX
  5
371
  8
TEAM-NET
 10
-219.557022
 20
-311.952418
 30
782.817535
 70
    64
  0
VERTEX
  5
372
  8
TEAM-NET
 10
-227.226283
 20
-306.157427
 30
798.73914
 70
    64
  0
VERTEX
  5
373
  8
TEAM-NET
 10
-232.872828
 20
-300.097033
 30
815.389937
 70
    64
  0
VERTEX
  5
374
  8
TEAM-NET
 10
-236.333638
 20
-293.847739
 30
832.559731
 70
    64
  0
VERTEX
  5
375
  8
TEAM-NET
 10
-237.5
 20
-287.5
 30
850.0
 70
    64
  0
VERTEX
  5
376
  8
TEAM-NET
 10
237.5
 20
-287.5
 30
850.0
 70
    64
  0
VERTEX
  5
377
  8
TEAM-NET
 10
236.333638
 20
-295.343603
 30
833.179338
 70
    64
  0
VERTEX
  5
378
  8
TEAM-NET
 10
232.872828
 20
-303.065563
 30
816.619542
 70
    64
  0
VERTEX
  5
379
  8
TEAM-NET
 10
227.226283
 20
-310.554108
 30
800.560305
 70
    64
  0
VERTEX
  5
37A
  8
TEAM-NET
 10
219.557022
 20
-317.714706
 30
785.204353
 70
    64
  0
VERTEX
  5
37B
  8
TEAM-NET
 10
210.061594
 20
-324.473602
 30
770.709854
 70
    64
  0
VERTEX
  5
37C
  8
TEAM-NET
 10
198.950185
 20
-330.777724
 30
757.190622
 70
    64
  0
VERTEX
  5
37D
  8
TEAM-NET
 10
186.431113
 20
-336.592117
 30
744.721615
 70
    64
  0
VERTEX
  5
37E
  8
TEAM-NET
 10
172.700775
 20
-341.896262
 30
733.346839
 70
    64
  0
VERTEX
  5
37F
  8
TEAM-NET
 10
157.93843
 20
-346.680281
 30
723.087477
 70
    64
  0
VERTEX
  5
380
  8
TEAM-NET
 10
142.304491
 20
-350.94161
 30
713.949028
 70
    64
  0
VERTEX
  5
381
  8
TEAM-NET
 10
125.941043
 20
-354.68234
 30
705.927007
 70
    64
  0
VERTEX
  5
382
  8
TEAM-NET
 10
108.973572
 20
-357.907219
 30
699.011231
 70
    64
  0
VERTEX
  5
383
  8
TEAM-NET
 10
91.513225
 20
-360.622217
 30
693.188899
 70
    64
  0
VERTEX
  5
384
  8
TEAM-NET
 10
73.659217
 20
-362.83352
 30
688.446745
 70
    64
  0
VERTEX
  5
385
  8
TEAM-NET
 10
55.50117
 20
-364.546851
 30
684.772495
 70
    64
  0
VERTEX
  5
386
  8
TEAM-NET
 10
37.121304
 20
-365.767021
 30
682.155832
 70
    64
  0
VERTEX
  5
387
  8
TEAM-NET
 10
18.596465
 20
-366.497636
 30
680.589022
 70
    64
  0
VERTEX
  5
388
  8
TEAM-NET
 10
0.0
 20
-366.740924
 30
680.06729
 70
    64
  0
VERTEX
  5
389
  8
TEAM-NET
 10
-18.596465
 20
-366.497636
 30
680.589022
 70
    64
  0
VERTEX
  5
38A
  8
TEAM-NET
 10
-37.121304
 20
-365.767021
 30
682.155832
 70
    64
  0
VERTEX
  5
38B
  8
TEAM-NET
 10
-55.50117
 20
-364.546851
 30
684.772495
 70
    64
  0
VERTEX
  5
38C
  8
TEAM-NET
 10
-73.659217
 20
-362.83352
 30
688.446745
 70
    64
  0
VERTEX
  5
38D
  8
TEAM-NET
 10
-91.513225
 20
-360.622217
 30
693.188899
 70
    64
  0
VERTEX
  5
38E
  8
TEAM-NET
 10
-108.973572
 20
-357.907219
 30
699.011231
 70
    64
  0
VERTEX
  5
38F
  8
TEAM-NET
 10
-125.941043
 20
-354.68234
 30
705.927007
 70
    64
  0
VERTEX
  5
390
  8
TEAM-NET
 10
-142.304491
 20
-350.94161
 30
713.949028
 70
    64
  0
VERTEX
  5
391
  8
TEAM-NET
 10
-157.93843
 20
-346.680281
 30
723.087477
 70
    64
  0
VERTEX
  5
392
  8
TEAM-NET
 10
-172.700775
 20
-341.896262
 30
733.346839
 70
    64
  0
VERTEX
  5
393
  8
TEAM-NET
 10
-186.431113
 20
-336.592117
 30
744.721615
 70
    64
  0
VERTEX
  5
394
  8
TEAM-NET
 10
-198.950185
 20
-330.777724
 30
757.190622
 70
    64
  0
VERTEX
  5
395
  8
TEAM-NET
 10
-210.061594
 20
-324.473602
 30
770.709854
 70
    64
  0
VERTEX
  5
396
  8
TEAM-NET
 10
-219.557022
 20
-317.714706
 30
785.204353
 70
    64
  0
VERTEX
  5
397
  8
TEAM-NET
 10
-227.226283
 20
-310.554108
 30
800.560305
 70
    64
  0
VERTEX
  5
398
  8
TEAM-NET
 10
-232.872828
 20
-303.065563
 30
816.619542
 70
    64
  0
VERTEX
  5
399
  8
TEAM-NET
 10
-236.333638
 20
-295.343603
 30
833.179338
 70
    64
  0
VERTEX
  5
39A
  8
TEAM-NET
 10
-237.5
 20
-287.5
 30
850.0
 70
    64
  0
VERTEX
  5
39B
  8
TEAM-NET
 10
237.5
 20
-287.5
 30
850.0
 70
    64
  0
VERTEX
  5
39C
  8
TEAM-NET
 10
236.333638
 20
-296.779773
 30
833.926961
 70
    64
  0
VERTEX
  5
39D
  8
TEAM-NET
 10
232.872828
 20
-305.91563
 30
818.103193
 70
    64
  0
VERTEX
  5
39E
  8
TEAM-NET
 10
227.226283
 20
-314.775334
 30
802.757736
 70
    64
  0
VERTEX
  5
39F
  8
TEAM-NET
 10
219.557022
 20
-323.247043
 30
788.084305
 70
    64
  0
VERTEX
  5
3A0
  8
TEAM-NET
 10
210.061594
 20
-331.243498
 30
774.234039
 70
    64
  0
VERTEX
  5
3A1
  8
TEAM-NET
 10
198.950185
 20
-338.701909
 30
761.315692
 70
    64
  0
VERTEX
  5
3A2
  8
TEAM-NET
 10
186.431113
 20
-345.580923
 30
749.400891
 70
    64
  0
VERTEX
  5
3A3
  8
TEAM-NET
 10
172.700775
 20
-351.856261
 30
738.531686
 70
    64
  0
VERTEX
  5
3A4
  8
TEAM-NET
 10
157.93843
 20
-357.516238
 30
728.728319
 70
    64
  0
VERTEX
  5
3A5
  8
TEAM-NET
 10
142.304491
 20
-362.557819
 30
719.996044
 70
    64
  0
VERTEX
  5
3A6
  8
TEAM-NET
 10
125.941043
 20
-366.983479
 30
712.330575
 70
    64
  0
VERTEX
  5
3A7
  8
TEAM-NET
 10
108.973572
 20
-370.798837
 30
705.722182
 70
    64
  0
VERTEX
  5
3A8
  8
TEAM-NET
 10
91.513225
 20
-374.010953
 30
700.158634
 70
    64
  0
VERTEX
  5
3A9
  8
TEAM-NET
 10
73.659217
 20
-376.627147
 30
695.627253
 70
    64
  0
VERTEX
  5
3AA
  8
TEAM-NET
 10
55.50117
 20
-378.65419
 30
692.116311
 70
    64
  0
VERTEX
  5
3AB
  8
TEAM-NET
 10
37.121304
 20
-380.097774
 30
689.61595
 70
    64
  0
VERTEX
  5
3AC
  8
TEAM-NET
 10
18.596465
 20
-380.962166
 30
688.11878
 70
    64
  0
VERTEX
  5
3AD
  8
TEAM-NET
 10
0.0
 20
-381.25
 30
687.620237
 70
    64
  0
VERTEX
  5
3AE
  8
TEAM-NET
 10
-18.596465
 20
-380.962166
 30
688.11878
 70
    64
  0
VERTEX
  5
3AF
  8
TEAM-NET
 10
-37.121304
 20
-380.097774
 30
689.61595
 70
    64
  0
VERTEX
  5
3B0
  8
TEAM-NET
 10
-55.50117
 20
-378.65419
 30
692.116311
 70
    64
  0
VERTEX
  5
3B1
  8
TEAM-NET
 10
-73.659217
 20
-376.627147
 30
695.627253
 70
    64
  0
VERTEX
  5
3B2
  8
TEAM-NET
 10
-91.513225
 20
-374.010953
 30
700.158634
 70
    64
  0
VERTEX
  5
3B3
  8
TEAM-NET
 10
-108.973572
 20
-370.798837
 30
705.722182
 70
    64
  0
VERTEX
  5
3B4
  8
TEAM-NET
 10
-125.941043
 20
-366.983479
 30
712.330575
 70
    64
  0
VERTEX
  5
3B5
  8
TEAM-NET
 10
-142.304491
 20
-362.557819
 30
719.996044
 70
    64
  0
VERTEX
  5
3B6
  8
TEAM-NET
 10
-157.93843
 20
-357.516238
 30
728.728319
 70
    64
  0
VERTEX
  5
3B7
  8
TEAM-NET
 10
-172.700775
 20
-351.856261
 30
738.531686
 70
    64
  0
VERTEX
  5
3B8
  8
TEAM-NET
 10
-186.431113
 20
-345.580923
 30
749.400891
 70
    64
  0
VERTEX
  5
3B9
  8
TEAM-NET
 10
-198.950185
 20
-338.701909
 30
761.315692
 70
    64
  0
VERTEX
  5
3BA
  8
TEAM-NET
 10
-210.061594
 20
-331.243498
 30
774.234039
 70
    64
  0
VERTEX
  5
3BB
  8
TEAM-NET
 10
-219.557022
 20
-323.247043
 30
788.084305
 70
    64
  0
VERTEX
  5
3BC
  8
TEAM-NET
 10
-227.226283
 20
-314.775334
 30
802.757736
 70
    64
  0
VERTEX
  5
3BD
  8
TEAM-NET
 10
-232.872828
 20
-305.91563
 30
818.103193
 70
    64
  0
VERTEX
  5
3BE
  8
TEAM-NET
 10
-236.333638
 20
-296.779773
 30
833.926961
 70
    64
  0
VERTEX
  5
3BF
  8
TEAM-NET
 10
-237.5
 20
-287.5
 30
850.0
 70
    64
  0
VERTEX
  5
3C0
  8
TEAM-NET
 10
237.5
 20
-287.5
 30
850.0
 70
    64
  0
VERTEX
  5
3C1
  8
TEAM-NET
 10
236.333638
 20
-298.145319
 30
834.796909
 70
    64
  0
VERTEX
  5
3C2
  8
TEAM-NET
 10
232.872828
 20
-308.625543
 30
819.829598
 70
    64
  0
VERTEX
  5
3C3
  8
TEAM-NET
 10
227.226283
 20
-318.788977
 30
805.314709
 70
    64
  0
VERTEX
  5
3C4
  8
TEAM-NET
 10
219.557022
 20
-328.507323
 30
791.435473
 70
    64
  0
VERTEX
  5
3C5
  8
TEAM-NET
 10
210.061594
 20
-337.68048
 30
778.334848
 70
    64
  0
VERTEX
  5
3C6
  8
TEAM-NET
 10
198.950185
 20
-346.236417
 30
766.115703
 70
    64
  0
VERTEX
  5
3C7
  8
TEAM-NET
 10
186.431113
 20
-354.127697
 30
754.845787
 70
    64
  0
VERTEX
  5
3C8
  8
TEAM-NET
 10
172.700775
 20
-361.32647
 30
744.564874
 70
    64
  0
VERTEX
  5
3C9
  8
TEAM-NET
 10
157.93843
 20
-367.819328
 30
735.292111
 70
    64
  0
VERTEX
  5
3CA
  8
TEAM-NET
 10
142.304491
 20
-373.602793
 30
727.032468
 70
    64
  0
VERTEX
  5
3CB
  8
TEAM-NET
 10
125.941043
 20
-378.679702
 30
719.781891
 70
    64
  0
VERTEX
  5
3CC
  8
TEAM-NET
 10
108.973572
 20
-383.0565
 30
713.531175
 70
    64
  0
VERTEX
  5
3CD
  8
TEAM-NET
 10
91.513225
 20
-386.741288
 30
708.268752
 70
    64
  0
VERTEX
  5
3CE
  8
TEAM-NET
 10
73.659217
 20
-389.742463
 30
703.982631
 70
    64
  0
VERTEX
  5
3CF
  8
TEAM-NET
 10
55.50117
 20
-392.067791
 30
700.661717
 70
    64
  0
VERTEX
  5
3D0
  8
TEAM-NET
 10
37.121304
 20
-393.723803
 30
698.296688
 70
    64
  0
VERTEX
  5
3D1
  8
TEAM-NET
 10
18.596465
 20
-394.715392
 30
696.880551
 70
    64
  0
VERTEX
  5
3D2
  8
TEAM-NET
 10
0.0
 20
-395.045582
 30
696.408992
 70
    64
  0
VERTEX
  5
3D3
  8
TEAM-NET
 10
-18.596465
 20
-394.715392
 30
696.880551
 70
    64
  0
VERTEX
  5
3D4
  8
TEAM-NET
 10
-37.121304
 20
-393.723803
 30
698.296688
 70
    64
  0
VERTEX
  5
3D5
  8
TEAM-NET
 10
-55.50117
 20
-392.067791
 30
700.661717
 70
    64
  0
VERTEX
  5
3D6
  8
TEAM-NET
 10
-73.659217
 20
-389.742463
 30
703.982631
 70
    64
  0
VERTEX
  5
3D7
  8
TEAM-NET
 10
-91.513225
 20
-386.741288
 30
708.268752
 70
    64
  0
VERTEX
  5
3D8
  8
TEAM-NET
 10
-108.973572
 20
-383.0565
 30
713.531175
 70
    64
  0
VERTEX
  5
3D9
  8
TEAM-NET
 10
-125.941043
 20
-378.679702
 30
719.781891
 70
    64
  0
VERTEX
  5
3DA
  8
TEAM-NET
 10
-142.304491
 20
-373.602793
 30
727.032468
 70
    64
  0
VERTEX
  5
3DB
  8
TEAM-NET
 10
-157.93843
 20
-367.819328
 30
735.292111
 70
    64
  0
VERTEX
  5
3DC
  8
TEAM-NET
 10
-172.700775
 20
-361.32647
 30
744.564874
 70
    64
  0
VERTEX
  5
3DD
  8
TEAM-NET
 10
-186.431113
 20
-354.127697
 30
754.845787
 70
    64
  0
VERTEX
  5
3DE
  8
TEAM-NET
 10
-198.950185
 20
-346.236417
 30
766.115703
 70
    64
  0
VERTEX
  5
3DF
  8
TEAM-NET
 10
-210.061594
 20
-337.68048
 30
778.334848
 70
    64
  0
VERTEX
  5
3E0
  8
TEAM-NET
 10
-219.557022
 20
-328.507323
 30
791.435473
 70
    64
  0
VERTEX
  5
3E1
  8
TEAM-NET
 10
-227.226283
 20
-318.788977
 30
805.314709
 70
    64
  0
VERTEX
  5
3E2
  8
TEAM-NET
 10
-232.872828
 20
-308.625543
 30
819.829598
 70
    64
  0
VERTEX
  5
3E3
  8
TEAM-NET
 10
-236.333638
 20
-298.145319
 30
834.796909
 70
    64
  0
VERTEX
  5
3E4
  8
TEAM-NET
 10
-237.5
 20
-287.5
 30
850.0
 70
    64
  0
VERTEX
  5
3E5
  8
TEAM-NET
 10
237.5
 20
-287.5
 30
850.0
 70
    64
  0
VERTEX
  5
3E6
  8
TEAM-NET
 10
236.333638
 20
-299.429847
 30
835.782562
 70
    64
  0
VERTEX
  5
3E7
  8
TEAM-NET
 10
232.872828
 20
-311.174678
 30
821.785618
 70
    64
  0
VERTEX
  5
3E8
  8
TEAM-NET
 10
227.226283
 20
-322.564493
 30
808.211764
 70
    64
  0
VERTEX
  5
3E9
  8
TEAM-NET
 10
219.557022
 20
-333.455513
 30
795.232353
 70
    64
  0
VERTEX
  5
3EA
  8
TEAM-NET
 10
210.061594
 20
-343.735557
 30
782.981073
 70
    64
  0
VERTEX
  5
3EB
  8
TEAM-NET
 10
198.950185
 20
-353.323905
 30
771.554124
 70
    64
  0
VERTEX
  5
3EC
  8
TEAM-NET
 10
186.431113
 20
-362.167395
 30
761.014864
 70
    64
  0
VERTEX
  5
3ED
  8
TEAM-NET
 10
172.700775
 20
-370.234815
 30
751.400488
 70
    64
  0
VERTEX
  5
3EE
  8
TEAM-NET
 10
157.93843
 20
-377.51114
 30
742.7289
 70
    64
  0
VERTEX
  5
3EF
  8
TEAM-NET
 10
142.304491
 20
-383.992472
 30
735.00475
 70
    64
  0
VERTEX
  5
3F0
  8
TEAM-NET
 10
125.941043
 20
-389.681992
 30
728.224244
 70
    64
  0
VERTEX
  5
3F1
  8
TEAM-NET
 10
108.973572
 20
-394.586921
 30
722.378778
 70
    64
  0
VERTEX
  5
3F2
  8
TEAM-NET
 10
91.513225
 20
-398.716338
 30
717.45753
 70
    64
  0
VERTEX
  5
3F3
  8
TEAM-NET
 10
73.659217
 20
-402.079652
 30
713.449289
 70
    64
  0
VERTEX
  5
3F4
  8
TEAM-NET
 10
55.50117
 20
-404.685568
 30
710.343678
 70
    64
  0
VERTEX
  5
3F5
  8
TEAM-NET
 10
37.121304
 20
-406.541404
 30
708.131979
 70
    64
  0
VERTEX
  5
3F6
  8
TEAM-NET
 10
18.596465
 20
-407.652645
 30
706.807654
 70
    64
  0
VERTEX
  5
3F7
  8
TEAM-NET
 10
0.0
 20
-408.022677
 30
706.366667
 70
    64
  0
VERTEX
  5
3F8
  8
TEAM-NET
 10
-18.596465
 20
-407.652645
 30
706.807654
 70
    64
  0
VERTEX
  5
3F9
  8
TEAM-NET
 10
-37.121304
 20
-406.541404
 30
708.131979
 70
    64
  0
VERTEX
  5
3FA
  8
TEAM-NET
 10
-55.50117
 20
-404.685568
 30
710.343678
 70
    64
  0
VERTEX
  5
3FB
  8
TEAM-NET
 10
-73.659217
 20
-402.079652
 30
713.449289
 70
    64
  0
VERTEX
  5
3FC
  8
TEAM-NET
 10
-91.513225
 20
-398.716338
 30
717.45753
 70
    64
  0
VERTEX
  5
3FD
  8
TEAM-NET
 10
-108.973572
 20
-394.586921
 30
722.378778
 70
    64
  0
VERTEX
  5
3FE
  8
TEAM-NET
 10
-125.941043
 20
-389.681992
 30
728.224244
 70
    64
  0
VERTEX
  5
3FF
  8
TEAM-NET
 10
-142.304491
 20
-383.992472
 30
735.00475
 70
    64
  0
VERTEX
  5
400
  8
TEAM-NET
 10
-157.93843
 20
-377.51114
 30
742.7289
 70
    64
  0
VERTEX
  5
401
  8
TEAM-NET
 10
-172.700775
 20
-370.234815
 30
751.400488
 70
    64
  0
VERTEX
  5
402
  8
TEAM-NET
 10
-186.431113
 20
-362.167395
 30
761.014864
 70
    64
  0
VERTEX
  5
403
  8
TEAM-NET
 10
-198.950185
 20
-353.323905
 30
771.554124
 70
    64
  0
VERTEX
  5
404
  8
TEAM-NET
 10
-210.061594
 20
-343.735557
 30
782.981073
 70
    64
  0
VERTEX
  5
405
  8
TEAM-NET
 10
-219.557022
 20
-333.455513
 30
795.232353
 70
    64
  0
VERTEX
  5
406
  8
TEAM-NET
 10
-227.226283
 20
-322.564493
 30
808.211764
 70
    64
  0
VERTEX
  5
407
  8
TEAM-NET
 10
-232.872828
 20
-311.174678
 30
821.785618
 70
    64
  0
VERTEX
  5
408
  8
TEAM-NET
 10
-236.333638
 20
-299.429847
 30
835.782562
 70
    64
  0
VERTEX
  5
409
  8
TEAM-NET
 10
-237.5
 20
-287.5
 30
850.0
 70
    64
  0
VERTEX
  5
40A
  8
TEAM-NET
 10
237.5
 20
-287.5
 30
850.0
 70
    64
  0
VERTEX
  5
40B
  8
TEAM-NET
 10
236.333638
 20
-300.623581
 30
836.876419
 70
    64
  0
VERTEX
  5
40C
  8
TEAM-NET
 10
232.872828
 20
-313.543634
 30
823.956366
 70
    64
  0
VERTEX
  5
40D
  8
TEAM-NET
 10
227.226283
 20
-326.073147
 30
811.426853
 70
    64
  0
VERTEX
  5
40E
  8
TEAM-NET
 10
219.557022
 20
-338.053953
 30
799.446047
 70
    64
  0
VERTEX
  5
40F
  8
TEAM-NET
 10
210.061594
 20
-349.362648
 30
788.137352
 70
    64
  0
VERTEX
  5
410
  8
TEAM-NET
 10
198.950185
 20
-359.910434
 30
777.589566
 70
    64
  0
VERTEX
  5
411
  8
TEAM-NET
 10
186.431113
 20
-369.638828
 30
767.861172
 70
    64
  0
VERTEX
  5
412
  8
TEAM-NET
 10
172.700775
 20
-378.513497
 30
758.986503
 70
    64
  0
VERTEX
  5
413
  8
TEAM-NET
 10
157.93843
 20
-386.517913
 30
750.982087
 70
    64
  0
VERTEX
  5
414
  8
TEAM-NET
 10
142.304491
 20
-393.647786
 30
743.852214
 70
    64
  0
VERTEX
  5
415
  8
TEAM-NET
 10
125.941043
 20
-399.906615
 30
737.593385
 70
    64
  0
VERTEX
  5
416
  8
TEAM-NET
 10
108.973572
 20
-405.302345
 30
732.197655
 70
    64
  0
VERTEX
  5
417
  8
TEAM-NET
 10
91.513225
 20
-409.844963
 30
727.655037
 70
    64
  0
VERTEX
  5
418
  8
TEAM-NET
 10
73.659217
 20
-413.54482
 30
723.95518
 70
    64
  0
VERTEX
  5
419
  8
TEAM-NET
 10
55.50117
 20
-416.411492
 30
721.088508
 70
    64
  0
VERTEX
  5
41A
  8
TEAM-NET
 10
37.121304
 20
-418.453028
 30
719.046972
 70
    64
  0
VERTEX
  5
41B
  8
TEAM-NET
 10
18.596465
 20
-419.675463
 30
717.824537
 70
    64
  0
VERTEX
  5
41C
  8
TEAM-NET
 10
0.0
 20
-420.082521
 30
717.417479
 70
    64
  0
VERTEX
  5
41D
  8
TEAM-NET
 10
-18.596465
 20
-419.675463
 30
717.824537
 70
    64
  0
VERTEX
  5
41E
  8
TEAM-NET
 10
-37.121304
 20
-418.453028
 30
719.046972
 70
    64
  0
VERTEX
  5
41F
  8
TEAM-NET
 10
-55.50117
 20
-416.411492
 30
721.088508
 70
    64
  0
VERTEX
  5
420
  8
TEAM-NET
 10
-73.659217
 20
-413.54482
 30
723.95518
 70
    64
  0
VERTEX
  5
421
  8
TEAM-NET
 10
-91.513225
 20
-409.844963
 30
727.655037
 70
    64
  0
VERTEX
  5
422
  8
TEAM-NET
 10
-108.973572
 20
-405.302345
 30
732.197655
 70
    64
  0
VERTEX
  5
423
  8
TEAM-NET
 10
-125.941043
 20
-399.906615
 30
737.593385
 70
    64
  0
VERTEX
  5
424
  8
TEAM-NET
 10
-142.304491
 20
-393.647786
 30
743.852214
 70
    64
  0
VERTEX
  5
425
  8
TEAM-NET
 10
-157.93843
 20
-386.517913
 30
750.982087
 70
    64
  0
VERTEX
  5
426
  8
TEAM-NET
 10
-172.700775
 20
-378.513497
 30
758.986503
 70
    64
  0
VERTEX
  5
427
  8
TEAM-NET
 10
-186.431113
 20
-369.638828
 30
767.861172
 70
    64
  0
VERTEX
  5
428
  8
TEAM-NET
 10
-198.950185
 20
-359.910434
 30
777.589566
 70
    64
  0
VERTEX
  5
429
  8
TEAM-NET
 10
-210.061594
 20
-349.362648
 30
788.137352
 70
    64
  0
VERTEX
  5
42A
  8
TEAM-NET
 10
-219.557022
 20
-338.053953
 30
799.446047
 70
    64
  0
VERTEX
  5
42B
  8
TEAM-NET
 10
-227.226283
 20
-326.073147
 30
811.426853
 70
    64
  0
VERTEX
  5
42C
  8
TEAM-NET
 10
-232.872828
 20
-313.543634
 30
823.956366
 70
    64
  0
VERTEX
  5
42D
  8
TEAM-NET
 10
-236.333638
 20
-300.623581
 30
836.876419
 70
    64
  0
VERTEX
  5
42E
  8
TEAM-NET
 10
-237.5
 20
-287.5
 30
850.0
 70
    64
  0
VERTEX
  5
42F
  8
TEAM-NET
 10
237.5
 20
-287.5
 30
850.0
 70
    64
  0
VERTEX
  5
430
  8
TEAM-NET
 10
236.333638
 20
-301.717438
 30
838.070153
 70
    64
  0
VERTEX
  5
431
  8
TEAM-NET
 10
232.872828
 20
-315.714382
 30
826.325322
 70
    64
  0
VERTEX
  5
432
  8
TEAM-NET
 10
227.226283
 20
-329.288236
 30
814.935507
 70
    64
  0
VERTEX
  5
433
  8
TEAM-NET
 10
219.557022
 20
-342.267647
 30
804.044487
 70
    64
  0
VERTEX
  5
434
  8
TEAM-NET
 10
210.061594
 20
-354.518927
 30
793.764443
 70
    64
  0
VERTEX
  5
435
  8
TEAM-NET
 10
198.950185
 20
-365.945876
 30
784.176095
 70
    64
  0
VERTEX
  5
436
  8
TEAM-NET
 10
186.431113
 20
-376.485136
 30
775.332605
 70
    64
  0
VERTEX
  5
437
  8
TEAM-NET
 10
172.700775
 20
-386.099512
 30
767.265185
 70
    64
  0
VERTEX
  5
438
  8
TEAM-NET
 10
157.93843
 20
-394.7711
 30
759.98886
 70
    64
  0
VERTEX
  5
439
  8
TEAM-NET
 10
142.304491
 20
-402.49525
 30
753.507528
 70
    64
  0
VERTEX
  5
43A
  8
TEAM-NET
 10
125.941043
 20
-409.275756
 30
747.818008
 70
    64
  0
VERTEX
  5
43B
  8
TEAM-NET
 10
108.973572
 20
-415.121222
 30
742.913079
 70
    64
  0
VERTEX
  5
43C
  8
TEAM-NET
 10
91.513225
 20
-420.04247
 30
738.783662
 70
    64
  0
VERTEX
  5
43D
  8
TEAM-NET
 10
73.659217
 20
-424.050711
 30
735.420348
 70
    64
  0
VERTEX
  5
43E
  8
TEAM-NET
 10
55.50117
 20
-427.156322
 30
732.814432
 70
    64
  0
VERTEX
  5
43F
  8
TEAM-NET
 10
37.121304
 20
-429.368021
 30
730.958596
 70
    64
  0
VERTEX
  5
440
  8
TEAM-NET
 10
18.596465
 20
-430.692346
 30
729.847355
 70
    64
  0
VERTEX
  5
441
  8
TEAM-NET
 10
0.0
 20
-431.133333
 30
729.477323
 70
    64
  0
VERTEX
  5
442
  8
TEAM-NET
 10
-18.596465
 20
-430.692346
 30
729.847355
 70
    64
  0
VERTEX
  5
443
  8
TEAM-NET
 10
-37.121304
 20
-429.368021
 30
730.958596
 70
    64
  0
VERTEX
  5
444
  8
TEAM-NET
 10
-55.50117
 20
-427.156322
 30
732.814432
 70
    64
  0
VERTEX
  5
445
  8
TEAM-NET
 10
-73.659217
 20
-424.050711
 30
735.420348
 70
    64
  0
VERTEX
  5
446
  8
TEAM-NET
 10
-91.513225
 20
-420.04247
 30
738.783662
 70
    64
  0
VERTEX
  5
447
  8
TEAM-NET
 10
-108.973572
 20
-415.121222
 30
742.913079
 70
    64
  0
VERTEX
  5
448
  8
TEAM-NET
 10
-125.941043
 20
-409.275756
 30
747.818008
 70
    64
  0
VERTEX
  5
449
  8
TEAM-NET
 10
-142.304491
 20
-402.49525
 30
753.507528
 70
    64
  0
VERTEX
  5
44A
  8
TEAM-NET
 10
-157.93843
 20
-394.7711
 30
759.98886
 70
    64
  0
VERTEX
  5
44B
  8
TEAM-NET
 10
-172.700775
 20
-386.099512
 30
767.265185
 70
    64
  0
VERTEX
  5
44C
  8
TEAM-NET
 10
-186.431113
 20
-376.485136
 30
775.332605
 70
    64
  0
VERTEX
  5
44D
  8
TEAM-NET
 10
-198.950185
 20
-365.945876
 30
784.176095
 70
    64
  0
VERTEX
  5
44E
  8
TEAM-NET
 10
-210.061594
 20
-354.518927
 30
793.764443
 70
    64
  0
VERTEX
  5
44F
  8
TEAM-NET
 10
-219.557022
 20
-342.267647
 30
804.044487
 70
    64
  0
VERTEX
  5
450
  8
TEAM-NET
 10
-227.226283
 20
-329.288236
 30
814.935507
 70
    64
  0
VERTEX
  5
451
  8
TEAM-NET
 10
-232.872828
 20
-315.714382
 30
826.325322
 70
    64
  0
VERTEX
  5
452
  8
TEAM-NET
 10
-236.333638
 20
-301.717438
 30
838.070153
 70
    64
  0
VERTEX
  5
453
  8
TEAM-NET
 10
-237.5
 20
-287.5
 30
850.0
 70
    64
  0
VERTEX
  5
454
  8
TEAM-NET
 10
237.5
 20
-287.5
 30
850.0
 70
    64
  0
VERTEX
  5
455
  8
TEAM-NET
 10
236.333638
 20
-302.703091
 30
839.354681
 70
    64
  0
VERTEX
  5
456
  8
TEAM-NET
 10
232.872828
 20
-317.670402
 30
828.874457
 70
    64
  0
VERTEX
  5
457
  8
TEAM-NET
 10
227.226283
 20
-332.185291
 30
818.711023
 70
    64
  0
VERTEX
  5
458
  8
TEAM-NET
 10
219.557022
 20
-346.064527
 30
808.992677
 70
    64
  0
VERTEX
  5
459
  8
TEAM-NET
 10
210.061594
 20
-359.165152
 30
799.81952
 70
    64
  0
VERTEX
  5
45A
  8
TEAM-NET
 10
198.950185
 20
-371.384297
 30
791.263583
 70
    64
  0
VERTEX
  5
45B
  8
TEAM-NET
 10
186.431113
 20
-382.654213
 30
783.372303
 70
    64
  0
VERTEX
  5
45C
  8
TEAM-NET
 10
172.700775
 20
-392.935126
 30
776.17353
 70
    64
  0
VERTEX
  5
45D
  8
TEAM-NET
 10
157.93843
 20
-402.207889
 30
769.680672
 70
    64
  0
VERTEX
  5
45E
  8
TEAM-NET
 10
142.304491
 20
-410.467532
 30
763.897207
 70
    64
  0
VERTEX
  5
45F
  8
TEAM-NET
 10
125.941043
 20
-417.718109
 30
758.820298
 70
    64
  0
VERTEX
  5
460
  8
TEAM-NET
 10
108.973572
 20
-423.968825
 30
754.4435
 70
    64
  0
VERTEX
  5
461
  8
TEAM-NET
 10
91.513225
 20
-429.231248
 30
750.758712
 70
    64
  0
VERTEX
  5
462
  8
TEAM-NET
 10
73.659217
 20
-433.517369
 30
747.757537
 70
    64
  0
VERTEX
  5
463
  8
TEAM-NET
 10
55.50117
 20
-436.838283
 30
745.432209
 70
    64
  0
VERTEX
  5
464
  8
TEAM-NET
 10
37.121304
 20
-439.203312
 30
743.776197
 70
    64
  0
VERTEX
  5
465
  8
TEAM-NET
 10
18.596465
 20
-440.619449
 30
742.784608
 70
    64
  0
VERTEX
  5
466
  8
TEAM-NET
 10
0.0
 20
-441.091008
 30
742.454418
 70
    64
  0
VERTEX
  5
467
  8
TEAM-NET
 10
-18.596465
 20
-440.619449
 30
742.784608
 70
    64
  0
VERTEX
  5
468
  8
TEAM-NET
 10
-37.121304
 20
-439.203312
 30
743.776197
 70
    64
  0
VERTEX
  5
469
  8
TEAM-NET
 10
-55.50117
 20
-436.838283
 30
745.432209
 70
    64
  0
VERTEX
  5
46A
  8
TEAM-NET
 10
-73.659217
 20
-433.517369
 30
747.757537
 70
    64
  0
VERTEX
  5
46B
  8
TEAM-NET
 10
-91.513225
 20
-429.231248
 30
750.758712
 70
    64
  0
VERTEX
  5
46C
  8
TEAM-NET
 10
-108.973572
 20
-423.968825
 30
754.4435
 70
    64
  0
VERTEX
  5
46D
  8
TEAM-NET
 10
-125.941043
 20
-417.718109
 30
758.820298
 70
    64
  0
VERTEX
  5
46E
  8
TEAM-NET
 10
-142.304491
 20
-410.467532
 30
763.897207
 70
    64
  0
VERTEX
  5
46F
  8
TEAM-NET
 10
-157.93843
 20
-402.207889
 30
769.680672
 70
    64
  0
VERTEX
  5
470
  8
TEAM-NET
 10
-172.700775
 20
-392.935126
 30
776.17353
 70
    64
  0
VERTEX
  5
471
  8
TEAM-NET
 10
-186.431113
 20
-382.654213
 30
783.372303
 70
    64
  0
VERTEX
  5
472
  8
TEAM-NET
 10
-198.950185
 20
-371.384297
 30
791.263583
 70
    64
  0
VERTEX
  5
473
  8
TEAM-NET
 10
-210.061594
 20
-359.165152
 30
799.81952
 70
    64
  0
VERTEX
  5
474
  8
TEAM-NET
 10
-219.557022
 20
-346.064527
 30
808.992677
 70
    64
  0
VERTEX
  5
475
  8
TEAM-NET
 10
-227.226283
 20
-332.185291
 30
818.711023
 70
    64
  0
VERTEX
  5
476
  8
TEAM-NET
 10
-232.872828
 20
-317.670402
 30
828.874457
 70
    64
  0
VERTEX
  5
477
  8
TEAM-NET
 10
-236.333638
 20
-302.703091
 30
839.354681
 70
    64
  0
VERTEX
  5
478
  8
TEAM-NET
 10
-237.5
 20
-287.5
 30
850.0
 70
    64
  0
VERTEX
  5
479
  8
TEAM-NET
 10
237.5
 20
-287.5
 30
850.0
 70
    64
  0
VERTEX
  5
47A
  8
TEAM-NET
 10
236.333638
 20
-303.573039
 30
840.720227
 70
    64
  0
VERTEX
  5
47B
  8
TEAM-NET
 10
232.872828
 20
-319.396807
 30
831.58437
 70
    64
  0
VERTEX
  5
47C
  8
TEAM-NET
 10
227.226283
 20
-334.742264
 30
822.724666
 70
    64
  0
VERTEX
  5
47D
  8
TEAM-NET
 10
219.557022
 20
-349.415695
 30
814.252957
 70
    64
  0
VERTEX
  5
47E
  8
TEAM-NET
 10
210.061594
 20
-363.265961
 30
806.256502
 70
    64
  0
VERTEX
  5
47F
  8
TEAM-NET
 10
198.950185
 20
-376.184308
 30
798.798091
 70
    64
  0
VERTEX
  5
480
  8
TEAM-NET
 10
186.431113
 20
-388.099109
 30
791.919077
 70
    64
  0
VERTEX
  5
481
  8
TEAM-NET
 10
172.700775
 20
-398.968314
 30
785.643739
 70
    64
  0
VERTEX
  5
482
  8
TEAM-NET
 10
157.93843
 20
-408.771681
 30
779.983762
 70
    64
  0
VERTEX
  5
483
  8
TEAM-NET
 10
142.304491
 20
-417.503956
 30
774.942181
 70
    64
  0
VERTEX
  5
484
  8
TEAM-NET
 10
125.941043
 20
-425.169425
 30
770.516521
 70
    64
  0
VERTEX
  5
485
  8
TEAM-NET
 10
108.973572
 20
-431.777818
 30
766.701163
 70
    64
  0
VERTEX
  5
486
  8
TEAM-NET
 10
91.513225
 20
-437.341366
 30
763.489047
 70
    64
  0
VERTEX
  5
487
  8
TEAM-NET
 10
73.659217
 20
-441.872747
 30
760.872853
 70
    64
  0
VERTEX
  5
488
  8
TEAM-NET
 10
55.50117
 20
-445.383689
 30
758.84581
 70
    64
  0
VERTEX
  5
489
  8
TEAM-NET
 10
37.121304
 20
-447.88405
 30
757.402226
 70
    64
  0
VERTEX
  5
48A
  8
TEAM-NET
 10
18.596465
 20
-449.38122
 30
756.537834
 70
    64
  0
VERTEX
  5
48B
  8
TEAM-NET
 10
0.0
 20
-449.879763
 30
756.25
 70
    64
  0
VERTEX
  5
48C
  8
TEAM-NET
 10
-18.596465
 20
-449.38122
 30
756.537834
 70
    64
  0
VERTEX
  5
48D
  8
TEAM-NET
 10
-37.121304
 20
-447.88405
 30
757.402226
 70
    64
  0
VERTEX
  5
48E
  8
TEAM-NET
 10
-55.50117
 20
-445.383689
 30
758.84581
 70
    64
  0
VERTEX
  5
48F
  8
TEAM-NET
 10
-73.659217
 20
-441.872747
 30
760.872853
 70
    64
  0
VERTEX
  5
490
  8
TEAM-NET
 10
-91.513225
 20
-437.341366
 30
763.489047
 70
    64
  0
VERTEX
  5
491
  8
TEAM-NET
 10
-108.973572
 20
-431.777818
 30
766.701163
 70
    64
  0
VERTEX
  5
492
  8
TEAM-NET
 10
-125.941043
 20
-425.169425
 30
770.516521
 70
    64
  0
VERTEX
  5
493
  8
TEAM-NET
 10
-142.304491
 20
-417.503956
 30
774.942181
 70
    64
  0
VERTEX
  5
494
  8
TEAM-NET
 10
-157.93843
 20
-408.771681
 30
779.983762
 70
    64
  0
VERTEX
  5
495
  8
TEAM-NET
 10
-172.700775
 20
-398.968314
 30
785.643739
 70
    64
  0
VERTEX
  5
496
  8
TEAM-NET
 10
-186.431113
 20
-388.099109
 30
791.919077
 70
    64
  0
VERTEX
  5
497
  8
TEAM-NET
 10
-198.950185
 20
-376.184308
 30
798.798091
 70
    64
  0
VERTEX
  5
498
  8
TEAM-NET
 10
-210.061594
 20
-363.265961
 30
806.256502
 70
    64
  0
VERTEX
  5
499
  8
TEAM-NET
 10
-219.557022
 20
-349.415695
 30
814.252957
 70
    64
  0
VERTEX
  5
49A
  8
TEAM-NET
 10
-227.226283
 20
-334.742264
 30
822.724666
 70
    64
  0
VERTEX
  5
49B
  8
TEAM-NET
 10
-232.872828
 20
-319.396807
 30
831.58437
 70
    64
  0
VERTEX
  5
49C
  8
TEAM-NET
 10
-236.333638
 20
-303.573039
 30
840.720227
 70
    64
  0
VERTEX
  5
49D
  8
TEAM-NET
 10
-237.5
 20
-287.5
 30
850.0
 70
    64
  0
VERTEX
  5
49E
  8
TEAM-NET
 10
237.5
 20
-287.5
 30
850.0
 70
    64
  0
VERTEX
  5
49F
  8
TEAM-NET
 10
236.333638
 20
-304.320662
 30
842.156397
 70
    64
  0
VERTEX
  5
4A0
  8
TEAM-NET
 10
232.872828
 20
-320.880458
 30
834.434437
 70
    64
  0
VERTEX
  5
4A1
  8
TEAM-NET
 10
227.226283
 20
-336.939695
 30
826.945892
 70
    64
  0
VERTEX
  5
4A2
  8
TEAM-NET
 10
219.557022
 20
-352.295647
 30
819.785294
 70
    64
  0
VERTEX
  5
4A3
  8
TEAM-NET
 10
210.061594
 20
-366.790146
 30
813.026398
 70
    64
  0
VERTEX
  5
4A4
  8
TEAM-NET
 10
198.950185
 20
-380.309378
 30
806.722276
 70
    64
  0
VERTEX
  5
4A5
  8
TEAM-NET
 10
186.431113
 20
-392.778385
 30
800.907883
 70
    64
  0
VERTEX
  5
4A6
  8
TEAM-NET
 10
172.700775
 20
-404.153161
 30
795.603738
 70
    64
  0
VERTEX
  5
4A7
  8
TEAM-NET
 10
157.93843
 20
-414.412523
 30
790.819719
 70
    64
  0
VERTEX
  5
4A8
  8
TEAM-NET
 10
142.304491
 20
-423.550972
 30
786.55839
 70
    64
  0
VERTEX
  5
4A9
  8
TEAM-NET
 10
125.941043
 20
-431.572993
 30
782.81766
 70
    64
  0
VERTEX
  5
4AA
  8
TEAM-NET
 10
108.973572
 20
-438.488769
 30
779.592781
 70
    64
  0
VERTEX
  5
4AB
  8
TEAM-NET
 10
91.513225
 20
-444.311101
 30
776.877783
 70
    64
  0
VERTEX
  5
4AC
  8
TEAM-NET
 10
73.659217
 20
-449.053255
 30
774.66648
 70
    64
  0
VERTEX
  5
4AD
  8
TEAM-NET
 10
55.50117
 20
-452.727505
 30
772.953149
 70
    64
  0
VERTEX
  5
4AE
  8
TEAM-NET
 10
37.121304
 20
-455.344168
 30
771.732979
 70
    64
  0
VERTEX
  5
4AF
  8
TEAM-NET
 10
18.596465
 20
-456.910978
 30
771.002364
 70
    64
  0
VERTEX
  5
4B0
  8
TEAM-NET
 10
0.0
 20
-457.43271
 30
770.759076
 70
    64
  0
VERTEX
  5
4B1
  8
TEAM-NET
 10
-18.596465
 20
-456.910978
 30
771.002364
 70
    64
  0
VERTEX
  5
4B2
  8
TEAM-NET
 10
-37.121304
 20
-455.344168
 30
771.732979
 70
    64
  0
VERTEX
  5
4B3
  8
TEAM-NET
 10
-55.50117
 20
-452.727505
 30
772.953149
 70
    64
  0
VERTEX
  5
4B4
  8
TEAM-NET
 10
-73.659217
 20
-449.053255
 30
774.66648
 70
    64
  0
VERTEX
  5
4B5
  8
TEAM-NET
 10
-91.513225
 20
-444.311101
 30
776.877783
 70
    64
  0
VERTEX
  5
4B6
  8
TEAM-NET
 10
-108.973572
 20
-438.488769
 30
779.592781
 70
    64
  0
VERTEX
  5
4B7
  8
TEAM-NET
 10
-125.941043
 20
-431.572993
 30
782.81766
 70
    64
  0
VERTEX
  5
4B8
  8
TEAM-NET
 10
-142.304491
 20
-423.550972
 30
786.55839
 70
    64
  0
VERTEX
  5
4B9
  8
TEAM-NET
 10
-157.93843
 20
-414.412523
 30
790.819719
 70
    64
  0
VERTEX
  5
4BA
  8
TEAM-NET
 10
-172.700775
 20
-404.153161
 30
795.603738
 70
    64
  0
VERTEX
  5
4BB
  8
TEAM-NET
 10
-186.431113
 20
-392.778385
 30
800.907883
 70
    64
  0
VERTEX
  5
4BC
  8
TEAM-NET
 10
-198.950185
 20
-380.309378
 30
806.722276
 70
    64
  0
VERTEX
  5
4BD
  8
TEAM-NET
 10
-210.061594
 20
-366.790146
 30
813.026398
 70
    64
  0
VERTEX
  5
4BE
  8
TEAM-NET
 10
-219.557022
 20
-352.295647
 30
819.785294
 70
    64
  0
VERTEX
  5
4BF
  8
TEAM-NET
 10
-227.226283
 20
-336.939695
 30
826.945892
 70
    64
  0
VERTEX
  5
4C0
  8
TEAM-NET
 10
-232.872828
 20
-320.880458
 30
834.434437
 70
    64
  0
VERTEX
  5
4C1
  8
TEAM-NET
 10
-236.333638
 20
-304.320662
 30
842.156397
 70
    64
  0
VERTEX
  5
4C2
  8
TEAM-NET
 10
-237.5
 20
-287.5
 30
850.0
 70
    64
  0
VERTEX
  5
4C3
  8
TEAM-NET
 10
237.5
 20
-287.5
 30
850.0
 70
    64
  0
VERTEX
  5
4C4
  8
TEAM-NET
 10
236.333638
 20
-304.940269
 30
843.652261
 70
    64
  0
VERTEX
  5
4C5
  8
TEAM-NET
 10
232.872828
 20
-322.110063
 30
837.402967
 70
    64
  0
VERTEX
  5
4C6
  8
TEAM-NET
 10
227.226283
 20
-338.76086
 30
831.342573
 70
    64
  0
VERTEX
  5
4C7
  8
TEAM-NET
 10
219.557022
 20
-354.682465
 30
825.547582
 70
    64
  0
VERTEX
  5
4C8
  8
TEAM-NET
 10
210.061594
 20
-369.710885
 30
820.077685
 70
    64
  0
VERTEX
  5
4C9
  8
TEAM-NET
 10
198.950185
 20
-383.728112
 30
814.975832
 70
    64
  0
VERTEX
  5
4CA
  8
TEAM-NET
 10
186.431113
 20
-396.656429
 30
810.270309
 70
    64
  0
VERTEX
  5
4CB
  8
TEAM-NET
 10
172.700775
 20
-408.450207
 30
805.977725
 70
    64
  0
VERTEX
  5
4CC
  8
TEAM-NET
 10
157.93843
 20
-419.087484
 30
802.106073
 70
    64
  0
VERTEX
  5
4CD
  8
TEAM-NET
 10
142.304491
 20
-428.562557
 30
798.657428
 70
    64
  0
VERTEX
  5
4CE
  8
TEAM-NET
 10
125.941043
 20
-436.880078
 30
795.630098
 70
    64
  0
VERTEX
  5
4CF
  8
TEAM-NET
 10
108.973572
 20
-444.050605
 30
793.02024
 70
    64
  0
VERTEX
  5
4D0
  8
TEAM-NET
 10
91.513225
 20
-450.087409
 30
790.823023
 70
    64
  0
VERTEX
  5
4D1
  8
TEAM-NET
 10
73.659217
 20
-455.004245
 30
789.033441
 70
    64
  0
VERTEX
  5
4D2
  8
TEAM-NET
 10
55.50117
 20
-458.81384
 30
787.646862
 70
    64
  0
VERTEX
  5
4D3
  8
TEAM-NET
 10
37.121304
 20
-461.52689
 30
786.659392
 70
    64
  0
VERTEX
  5
4D4
  8
TEAM-NET
 10
18.596465
 20
-463.151415
 30
786.068113
 70
    64
  0
VERTEX
  5
4D5
  8
TEAM-NET
 10
0.0
 20
-463.692366
 30
785.871223
 70
    64
  0
VERTEX
  5
4D6
  8
TEAM-NET
 10
-18.596465
 20
-463.151415
 30
786.068113
 70
    64
  0
VERTEX
  5
4D7
  8
TEAM-NET
 10
-37.121304
 20
-461.52689
 30
786.659392
 70
    64
  0
VERTEX
  5
4D8
  8
TEAM-NET
 10
-55.50117
 20
-458.81384
 30
787.646862
 70
    64
  0
VERTEX
  5
4D9
  8
TEAM-NET
 10
-73.659217
 20
-455.004245
 30
789.033441
 70
    64
  0
VERTEX
  5
4DA
  8
TEAM-NET
 10
-91.513225
 20
-450.087409
 30
790.823023
 70
    64
  0
VERTEX
  5
4DB
  8
TEAM-NET
 10
-108.973572
 20
-444.050605
 30
793.02024
 70
    64
  0
VERTEX
  5
4DC
  8
TEAM-NET
 10
-125.941043
 20
-436.880078
 30
795.630098
 70
    64
  0
VERTEX
  5
4DD
  8
TEAM-NET
 10
-142.304491
 20
-428.562557
 30
798.657428
 70
    64
  0
VERTEX
  5
4DE
  8
TEAM-NET
 10
-157.93843
 20
-419.087484
 30
802.106073
 70
    64
  0
VERTEX
  5
4DF
  8
TEAM-NET
 10
-172.700775
 20
-408.450207
 30
805.977725
 70
    64
  0
VERTEX
  5
4E0
  8
TEAM-NET
 10
-186.431113
 20
-396.656429
 30
810.270309
 70
    64
  0
VERTEX
  5
4E1
  8
TEAM-NET
 10
-198.950185
 20
-383.728112
 30
814.975832
 70
    64
  0
VERTEX
  5
4E2
  8
TEAM-NET
 10
-210.061594
 20
-369.710885
 30
820.077685
 70
    64
  0
VERTEX
  5
4E3
  8
TEAM-NET
 10
-219.557022
 20
-354.682465
 30
825.547582
 70
    64
  0
VERTEX
  5
4E4
  8
TEAM-NET
 10
-227.226283
 20
-338.76086
 30
831.342573
 70
    64
  0
VERTEX
  5
4E5
  8
TEAM-NET
 10
-232.872828
 20
-322.110063
 30
837.402967
 70
    64
  0
VERTEX
  5
4E6
  8
TEAM-NET
 10
-236.333638
 20
-304.940269
 30
843.652261
 70
    64
  0
VERTEX
  5
4E7
  8
TEAM-NET
 10
-237.5
 20
-287.5
 30
850.0
 70
    64
  0
VERTEX
  5
4E8
  8
TEAM-NET
 10
237.5
 20
-287.5
 30
850.0
 70
    64
  0
VERTEX
  5
4E9
  8
TEAM-NET
 10
236.333638
 20
-305.427146
 30
845.196436
 70
    64
  0
VERTEX
  5
4EA
  8
TEAM-NET
 10
232.872828
 20
-323.076265
 30
840.467368
 70
    64
  0
VERTEX
  5
4EB
  8
TEAM-NET
 10
227.226283
 20
-340.191899
 30
835.881248
 70
    64
  0
VERTEX
  5
4EC
  8
TEAM-NET
 10
219.557022
 20
-356.557984
 30
831.495969
 70
    64
  0
VERTEX
  5
4ED
  8
TEAM-NET
 10
210.061594
 20
-372.005949
 30
827.356699
 70
    64
  0
VERTEX
  5
4EE
  8
TEAM-NET
 10
198.950185
 20
-386.414492
 30
823.495942
 70
    64
  0
VERTEX
  5
4EF
  8
TEAM-NET
 10
186.431113
 20
-399.703726
 30
819.935102
 70
    64
  0
VERTEX
  5
4F0
  8
TEAM-NET
 10
172.700775
 20
-411.826749
 30
816.686748
 70
    64
  0
VERTEX
  5
4F1
  8
TEAM-NET
 10
157.93843
 20
-422.760985
 30
813.756928
 70
    64
  0
VERTEX
  5
4F2
  8
TEAM-NET
 10
142.304491
 20
-432.500572
 30
811.147214
 70
    64
  0
VERTEX
  5
4F3
  8
TEAM-NET
 10
125.941043
 20
-441.050291
 30
808.856323
 70
    64
  0
VERTEX
  5
4F4
  8
TEAM-NET
 10
108.973572
 20
-448.420996
 30
806.881349
 70
    64
  0
VERTEX
  5
4F5
  8
TEAM-NET
 10
91.513225
 20
-454.626328
 30
805.218635
 70
    64
  0
VERTEX
  5
4F6
  8
TEAM-NET
 10
73.659217
 20
-459.680426
 30
803.864394
 70
    64
  0
VERTEX
  5
4F7
  8
TEAM-NET
 10
55.50117
 20
-463.596373
 30
802.815119
 70
    64
  0
VERTEX
  5
4F8
  8
TEAM-NET
 10
37.121304
 20
-466.385163
 30
802.067865
 70
    64
  0
VERTEX
  5
4F9
  8
TEAM-NET
 10
18.596465
 20
-468.05504
 30
801.620423
 70
    64
  0
VERTEX
  5
4FA
  8
TEAM-NET
 10
0.0
 20
-468.611092
 30
801.471429
 70
    64
  0
VERTEX
  5
4FB
  8
TEAM-NET
 10
-18.596465
 20
-468.05504
 30
801.620423
 70
    64
  0
VERTEX
  5
4FC
  8
TEAM-NET
 10
-37.121304
 20
-466.385163
 30
802.067865
 70
    64
  0
VERTEX
  5
4FD
  8
TEAM-NET
 10
-55.50117
 20
-463.596373
 30
802.815119
 70
    64
  0
VERTEX
  5
4FE
  8
TEAM-NET
 10
-73.659217
 20
-459.680426
 30
803.864394
 70
    64
  0
VERTEX
  5
4FF
  8
TEAM-NET
 10
-91.513225
 20
-454.626328
 30
805.218635
 70
    64
  0
VERTEX
  5
500
  8
TEAM-NET
 10
-108.973572
 20
-448.420996
 30
806.881349
 70
    64
  0
VERTEX
  5
501
  8
TEAM-NET
 10
-125.941043
 20
-441.050291
 30
808.856323
 70
    64
  0
VERTEX
  5
502
  8
TEAM-NET
 10
-142.304491
 20
-432.500572
 30
811.147214
 70
    64
  0
VERTEX
  5
503
  8
TEAM-NET
 10
-157.93843
 20
-422.760985
 30
813.756928
 70
    64
  0
VERTEX
  5
504
  8
TEAM-NET
 10
-172.700775
 20
-411.826749
 30
816.686748
 70
    64
  0
VERTEX
  5
505
  8
TEAM-NET
 10
-186.431113
 20
-399.703726
 30
819.935102
 70
    64
  0
VERTEX
  5
506
  8
TEAM-NET
 10
-198.950185
 20
-386.414492
 30
823.495942
 70
    64
  0
VERTEX
  5
507
  8
TEAM-NET
 10
-210.061594
 20
-372.005949
 30
827.356699
 70
    64
  0
VERTEX
  5
508
  8
TEAM-NET
 10
-219.557022
 20
-356.557984
 30
831.495969
 70
    64
  0
VERTEX
  5
509
  8
TEAM-NET
 10
-227.226283
 20
-340.191899
 30
835.881248
 70
    64
  0
VERTEX
  5
50A
  8
TEAM-NET
 10
-232.872828
 20
-323.076265
 30
840.467368
 70
    64
  0
VERTEX
  5
50B
  8
TEAM-NET
 10
-236.333638
 20
-305.427146
 30
845.196436
 70
    64
  0
VERTEX
  5
50C
  8
TEAM-NET
 10
-237.5
 20
-287.5
 30
850.0
 70
    64
  0
VERTEX
  5
50D
  8
TEAM-NET
 10
237.5
 20
-287.5
 30
850.0
 70
    64
  0
VERTEX
  5
50E
  8
TEAM-NET
 10
236.333638
 20
-305.777586
 30
846.777169
 70
    64
  0
VERTEX
  5
50F
  8
TEAM-NET
 10
232.872828
 20
-323.771711
 30
843.604319
 70
    64
  0
VERTEX
  5
510
  8
TEAM-NET
 10
227.226283
 20
-341.22192
 30
840.527376
 70
    64
  0
VERTEX
  5
511
  8
TEAM-NET
 10
219.557022
 20
-357.90793
 30
837.585182
 70
    64
  0
VERTEX
  5
512
  8
TEAM-NET
 10
210.061594
 20
-373.657872
 30
834.808043
 70
    64
  0
VERTEX
  5
513
  8
TEAM-NET
 10
198.950185
 20
-388.348074
 30
832.217764
 70
    64
  0
VERTEX
  5
514
  8
TEAM-NET
 10
186.431113
 20
-401.897086
 30
829.828707
 70
    64
  0
VERTEX
  5
515
  8
TEAM-NET
 10
172.700775
 20
-414.25709
 30
827.649305
 70
    64
  0
VERTEX
  5
516
  8
TEAM-NET
 10
157.93843
 20
-425.405068
 30
825.683616
 70
    64
  0
VERTEX
  5
517
  8
TEAM-NET
 10
142.304491
 20
-435.335044
 30
823.932693
 70
    64
  0
VERTEX
  5
518
  8
TEAM-NET
 10
125.941043
 20
-444.051894
 30
822.395677
 70
    64
  0
VERTEX
  5
519
  8
TEAM-NET
 10
108.973572
 20
-451.566681
 30
821.070617
 70
    64
  0
VERTEX
  5
51A
  8
TEAM-NET
 10
91.513225
 20
-457.893315
 30
819.955061
 70
    64
  0
VERTEX
  5
51B
  8
TEAM-NET
 10
73.659217
 20
-463.046211
 30
819.046467
 70
    64
  0
VERTEX
  5
51C
  8
TEAM-NET
 10
55.50117
 20
-467.038707
 30
818.342482
 70
    64
  0
VERTEX
  5
51D
  8
TEAM-NET
 10
37.121304
 20
-469.882012
 30
817.84113
 70
    64
  0
VERTEX
  5
51E
  8
TEAM-NET
 10
18.596465
 20
-471.584531
 30
817.54093
 70
    64
  0
VERTEX
  5
51F
  8
TEAM-NET
 10
0.0
 20
-472.151454
 30
817.440967
 70
    64
  0
VERTEX
  5
520
  8
TEAM-NET
 10
-18.596465
 20
-471.584531
 30
817.54093
 70
    64
  0
VERTEX
  5
521
  8
TEAM-NET
 10
-37.121304
 20
-469.882012
 30
817.84113
 70
    64
  0
VERTEX
  5
522
  8
TEAM-NET
 10
-55.50117
 20
-467.038707
 30
818.342482
 70
    64
  0
VERTEX
  5
523
  8
TEAM-NET
 10
-73.659217
 20
-463.046211
 30
819.046467
 70
    64
  0
VERTEX
  5
524
  8
TEAM-NET
 10
-91.513225
 20
-457.893315
 30
819.955061
 70
    64
  0
VERTEX
  5
525
  8
TEAM-NET
 10
-108.973572
 20
-451.566681
 30
821.070617
 70
    64
  0
VERTEX
  5
526
  8
TEAM-NET
 10
-125.941043
 20
-444.051894
 30
822.395677
 70
    64
  0
VERTEX
  5
527
  8
TEAM-NET
 10
-142.304491
 20
-435.335044
 30
823.932693
 70
    64
  0
VERTEX
  5
528
  8
TEAM-NET
 10
-157.93843
 20
-425.405068
 30
825.683616
 70
    64
  0
VERTEX
  5
529
  8
TEAM-NET
 10
-172.700775
 20
-414.25709
 30
827.649305
 70
    64
  0
VERTEX
  5
52A
  8
TEAM-NET
 10
-186.431113
 20
-401.897086
 30
829.828707
 70
    64
  0
VERTEX
  5
52B
  8
TEAM-NET
 10
-198.950185
 20
-388.348074
 30
832.217764
 70
    64
  0
VERTEX
  5
52C
  8
TEAM-NET
 10
-210.061594
 20
-373.657872
 30
834.808043
 70
    64
  0
VERTEX
  5
52D
  8
TEAM-NET
 10
-219.557022
 20
-357.90793
 30
837.585182
 70
    64
  0
VERTEX
  5
52E
  8
TEAM-NET
 10
-227.226283
 20
-341.22192
 30
840.527376
 70
    64
  0
VERTEX
  5
52F
  8
TEAM-NET
 10
-232.872828
 20
-323.771711
 30
843.604319
 70
    64
  0
VERTEX
  5
530
  8
TEAM-NET
 10
-236.333638
 20
-305.777586
 30
846.777169
 70
    64
  0
VERTEX
  5
531
  8
TEAM-NET
 10
-237.5
 20
-287.5
 30
850.0
 70
    64
  0
VERTEX
  5
532
  8
TEAM-NET
 10
237.5
 20
-287.5
 30
850.0
 70
    64
  0
VERTEX
  5
533
  8
TEAM-NET
 10
236.333638
 20
-305.988922
 30
848.382429
 70
    64
  0
VERTEX
  5
534
  8
TEAM-NET
 10
232.872828
 20
-324.191106
 30
846.789944
 70
    64
  0
VERTEX
  5
535
  8
TEAM-NET
 10
227.226283
 20
-341.843086
 30
845.245596
 70
    64
  0
VERTEX
  5
536
  8
TEAM-NET
 10
219.557022
 20
-358.72203
 30
843.76888
 70
    64
  0
VERTEX
  5
537
  8
TEAM-NET
 10
210.061594
 20
-374.654082
 30
842.375006
 70
    64
  0
VERTEX
  5
538
  8
TEAM-NET
 10
198.950185
 20
-389.51414
 30
841.074919
 70
    64
  0
VERTEX
  5
539
  8
TEAM-NET
 10
186.431113
 20
-403.219814
 30
839.875828
 70
    64
  0
VERTEX
  5
53A
  8
TEAM-NET
 10
172.700775
 20
-415.722732
 30
838.781965
 70
    64
  0
VERTEX
  5
53B
  8
TEAM-NET
 10
157.93843
 20
-426.99961
 30
837.795366
 70
    64
  0
VERTEX
  5
53C
  8
TEAM-NET
 10
142.304491
 20
-437.044403
 30
836.91656
 70
    64
  0
VERTEX
  5
53D
  8
TEAM-NET
 10
125.941043
 20
-445.862042
 30
836.145117
 70
    64
  0
VERTEX
  5
53E
  8
TEAM-NET
 10
108.973572
 20
-453.46372
 30
835.480056
 70
    64
  0
VERTEX
  5
53F
  8
TEAM-NET
 10
91.513225
 20
-459.863506
 30
834.920147
 70
    64
  0
VERTEX
  5
540
  8
TEAM-NET
 10
73.659217
 20
-465.075983
 30
834.464115
 70
    64
  0
VERTEX
  5
541
  8
TEAM-NET
 10
55.50117
 20
-469.114642
 30
834.110778
 70
    64
  0
VERTEX
  5
542
  8
TEAM-NET
 10
37.121304
 20
-471.990824
 30
833.859144
 70
    64
  0
VERTEX
  5
543
  8
TEAM-NET
 10
18.596465
 20
-473.713029
 30
833.708471
 70
    64
  0
VERTEX
  5
544
  8
TEAM-NET
 10
0.0
 20
-474.286506
 30
833.658298
 70
    64
  0
VERTEX
  5
545
  8
TEAM-NET
 10
-18.596465
 20
-473.713029
 30
833.708471
 70
    64
  0
VERTEX
  5
546
  8
TEAM-NET
 10
-37.121304
 20
-471.990824
 30
833.859144
 70
    64
  0
VERTEX
  5
547
  8
TEAM-NET
 10
-55.50117
 20
-469.114642
 30
834.110778
 70
    64
  0
VERTEX
  5
548
  8
TEAM-NET
 10
-73.659217
 20
-465.075983
 30
834.464115
 70
    64
  0
VERTEX
  5
549
  8
TEAM-NET
 10
-91.513225
 20
-459.863506
 30
834.920147
 70
    64
  0
VERTEX
  5
54A
  8
TEAM-NET
 10
-108.973572
 20
-453.46372
 30
835.480056
 70
    64
  0
VERTEX
  5
54B
  8
TEAM-NET
 10
-125.941043
 20
-445.862042
 30
836.145117
 70
    64
  0
VERTEX
  5
54C
  8
TEAM-NET
 10
-142.304491
 20
-437.044403
 30
836.91656
 70
    64
  0
VERTEX
  5
54D
  8
TEAM-NET
 10
-157.93843
 20
-426.99961
 30
837.795366
 70
    64
  0
VERTEX
  5
54E
  8
TEAM-NET
 10
-172.700775
 20
-415.722732
 30
838.781965
 70
    64
  0
VERTEX
  5
54F
  8
TEAM-NET
 10
-186.431113
 20
-403.219814
 30
839.875828
 70
    64
  0
VERTEX
  5
550
  8
TEAM-NET
 10
-198.950185
 20
-389.51414
 30
841.074919
 70
    64
  0
VERTEX
  5
551
  8
TEAM-NET
 10
-210.061594
 20
-374.654082
 30
842.375006
 70
    64
  0
VERTEX
  5
552
  8
TEAM-NET
 10
-219.557022
 20
-358.72203
 30
843.76888
 70
    64
  0
VERTEX
  5
553
  8
TEAM-NET
 10
-227.226283
 20
-341.843086
 30
845.245596
 70
    64
  0
VERTEX
  5
554
  8
TEAM-NET
 10
-232.872828
 20
-324.191106
 30
846.789944
 70
    64
  0
VERTEX
  5
555
  8
TEAM-NET
 10
-236.333638
 20
-305.988922
 30
848.382429
 70
    64
  0
VERTEX
  5
556
  8
TEAM-NET
 10
-237.5
 20
-287.5
 30
850.0
 70
    64
  0
VERTEX
  5
557
  8
TEAM-NET
 10
237.5
 20
-287.5
 30
850.0
 70
    64
  0
VERTEX
  5
558
  8
TEAM-NET
 10
236.333638
 20
-306.059547
 30
850.0
 70
    64
  0
VERTEX
  5
559
  8
TEAM-NET
 10
232.872828
 20
-324.33126
 30
850.0
 70
    64
  0
VERTEX
  5
55A
  8
TEAM-NET
 10
227.226283
 20
-342.050667
 30
850.0
 70
    64
  0
VERTEX
  5
55B
  8
TEAM-NET
 10
219.557022
 20
-358.994086
 30
850.0
 70
    64
  0
VERTEX
  5
55C
  8
TEAM-NET
 10
210.061594
 20
-374.986996
 30
850.0
 70
    64
  0
VERTEX
  5
55D
  8
TEAM-NET
 10
198.950185
 20
-389.903818
 30
850.0
 70
    64
  0
VERTEX
  5
55E
  8
TEAM-NET
 10
186.431113
 20
-403.661845
 30
850.0
 70
    64
  0
VERTEX
  5
55F
  8
TEAM-NET
 10
172.700775
 20
-416.212522
 30
850.0
 70
    64
  0
VERTEX
  5
560
  8
TEAM-NET
 10
157.93843
 20
-427.532475
 30
850.0
 70
    64
  0
VERTEX
  5
561
  8
TEAM-NET
 10
142.304491
 20
-437.615638
 30
850.0
 70
    64
  0
VERTEX
  5
562
  8
TEAM-NET
 10
125.941043
 20
-446.466959
 30
850.0
 70
    64
  0
VERTEX
  5
563
  8
TEAM-NET
 10
108.973572
 20
-454.097674
 30
850.0
 70
    64
  0
VERTEX
  5
564
  8
TEAM-NET
 10
91.513225
 20
-460.521906
 30
850.0
 70
    64
  0
VERTEX
  5
565
  8
TEAM-NET
 10
73.659217
 20
-465.754294
 30
850.0
 70
    64
  0
VERTEX
  5
566
  8
TEAM-NET
 10
55.50117
 20
-469.808381
 30
850.0
 70
    64
  0
VERTEX
  5
567
  8
TEAM-NET
 10
37.121304
 20
-472.695549
 30
850.0
 70
    64
  0
VERTEX
  5
568
  8
TEAM-NET
 10
18.596465
 20
-474.424332
 30
850.0
 70
    64
  0
VERTEX
  5
569
  8
TEAM-NET
 10
0.0
 20
-475.0
 30
850.0
 70
    64
  0
VERTEX
  5
56A
  8
TEAM-NET
 10
-18.596465
 20
-474.424332
 30
850.0
 70
    64
  0
VERTEX
  5
56B
  8
TEAM-NET
 10
-37.121304
 20
-472.695549
 30
850.0
 70
    64
  0
VERTEX
  5
56C
  8
TEAM-NET
 10
-55.50117
 20
-469.808381
 30
850.0
 70
    64
  0
VERTEX
  5
56D
  8
TEAM-NET
 10
-73.659217
 20
-465.754294
 30
850.0
 70
    64
  0
VERTEX
  5
56E
  8
TEAM-NET
 10
-91.513225
 20
-460.521906
 30
850.0
 70
    64
  0
VERTEX
  5
56F
  8
TEAM-NET
 10
-108.973572
 20
-454.097674
 30
850.0
 70
    64
  0
VERTEX
  5
570
  8
TEAM-NET
 10
-125.941043
 20
-446.466959
 30
850.0
 70
    64
  0
VERTEX
  5
571
  8
TEAM-NET
 10
-142.304491
 20
-437.615638
 30
850.0
 70
    64
  0
VERTEX
  5
572
  8
TEAM-NET
 10
-157.93843
 20
-427.532475
 30
850.0
 70
    64
  0
VERTEX
  5
573
  8
TEAM-NET
 10
-172.700775
 20
-416.212522
 30
850.0
 70
    64
  0
VERTEX
  5
574
  8
TEAM-NET
 10
-186.431113
 20
-403.661845
 30
850.0
 70
    64
  0
VERTEX
  5
575
  8
TEAM-NET
 10
-198.950185
 20
-389.903818
 30
850.0
 70
    64
  0
VERTEX
  5
576
  8
TEAM-NET
 10
-210.061594
 20
-374.986996
 30
850.0
 70
    64
  0
VERTEX
  5
577
  8
TEAM-NET
 10
-219.557022
 20
-358.994086
 30
850.0
 70
    64
  0
VERTEX
  5
578
  8
TEAM-NET
 10
-227.226283
 20
-342.050667
 30
850.0
 70
    64
  0
VERTEX
  5
579
  8
TEAM-NET
 10
-232.872828
 20
-324.33126
 30
850.0
 70
    64
  0
VERTEX
  5
57A
  8
TEAM-NET
 10
-236.333638
 20
-306.059547
 30
850.0
 70
    64
  0
VERTEX
  5
57B
  8
TEAM-NET
 10
-237.5
 20
-287.5
 30
850.0
 70
    64
  0
SEQEND
  5
57D
  8
TEAM-NET
  0
CIRCLE
  5
57E
  8
TEAM-DET1
 39
-15.0
 10
0.0
 20
-287.5
 30
706.0
 40
30.0
  0
CIRCLE
  5
580
  8
TEAM-KAN
 39
-15.0
 10
0.0
 20
-287.5
 30
706.0
 40
20.0
  0
LINE
  5
582
  8
TEAM-AXE
 10
35.0
 20
-287.5
 30
706.0
 11
-35.0
 21
-287.5
 31
706.0
  0
LINE
  5
585
  8
TEAM-AXE
 10
0.0
 20
-322.5
 30
706.0
 11
0.0
 21
-252.5
 31
706.0
  0
POLYLINE
  5
586
  8
TEAM-NET
 66
     1
 10
0.0
 20
0.0
 30
0.0
 70
    16
 71
     2
 72
    37
  0
VERTEX
  5
587
  8
TEAM-NET
 10
300.0
 20
-250.0
 30
850.0
 70
    64
  0
VERTEX
  5
588
  8
TEAM-NET
 10
298.615019
 20
-273.994649
 30
850.0
 70
    64
  0
VERTEX
  5
589
  8
TEAM-NET
 10
294.494798
 20
-297.673759
 30
850.0
 70
    64
  0
VERTEX
  5
58A
  8
TEAM-NET
 10
287.739379
 20
-320.740379
 30
850.0
 70
    64
  0
VERTEX
  5
58B
  8
TEAM-NET
 10
278.502919
 20
-342.931143
 30
850.0
 70
    64
  0
VERTEX
  5
58C
  8
TEAM-NET
 10
266.978304
 20
-364.025415
 30
850.0
 70
    64
  0
VERTEX
  5
58D
  8
TEAM-NET
 10
253.380972
 20
-383.848181
 30
850.0
 70
    64
  0
VERTEX
  5
58E
  8
TEAM-NET
 10
237.93464
 20
-402.267827
 30
850.0
 70
    64
  0
VERTEX
  5
58F
  8
TEAM-NET
 10
220.860387
 20
-419.190658
 30
850.0
 70
    64
  0
VERTEX
  5
590
  8
TEAM-NET
 10
202.369387
 20
-434.55395
 30
850.0
 70
    64
  0
VERTEX
  5
591
  8
TEAM-NET
 10
182.658848
 20
-448.318881
 30
850.0
 70
    64
  0
VERTEX
  5
592
  8
TEAM-NET
 10
161.910409
 20
-460.464136
 30
850.0
 70
    64
  0
VERTEX
  5
593
  8
TEAM-NET
 10
140.29023
 20
-470.980535
 30
850.0
 70
    64
  0
VERTEX
  5
594
  8
TEAM-NET
 10
117.950139
 20
-479.866756
 30
850.0
 70
    64
  0
VERTEX
  5
595
  8
TEAM-NET
 10
95.029373
 20
-487.126048
 30
850.0
 70
    64
  0
VERTEX
  5
596
  8
TEAM-NET
 10
71.656618
 20
-492.763787
 30
850.0
 70
    64
  0
VERTEX
  5
597
  8
TEAM-NET
 10
47.95215
 20
-496.785714
 30
850.0
 70
    64
  0
VERTEX
  5
598
  8
TEAM-NET
 10
24.029985
 20
-499.196709
 30
850.0
 70
    64
  0
VERTEX
  5
599
  8
TEAM-NET
 10
0.0
 20
-500.0
 30
850.0
 70
    64
  0
VERTEX
  5
59A
  8
TEAM-NET
 10
-24.029985
 20
-499.196709
 30
850.0
 70
    64
  0
VERTEX
  5
59B
  8
TEAM-NET
 10
-47.95215
 20
-496.785714
 30
850.0
 70
    64
  0
VERTEX
  5
59C
  8
TEAM-NET
 10
-71.656618
 20
-492.763787
 30
850.0
 70
    64
  0
VERTEX
  5
59D
  8
TEAM-NET
 10
-95.029373
 20
-487.126048
 30
850.0
 70
    64
  0
VERTEX
  5
59E
  8
TEAM-NET
 10
-117.950139
 20
-479.866756
 30
850.0
 70
    64
  0
VERTEX
  5
59F
  8
TEAM-NET
 10
-140.29023
 20
-470.980535
 30
850.0
 70
    64
  0
VERTEX
  5
5A0
  8
TEAM-NET
 10
-161.910409
 20
-460.464136
 30
850.0
 70
    64
  0
VERTEX
  5
5A1
  8
TEAM-NET
 10
-182.658848
 20
-448.318881
 30
850.0
 70
    64
  0
VERTEX
  5
5A2
  8
TEAM-NET
 10
-202.369387
 20
-434.55395
 30
850.0
 70
    64
  0
VERTEX
  5
5A3
  8
TEAM-NET
 10
-220.860387
 20
-419.190658
 30
850.0
 70
    64
  0
VERTEX
  5
5A4
  8
TEAM-NET
 10
-237.93464
 20
-402.267827
 30
850.0
 70
    64
  0
VERTEX
  5
5A5
  8
TEAM-NET
 10
-253.380972
 20
-383.848181
 30
850.0
 70
    64
  0
VERTEX
  5
5A6
  8
TEAM-NET
 10
-266.978304
 20
-364.025415
 30
850.0
 70
    64
  0
VERTEX
  5
5A7
  8
TEAM-NET
 10
-278.502919
 20
-342.931143
 30
850.0
 70
    64
  0
VERTEX
  5
5A8
  8
TEAM-NET
 10
-287.739379
 20
-320.740379
 30
850.0
 70
    64
  0
VERTEX
  5
5A9
  8
TEAM-NET
 10
-294.494798
 20
-297.673759
 30
850.0
 70
    64
  0
VERTEX
  5
5AA
  8
TEAM-NET
 10
-298.615019
 20
-273.994649
 30
850.0
 70
    64
  0
VERTEX
  5
5AB
  8
TEAM-NET
 10
-300.0
 20
-250.0
 30
850.0
 70
    64
  0
VERTEX
  5
5AC
  8
TEAM-NET
 10
300.0
 20
-250.0
 30
842.0
 70
    64
  0
VERTEX
  5
5AD
  8
TEAM-NET
 10
298.615019
 20
-273.994649
 30
842.0
 70
    64
  0
VERTEX
  5
5AE
  8
TEAM-NET
 10
294.494798
 20
-297.673759
 30
842.0
 70
    64
  0
VERTEX
  5
5AF
  8
TEAM-NET
 10
287.739379
 20
-320.740379
 30
842.0
 70
    64
  0
VERTEX
  5
5B0
  8
TEAM-NET
 10
278.502919
 20
-342.931143
 30
842.0
 70
    64
  0
VERTEX
  5
5B1
  8
TEAM-NET
 10
266.978304
 20
-364.025415
 30
842.0
 70
    64
  0
VERTEX
  5
5B2
  8
TEAM-NET
 10
253.380972
 20
-383.848181
 30
842.0
 70
    64
  0
VERTEX
  5
5B3
  8
TEAM-NET
 10
237.93464
 20
-402.267827
 30
842.0
 70
    64
  0
VERTEX
  5
5B4
  8
TEAM-NET
 10
220.860387
 20
-419.190658
 30
842.0
 70
    64
  0
VERTEX
  5
5B5
  8
TEAM-NET
 10
202.369387
 20
-434.55395
 30
842.0
 70
    64
  0
VERTEX
  5
5B6
  8
TEAM-NET
 10
182.658848
 20
-448.318881
 30
842.0
 70
    64
  0
VERTEX
  5
5B7
  8
TEAM-NET
 10
161.910409
 20
-460.464136
 30
842.0
 70
    64
  0
VERTEX
  5
5B8
  8
TEAM-NET
 10
140.29023
 20
-470.980535
 30
842.0
 70
    64
  0
VERTEX
  5
5B9
  8
TEAM-NET
 10
117.950139
 20
-479.866756
 30
842.0
 70
    64
  0
VERTEX
  5
5BA
  8
TEAM-NET
 10
95.029373
 20
-487.126048
 30
842.0
 70
    64
  0
VERTEX
  5
5BB
  8
TEAM-NET
 10
71.656618
 20
-492.763787
 30
842.0
 70
    64
  0
VERTEX
  5
5BC
  8
TEAM-NET
 10
47.95215
 20
-496.785714
 30
842.0
 70
    64
  0
VERTEX
  5
5BD
  8
TEAM-NET
 10
24.029985
 20
-499.196709
 30
842.0
 70
    64
  0
VERTEX
  5
5BE
  8
TEAM-NET
 10
0.0
 20
-500.0
 30
842.0
 70
    64
  0
VERTEX
  5
5BF
  8
TEAM-NET
 10
-24.029985
 20
-499.196709
 30
842.0
 70
    64
  0
VERTEX
  5
5C0
  8
TEAM-NET
 10
-47.95215
 20
-496.785714
 30
842.0
 70
    64
  0
VERTEX
  5
5C1
  8
TEAM-NET
 10
-71.656618
 20
-492.763787
 30
842.0
 70
    64
  0
VERTEX
  5
5C2
  8
TEAM-NET
 10
-95.029373
 20
-487.126048
 30
842.0
 70
    64
  0
VERTEX
  5
5C3
  8
TEAM-NET
 10
-117.950139
 20
-479.866756
 30
842.0
 70
    64
  0
VERTEX
  5
5C4
  8
TEAM-NET
 10
-140.29023
 20
-470.980535
 30
842.0
 70
    64
  0
VERTEX
  5
5C5
  8
TEAM-NET
 10
-161.910409
 20
-460.464136
 30
842.0
 70
    64
  0
VERTEX
  5
5C6
  8
TEAM-NET
 10
-182.658848
 20
-448.318881
 30
842.0
 70
    64
  0
VERTEX
  5
5C7
  8
TEAM-NET
 10
-202.369387
 20
-434.55395
 30
842.0
 70
    64
  0
VERTEX
  5
5C8
  8
TEAM-NET
 10
-220.860387
 20
-419.190658
 30
842.0
 70
    64
  0
VERTEX
  5
5C9
  8
TEAM-NET
 10
-237.93464
 20
-402.267827
 30
842.0
 70
    64
  0
VERTEX
  5
5CA
  8
TEAM-NET
 10
-253.380972
 20
-383.848181
 30
842.0
 70
    64
  0
VERTEX
  5
5CB
  8
TEAM-NET
 10
-266.978304
 20
-364.025415
 30
842.0
 70
    64
  0
VERTEX
  5
5CC
  8
TEAM-NET
 10
-278.502919
 20
-342.931143
 30
842.0
 70
    64
  0
VERTEX
  5
5CD
  8
TEAM-NET
 10
-287.739379
 20
-320.740379
 30
842.0
 70
    64
  0
VERTEX
  5
5CE
  8
TEAM-NET
 10
-294.494798
 20
-297.673759
 30
842.0
 70
    64
  0
VERTEX
  5
5CF
  8
TEAM-NET
 10
-298.615019
 20
-273.994649
 30
842.0
 70
    64
  0
VERTEX
  5
5D0
  8
TEAM-NET
 10
-300.0
 20
-250.0
 30
842.0
 70
    64
  0
SEQEND
  5
5D1
  8
TEAM-NET
  0
POLYLINE
  5
5D2
  8
TEAM-NET
 66
     1
 10
0.0
 20
0.0
 30
0.0
 70
    16
 71
     2
 72
    37
  0
VERTEX
  5
5D3
  8
TEAM-NET
 10
300.0
 20
-250.0
 30
850.0
 70
    64
  0
VERTEX
  5
5D4
  8
TEAM-NET
 10
298.615019
 20
-226.005351
 30
850.0
 70
    64
  0
VERTEX
  5
5D5
  8
TEAM-NET
 10
294.494798
 20
-202.326241
 30
850.0
 70
    64
  0
VERTEX
  5
5D6
  8
TEAM-NET
 10
287.739379
 20
-179.259621
 30
850.0
 70
    64
  0
VERTEX
  5
5D7
  8
TEAM-NET
 10
278.502919
 20
-157.068857
 30
850.0
 70
    64
  0
VERTEX
  5
5D8
  8
TEAM-NET
 10
266.978304
 20
-135.974585
 30
850.0
 70
    64
  0
VERTEX
  5
5D9
  8
TEAM-NET
 10
253.380972
 20
-116.151819
 30
850.0
 70
    64
  0
VERTEX
  5
5DA
  8
TEAM-NET
 10
237.93464
 20
-97.732173
 30
850.0
 70
    64
  0
VERTEX
  5
5DB
  8
TEAM-NET
 10
220.860387
 20
-80.809342
 30
850.0
 70
    64
  0
VERTEX
  5
5DC
  8
TEAM-NET
 10
202.369387
 20
-65.44605
 30
850.0
 70
    64
  0
VERTEX
  5
5DD
  8
TEAM-NET
 10
182.658848
 20
-51.681119
 30
850.0
 70
    64
  0
VERTEX
  5
5DE
  8
TEAM-NET
 10
161.910409
 20
-39.535864
 30
850.0
 70
    64
  0
VERTEX
  5
5DF
  8
TEAM-NET
 10
140.29023
 20
-29.019465
 30
850.0
 70
    64
  0
VERTEX
  5
5E0
  8
TEAM-NET
 10
117.950139
 20
-20.133244
 30
850.0
 70
    64
  0
VERTEX
  5
5E1
  8
TEAM-NET
 10
95.029373
 20
-12.873952
 30
850.0
 70
    64
  0
VERTEX
  5
5E2
  8
TEAM-NET
 10
71.656618
 20
-7.236213
 30
850.0
 70
    64
  0
VERTEX
  5
5E3
  8
TEAM-NET
 10
47.95215
 20
-3.214286
 30
850.0
 70
    64
  0
VERTEX
  5
5E4
  8
TEAM-NET
 10
24.029985
 20
-0.803291
 30
850.0
 70
    64
  0
VERTEX
  5
5E5
  8
TEAM-NET
 10
0.0
 20
0.0
 30
850.0
 70
    64
  0
VERTEX
  5
5E6
  8
TEAM-NET
 10
-24.029985
 20
-0.803291
 30
850.0
 70
    64
  0
VERTEX
  5
5E7
  8
TEAM-NET
 10
-47.95215
 20
-3.214286
 30
850.0
 70
    64
  0
VERTEX
  5
5E8
  8
TEAM-NET
 10
-71.656618
 20
-7.236213
 30
850.0
 70
    64
  0
VERTEX
  5
5E9
  8
TEAM-NET
 10
-95.029373
 20
-12.873952
 30
850.0
 70
    64
  0
VERTEX
  5
5EA
  8
TEAM-NET
 10
-117.950139
 20
-20.133244
 30
850.0
 70
    64
  0
VERTEX
  5
5EB
  8
TEAM-NET
 10
-140.29023
 20
-29.019465
 30
850.0
 70
    64
  0
VERTEX
  5
5EC
  8
TEAM-NET
 10
-161.910409
 20
-39.535864
 30
850.0
 70
    64
  0
VERTEX
  5
5ED
  8
TEAM-NET
 10
-182.658848
 20
-51.681119
 30
850.0
 70
    64
  0
VERTEX
  5
5EE
  8
TEAM-NET
 10
-202.369387
 20
-65.44605
 30
850.0
 70
    64
  0
VERTEX
  5
5EF
  8
TEAM-NET
 10
-220.860387
 20
-80.809342
 30
850.0
 70
    64
  0
VERTEX
  5
5F0
  8
TEAM-NET
 10
-237.93464
 20
-97.732173
 30
850.0
 70
    64
  0
VERTEX
  5
5F1
  8
TEAM-NET
 10
-253.380972
 20
-116.151819
 30
850.0
 70
    64
  0
VERTEX
  5
5F2
  8
TEAM-NET
 10
-266.978304
 20
-135.974585
 30
850.0
 70
    64
  0
VERTEX
  5
5F3
  8
TEAM-NET
 10
-278.502919
 20
-157.068857
 30
850.0
 70
    64
  0
VERTEX
  5
5F4
  8
TEAM-NET
 10
-287.739379
 20
-179.259621
 30
850.0
 70
    64
  0
VERTEX
  5
5F5
  8
TEAM-NET
 10
-294.494798
 20
-202.326241
 30
850.0
 70
    64
  0
VERTEX
  5
5F6
  8
TEAM-NET
 10
-298.615019
 20
-226.005351
 30
850.0
 70
    64
  0
VERTEX
  5
5F7
  8
TEAM-NET
 10
-300.0
 20
-250.0
 30
850.0
 70
    64
  0
VERTEX
  5
5F8
  8
TEAM-NET
 10
300.0
 20
-250.0
 30
842.0
 70
    64
  0
VERTEX
  5
5F9
  8
TEAM-NET
 10
298.615019
 20
-226.005351
 30
842.0
 70
    64
  0
VERTEX
  5
5FA
  8
TEAM-NET
 10
294.494798
 20
-202.326241
 30
842.0
 70
    64
  0
VERTEX
  5
5FB
  8
TEAM-NET
 10
287.739379
 20
-179.259621
 30
842.0
 70
    64
  0
VERTEX
  5
5FC
  8
TEAM-NET
 10
278.502919
 20
-157.068857
 30
842.0
 70
    64
  0
VERTEX
  5
5FD
  8
TEAM-NET
 10
266.978304
 20
-135.974585
 30
842.0
 70
    64
  0
VERTEX
  5
5FE
  8
TEAM-NET
 10
253.380972
 20
-116.151819
 30
842.0
 70
    64
  0
VERTEX
  5
5FF
  8
TEAM-NET
 10
237.93464
 20
-97.732173
 30
842.0
 70
    64
  0
VERTEX
  5
600
  8
TEAM-NET
 10
220.860387
 20
-80.809342
 30
842.0
 70
    64
  0
VERTEX
  5
601
  8
TEAM-NET
 10
202.369387
 20
-65.44605
 30
842.0
 70
    64
  0
VERTEX
  5
602
  8
TEAM-NET
 10
182.658848
 20
-51.681119
 30
842.0
 70
    64
  0
VERTEX
  5
603
  8
TEAM-NET
 10
161.910409
 20
-39.535864
 30
842.0
 70
    64
  0
VERTEX
  5
604
  8
TEAM-NET
 10
140.29023
 20
-29.019465
 30
842.0
 70
    64
  0
VERTEX
  5
605
  8
TEAM-NET
 10
117.950139
 20
-20.133244
 30
842.0
 70
    64
  0
VERTEX
  5
606
  8
TEAM-NET
 10
95.029373
 20
-12.873952
 30
842.0
 70
    64
  0
VERTEX
  5
607
  8
TEAM-NET
 10
71.656618
 20
-7.236213
 30
842.0
 70
    64
  0
VERTEX
  5
608
  8
TEAM-NET
 10
47.95215
 20
-3.214286
 30
842.0
 70
    64
  0
VERTEX
  5
609
  8
TEAM-NET
 10
24.029985
 20
-0.803291
 30
842.0
 70
    64
  0
VERTEX
  5
60A
  8
TEAM-NET
 10
0.0
 20
0.0
 30
842.0
 70
    64
  0
VERTEX
  5
60B
  8
TEAM-NET
 10
-24.029985
 20
-0.803291
 30
842.0
 70
    64
  0
VERTEX
  5
60C
  8
TEAM-NET
 10
-47.95215
 20
-3.214286
 30
842.0
 70
    64
  0
VERTEX
  5
60D
  8
TEAM-NET
 10
-71.656618
 20
-7.236213
 30
842.0
 70
    64
  0
VERTEX
  5
60E
  8
TEAM-NET
 10
-95.029373
 20
-12.873952
 30
842.0
 70
    64
  0
VERTEX
  5
60F
  8
TEAM-NET
 10
-117.950139
 20
-20.133244
 30
842.0
 70
    64
  0
VERTEX
  5
610
  8
TEAM-NET
 10
-140.29023
 20
-29.019465
 30
842.0
 70
    64
  0
VERTEX
  5
611
  8
TEAM-NET
 10
-161.910409
 20
-39.535864
 30
842.0
 70
    64
  0
VERTEX
  5
612
  8
TEAM-NET
 10
-182.658848
 20
-51.681119
 30
842.0
 70
    64
  0
VERTEX
  5
613
  8
TEAM-NET
 10
-202.369387
 20
-65.44605
 30
842.0
 70
    64
  0
VERTEX
  5
614
  8
TEAM-NET
 10
-220.860387
 20
-80.809342
 30
842.0
 70
    64
  0
VERTEX
  5
615
  8
TEAM-NET
 10
-237.93464
 20
-97.732173
 30
842.0
 70
    64
  0
VERTEX
  5
616
  8
TEAM-NET
 10
-253.380972
 20
-116.151819
 30
842.0
 70
    64
  0
VERTEX
  5
617
  8
TEAM-NET
 10
-266.978304
 20
-135.974585
 30
842.0
 70
    64
  0
VERTEX
  5
618
  8
TEAM-NET
 10
-278.502919
 20
-157.068857
 30
842.0
 70
    64
  0
VERTEX
  5
619
  8
TEAM-NET
 10
-287.739379
 20
-179.259621
 30
842.0
 70
    64
  0
VERTEX
  5
61A
  8
TEAM-NET
 10
-294.494798
 20
-202.326241
 30
842.0
 70
    64
  0
VERTEX
  5
61B
  8
TEAM-NET
 10
-298.615019
 20
-226.005351
 30
842.0
 70
    64
  0
VERTEX
  5
61C
  8
TEAM-NET
 10
-300.0
 20
-250.0
 30
842.0
 70
    64
  0
SEQEND
  5
61D
  8
TEAM-NET
  0
LINE
  5
61E
  8
TEAM-AXE
 10
0.0
 20
-114.647341
 30
820.0
 11
0.0
 21
-103.700064
 31
820.0
  0
LINE
  5
61F
  8
TEAM-AXE
 10
20.0
 20
-109.173702
 30
820.0
 11
-20.0
 21
-109.173702
 31
820.0
  0
POLYLINE
  5
620
  8
TEAM-DET1
 66
     1
 10
0.0
 20
0.0
 30
820.0
 70
   129
  0
VERTEX
  5
7FF
  8
TEAM-DET1
 10
-20.0
 20
-109.173702
 30
820.0
  0
VERTEX
  5
800
  8
TEAM-DET1
 10
-19.638574
 20
-110.209595
 30
820.0
  0
VERTEX
  5
801
  8
TEAM-DET1
 10
-18.567359
 20
-111.208048
 30
820.0
  0
VERTEX
  5
802
  8
TEAM-DET1
 10
-16.825071
 20
-112.132975
 30
820.0
  0
VERTEX
  5
803
  8
TEAM-DET1
 10
-14.474681
 20
-112.950945
 30
820.0
  0
VERTEX
  5
804
  8
TEAM-DET1
 10
-11.601138
 20
-113.632396
 30
820.0
  0
VERTEX
  5
805
  8
TEAM-DET1
 10
-8.3083
 20
-114.152699
 30
820.0
  0
VERTEX
  5
806
  8
TEAM-DET1
 10
-4.715179
 20
-114.493047
 30
820.0
  0
VERTEX
  5
807
  8
TEAM-DET1
 10
-0.951638
 20
-114.641141
 30
820.0
  0
VERTEX
  5
808
  8
TEAM-DET1
 10
2.846297
 20
-114.591627
 30
820.0
  0
VERTEX
  5
809
  8
TEAM-DET1
 10
6.541359
 20
-114.346295
 30
820.0
  0
VERTEX
  5
80A
  8
TEAM-DET1
 10
10.0
 20
-113.914012
 30
820.0
  0
VERTEX
  5
80B
  8
TEAM-DET1
 10
13.097215
 20
-113.310402
 30
820.0
  0
VERTEX
  5
80C
  8
TEAM-DET1
 10
15.721062
 20
-112.557281
 30
820.0
  0
VERTEX
  5
80D
  8
TEAM-DET1
 10
17.776709
 20
-111.681868
 30
820.0
  0
VERTEX
  5
80E
  8
TEAM-DET1
 10
19.189859
 20
-110.715804
 30
820.0
  0
VERTEX
  5
80F
  8
TEAM-DET1
 10
19.909438
 20
-109.694005
 30
820.0
  0
VERTEX
  5
810
  8
TEAM-DET1
 10
19.909438
 20
-108.6534
 30
820.0
  0
VERTEX
  5
811
  8
TEAM-DET1
 10
19.189859
 20
-107.6316
 30
820.0
  0
VERTEX
  5
812
  8
TEAM-DET1
 10
17.776709
 20
-106.665536
 30
820.0
  0
VERTEX
  5
813
  8
TEAM-DET1
 10
15.721062
 20
-105.790124
 30
820.0
  0
VERTEX
  5
814
  8
TEAM-DET1
 10
13.097215
 20
-105.037002
 30
820.0
  0
VERTEX
  5
815
  8
TEAM-DET1
 10
10.0
 20
-104.433392
 30
820.0
  0
VERTEX
  5
816
  8
TEAM-DET1
 10
6.541359
 20
-104.00111
 30
820.0
  0
VERTEX
  5
817
  8
TEAM-DET1
 10
2.846297
 20
-103.755778
 30
820.0
  0
VERTEX
  5
818
  8
TEAM-DET1
 10
-0.951638
 20
-103.706264
 30
820.0
  0
VERTEX
  5
819
  8
TEAM-DET1
 10
-4.715179
 20
-103.854357
 30
820.0
  0
VERTEX
  5
81A
  8
TEAM-DET1
 10
-8.3083
 20
-104.194706
 30
820.0
  0
VERTEX
  5
81B
  8
TEAM-DET1
 10
-11.601138
 20
-104.715008
 30
820.0
  0
VERTEX
  5
81C
  8
TEAM-DET1
 10
-14.474681
 20
-105.396459
 30
820.0
  0
VERTEX
  5
81D
  8
TEAM-DET1
 10
-16.825071
 20
-106.21443
 30
820.0
  0
VERTEX
  5
81E
  8
TEAM-DET1
 10
-18.567359
 20
-107.139356
 30
820.0
  0
VERTEX
  5
81F
  8
TEAM-DET1
 10
-19.638574
 20
-108.137809
 30
820.0
  0
SEQEND
  5
820
  8
TEAM-DET1
  0
POLYLINE
  5
621
  8
TEAM-BODY
 66
     1
 10
0.0
 20
0.0
 30
842.0
 70
   128
  0
VERTEX
  5
821
  8
TEAM-BODY
 10
300.0
 20
-250.0
 30
842.0
  0
VERTEX
  5
822
  8
TEAM-BODY
 10
298.919247
 20
-228.798519
 30
842.0
  0
VERTEX
  5
823
  8
TEAM-BODY
 10
295.684773
 20
-207.749795
 30
842.0
  0
VERTEX
  5
824
  8
TEAM-BODY
 10
290.319884
 20
-187.005485
 30
842.0
  0
VERTEX
  5
825
  8
TEAM-BODY
 10
282.863234
 20
-166.715051
 30
842.0
  0
VERTEX
  5
826
  8
TEAM-BODY
 10
273.368547
 20
-147.024688
 30
842.0
  0
VERTEX
  5
827
  8
TEAM-BODY
 10
261.904234
 20
-128.076264
 30
842.0
  0
VERTEX
  5
828
  8
TEAM-BODY
 10
248.552895
 20
-110.006303
 30
842.0
  0
VERTEX
  5
829
  8
TEAM-BODY
 10
233.410726
 20
-92.945001
 30
842.0
  0
VERTEX
  5
82A
  8
TEAM-BODY
 10
216.586828
 20
-77.015283
 30
842.0
  0
VERTEX
  5
82B
  8
TEAM-BODY
 10
198.202417
 20
-62.331924
 30
842.0
  0
VERTEX
  5
82C
  8
TEAM-BODY
 10
178.389953
 20
-49.000717
 30
842.0
  0
VERTEX
  5
82D
  8
TEAM-BODY
 10
157.292185
 20
-37.117716
 30
842.0
  0
VERTEX
  5
82E
  8
TEAM-BODY
 10
135.061123
 20
-26.768535
 30
842.0
  0
VERTEX
  5
82F
  8
TEAM-BODY
 10
111.856943
 20
-18.027743
 30
842.0
  0
VERTEX
  5
830
  8
TEAM-BODY
 10
87.846831
 20
-10.958316
 30
842.0
  0
VERTEX
  5
831
  8
TEAM-BODY
 10
63.203781
 20
-5.61119
 30
842.0
  0
VERTEX
  5
832
  8
TEAM-BODY
 10
38.105346
 20
-2.024891
 30
842.0
  0
VERTEX
  5
833
  8
TEAM-BODY
 10
12.732361
 20
-0.225258
 30
842.0
  0
VERTEX
  5
834
  8
TEAM-BODY
 10
-12.732361
 20
-0.225258
 30
842.0
  0
VERTEX
  5
835
  8
TEAM-BODY
 10
-38.105346
 20
-2.024891
 30
842.0
  0
VERTEX
  5
836
  8
TEAM-BODY
 10
-63.203781
 20
-5.61119
 30
842.0
  0
VERTEX
  5
837
  8
TEAM-BODY
 10
-87.846831
 20
-10.958316
 30
842.0
  0
VERTEX
  5
838
  8
TEAM-BODY
 10
-111.856943
 20
-18.027743
 30
842.0
  0
VERTEX
  5
839
  8
TEAM-BODY
 10
-135.061123
 20
-26.768535
 30
842.0
  0
VERTEX
  5
83A
  8
TEAM-BODY
 10
-157.292185
 20
-37.117716
 30
842.0
  0
VERTEX
  5
83B
  8
TEAM-BODY
 10
-178.389953
 20
-49.000717
 30
842.0
  0
VERTEX
  5
83C
  8
TEAM-BODY
 10
-198.202417
 20
-62.331924
 30
842.0
  0
VERTEX
  5
83D
  8
TEAM-BODY
 10
-216.586828
 20
-77.015283
 30
842.0
  0
VERTEX
  5
83E
  8
TEAM-BODY
 10
-233.410726
 20
-92.945001
 30
842.0
  0
VERTEX
  5
83F
  8
TEAM-BODY
 10
-248.552895
 20
-110.006303
 30
842.0
  0
VERTEX
  5
840
  8
TEAM-BODY
 10
-261.904234
 20
-128.076264
 30
842.0
  0
VERTEX
  5
841
  8
TEAM-BODY
 10
-273.368547
 20
-147.024688
 30
842.0
  0
VERTEX
  5
842
  8
TEAM-BODY
 10
-282.863234
 20
-166.715051
 30
842.0
  0
VERTEX
  5
843
  8
TEAM-BODY
 10
-290.319884
 20
-187.005485
 30
842.0
  0
VERTEX
  5
844
  8
TEAM-BODY
 10
-295.684773
 20
-207.749795
 30
842.0
  0
VERTEX
  5
845
  8
TEAM-BODY
 10
-298.919247
 20
-228.798519
 30
842.0
  0
VERTEX
  5
846
  8
TEAM-BODY
 10
-300.0
 20
-250.0
 30
842.0
  0
SEQEND
  5
847
  8
TEAM-BODY
  0
POLYLINE
  5
623
  8
TEAM-BODY
 66
     1
 10
0.0
 20
0.0
 30
-842.0
 70
   128
210
0.0
220
0.0
230
-1.0
  0
VERTEX
  5
848
  8
TEAM-BODY
 10
-300.0
 20
-250.0
 30
-842.0
  0
VERTEX
  5
849
  8
TEAM-BODY
 10
-298.919247
 20
-271.201481
 30
-842.0
  0
VERTEX
  5
84A
  8
TEAM-BODY
 10
-295.684773
 20
-292.250205
 30
-842.0
  0
VERTEX
  5
84B
  8
TEAM-BODY
 10
-290.319884
 20
-312.994515
 30
-842.0
  0
VERTEX
  5
84C
  8
TEAM-BODY
 10
-282.863234
 20
-333.284949
 30
-842.0
  0
VERTEX
  5
84D
  8
TEAM-BODY
 10
-273.368547
 20
-352.975312
 30
-842.0
  0
VERTEX
  5
84E
  8
TEAM-BODY
 10
-261.904234
 20
-371.923736
 30
-842.0
  0
VERTEX
  5
84F
  8
TEAM-BODY
 10
-248.552895
 20
-389.993697
 30
-842.0
  0
VERTEX
  5
850
  8
TEAM-BODY
 10
-233.410726
 20
-407.054999
 30
-842.0
  0
VERTEX
  5
851
  8
TEAM-BODY
 10
-216.586828
 20
-422.984717
 30
-842.0
  0
VERTEX
  5
852
  8
TEAM-BODY
 10
-198.202417
 20
-437.668076
 30
-842.0
  0
VERTEX
  5
853
  8
TEAM-BODY
 10
-178.389953
 20
-450.999283
 30
-842.0
  0
VERTEX
  5
854
  8
TEAM-BODY
 10
-157.292185
 20
-462.882284
 30
-842.0
  0
VERTEX
  5
855
  8
TEAM-BODY
 10
-135.061123
 20
-473.231465
 30
-842.0
  0
VERTEX
  5
856
  8
TEAM-BODY
 10
-111.856943
 20
-481.972257
 30
-842.0
  0
VERTEX
  5
857
  8
TEAM-BODY
 10
-87.846831
 20
-489.041684
 30
-842.0
  0
VERTEX
  5
858
  8
TEAM-BODY
 10
-63.203781
 20
-494.38881
 30
-842.0
  0
VERTEX
  5
859
  8
TEAM-BODY
 10
-38.105346
 20
-497.975109
 30
-842.0
  0
VERTEX
  5
85A
  8
TEAM-BODY
 10
-12.732361
 20
-499.774742
 30
-842.0
  0
VERTEX
  5
85B
  8
TEAM-BODY
 10
12.732361
 20
-499.774742
 30
-842.0
  0
VERTEX
  5
85C
  8
TEAM-BODY
 10
38.105346
 20
-497.975109
 30
-842.0
  0
VERTEX
  5
85D
  8
TEAM-BODY
 10
63.203781
 20
-494.38881
 30
-842.0
  0
VERTEX
  5
85E
  8
TEAM-BODY
 10
87.846831
 20
-489.041684
 30
-842.0
  0
VERTEX
  5
85F
  8
TEAM-BODY
 10
111.856943
 20
-481.972257
 30
-842.0
  0
VERTEX
  5
860
  8
TEAM-BODY
 10
135.061123
 20
-473.231465
 30
-842.0
  0
VERTEX
  5
861
  8
TEAM-BODY
 10
157.292185
 20
-462.882284
 30
-842.0
  0
VERTEX
  5
862
  8
TEAM-BODY
 10
178.389953
 20
-450.999283
 30
-842.0
  0
VERTEX
  5
863
  8
TEAM-BODY
 10
198.202417
 20
-437.668076
 30
-842.0
  0
VERTEX
  5
864
  8
TEAM-BODY
 10
216.586828
 20
-422.984717
 30
-842.0
  0
VERTEX
  5
865
  8
TEAM-BODY
 10
233.410726
 20
-407.054999
 30
-842.0
  0
VERTEX
  5
866
  8
TEAM-BODY
 10
248.552895
 20
-389.993697
 30
-842.0
  0
VERTEX
  5
867
  8
TEAM-BODY
 10
261.904234
 20
-371.923736
 30
-842.0
  0
VERTEX
  5
868
  8
TEAM-BODY
 10
273.368547
 20
-352.975312
 30
-842.0
  0
VERTEX
  5
869
  8
TEAM-BODY
 10
282.863234
 20
-333.284949
 30
-842.0
  0
VERTEX
  5
86A
  8
TEAM-BODY
 10
290.319884
 20
-312.994515
 30
-842.0
  0
VERTEX
  5
86B
  8
TEAM-BODY
 10
295.684773
 20
-292.250205
 30
-842.0
  0
VERTEX
  5
86C
  8
TEAM-BODY
 10
298.919247
 20
-271.201481
 30
-842.0
  0
VERTEX
  5
86D
  8
TEAM-BODY
 10
300.0
 20
-250.0
 30
-842.0
  0
SEQEND
  5
86E
  8
TEAM-BODY
  0
POLYLINE
  5
624
  8
TEAM-BODY
 66
     1
 10
0.0
 20
0.0
 30
-850.0
 70
   128
210
0.0
220
0.0
230
-1.0
  0
VERTEX
  5
86F
  8
TEAM-BODY
 10
-237.5
 20
-287.5
 30
-850.0
  0
VERTEX
  5
870
  8
TEAM-BODY
 10
-236.424582
 20
-305.323008
 30
-850.0
  0
VERTEX
  5
871
  8
TEAM-BODY
 10
-233.208066
 20
-322.984608
 30
-850.0
  0
VERTEX
  5
872
  8
TEAM-BODY
 10
-227.879581
 20
-340.324854
 30
-850.0
  0
VERTEX
  5
873
  8
TEAM-BODY
 10
-220.487384
 20
-357.18671
 30
-850.0
  0
VERTEX
  5
874
  8
TEAM-BODY
 10
-211.098419
 20
-373.417473
 30
-850.0
  0
VERTEX
  5
875
  8
TEAM-BODY
 10
-199.797714
 20
-388.870153
 30
-850.0
  0
VERTEX
  5
876
  8
TEAM-BODY
 10
-186.68761
 20
-403.40481
 30
-850.0
  0
VERTEX
  5
877
  8
TEAM-BODY
 10
-171.886834
 20
-416.889815
 30
-850.0
  0
VERTEX
  5
878
  8
TEAM-BODY
 10
-155.529424
 20
-429.203045
 30
-850.0
  0
VERTEX
  5
879
  8
TEAM-BODY
 10
-137.763516
 20
-440.232991
 30
-850.0
  0
VERTEX
  5
87A
  8
TEAM-BODY
 10
-118.75
 20
-449.879763
 30
-850.0
  0
VERTEX
  5
87B
  8
TEAM-BODY
 10
-98.661066
 20
-458.055999
 30
-850.0
  0
VERTEX
  5
87C
  8
TEAM-BODY
 10
-77.678641
 20
-464.687654
 30
-850.0
  0
VERTEX
  5
87D
  8
TEAM-BODY
 10
-55.992747
 20
-469.714669
 30
-850.0
  0
VERTEX
  5
87E
  8
TEAM-BODY
 10
-33.799774
 20
-473.09152
 30
-850.0
  0
VERTEX
  5
87F
  8
TEAM-BODY
 10
-11.300705
 20
-474.787626
 30
-850.0
  0
VERTEX
  5
880
  8
TEAM-BODY
 10
11.300705
 20
-474.787626
 30
-850.0
  0
VERTEX
  5
881
  8
TEAM-BODY
 10
33.799774
 20
-473.09152
 30
-850.0
  0
VERTEX
  5
882
  8
TEAM-BODY
 10
55.992747
 20
-469.714669
 30
-850.0
  0
VERTEX
  5
883
  8
TEAM-BODY
 10
77.678641
 20
-464.687654
 30
-850.0
  0
VERTEX
  5
884
  8
TEAM-BODY
 10
98.661066
 20
-458.055999
 30
-850.0
  0
VERTEX
  5
885
  8
TEAM-BODY
 10
118.75
 20
-449.879763
 30
-850.0
  0
VERTEX
  5
886
  8
TEAM-BODY
 10
137.763516
 20
-440.232991
 30
-850.0
  0
VERTEX
  5
887
  8
TEAM-BODY
 10
155.529424
 20
-429.203045
 30
-850.0
  0
VERTEX
  5
888
  8
TEAM-BODY
 10
171.886834
 20
-416.889815
 30
-850.0
  0
VERTEX
  5
889
  8
TEAM-BODY
 10
186.68761
 20
-403.40481
 30
-850.0
  0
VERTEX
  5
88A
  8
TEAM-BODY
 10
199.797714
 20
-388.870153
 30
-850.0
  0
VERTEX
  5
88B
  8
TEAM-BODY
 10
211.098419
 20
-373.417473
 30
-850.0
  0
VERTEX
  5
88C
  8
TEAM-BODY
 10
220.487384
 20
-357.18671
 30
-850.0
  0
VERTEX
  5
88D
  8
TEAM-BODY
 10
227.879581
 20
-340.324854
 30
-850.0
  0
VERTEX
  5
88E
  8
TEAM-BODY
 10
233.208066
 20
-322.984608
 30
-850.0
  0
VERTEX
  5
88F
  8
TEAM-BODY
 10
236.424582
 20
-305.323008
 30
-850.0
  0
VERTEX
  5
890
  8
TEAM-BODY
 10
237.5
 20
-287.5
 30
-850.0
  0
SEQEND
  5
891
  8
TEAM-BODY
  0
POLYLINE
  5
625
  8
TEAM-BODY
 66
     1
 10
0.0
 20
0.0
 30
850.0
 70
   128
  0
VERTEX
  5
892
  8
TEAM-BODY
 10
237.5
 20
-287.5
 30
850.0
  0
VERTEX
  5
893
  8
TEAM-BODY
 10
236.424582
 20
-269.676992
 30
850.0
  0
VERTEX
  5
894
  8
TEAM-BODY
 10
233.208066
 20
-252.015392
 30
850.0
  0
VERTEX
  5
895
  8
TEAM-BODY
 10
227.879581
 20
-234.675146
 30
850.0
  0
VERTEX
  5
896
  8
TEAM-BODY
 10
220.487384
 20
-217.81329
 30
850.0
  0
VERTEX
  5
897
  8
TEAM-BODY
 10
211.098419
 20
-201.582527
 30
850.0
  0
VERTEX
  5
898
  8
TEAM-BODY
 10
199.797714
 20
-186.129847
 30
850.0
  0
VERTEX
  5
899
  8
TEAM-BODY
 10
186.68761
 20
-171.59519
 30
850.0
  0
VERTEX
  5
89A
  8
TEAM-BODY
 10
171.886834
 20
-158.110185
 30
850.0
  0
VERTEX
  5
89B
  8
TEAM-BODY
 10
155.529424
 20
-145.796955
 30
850.0
  0
VERTEX
  5
89C
  8
TEAM-BODY
 10
137.763516
 20
-134.767009
 30
850.0
  0
VERTEX
  5
89D
  8
TEAM-BODY
 10
118.75
 20
-125.120237
 30
850.0
  0
VERTEX
  5
89E
  8
TEAM-BODY
 10
98.661066
 20
-116.944001
 30
850.0
  0
VERTEX
  5
89F
  8
TEAM-BODY
 10
77.678641
 20
-110.312346
 30
850.0
  0
VERTEX
  5
8A0
  8
TEAM-BODY
 10
55.992747
 20
-105.285331
 30
850.0
  0
VERTEX
  5
8A1
  8
TEAM-BODY
 10
33.799774
 20
-101.90848
 30
850.0
  0
VERTEX
  5
8A2
  8
TEAM-BODY
 10
11.300705
 20
-100.212374
 30
850.0
  0
VERTEX
  5
8A3
  8
TEAM-BODY
 10
-11.300705
 20
-100.212374
 30
850.0
  0
VERTEX
  5
8A4
  8
TEAM-BODY
 10
-33.799774
 20
-101.90848
 30
850.0
  0
VERTEX
  5
8A5
  8
TEAM-BODY
 10
-55.992747
 20
-105.285331
 30
850.0
  0
VERTEX
  5
8A6
  8
TEAM-BODY
 10
-77.678641
 20
-110.312346
 30
850.0
  0
VERTEX
  5
8A7
  8
TEAM-BODY
 10
-98.661066
 20
-116.944001
 30
850.0
  0
VERTEX
  5
8A8
  8
TEAM-BODY
 10
-118.75
 20
-125.120237
 30
850.0
  0
VERTEX
  5
8A9
  8
TEAM-BODY
 10
-137.763516
 20
-134.767009
 30
850.0
  0
VERTEX
  5
8AA
  8
TEAM-BODY
 10
-155.529424
 20
-145.796955
 30
850.0
  0
VERTEX
  5
8AB
  8
TEAM-BODY
 10
-171.886834
 20
-158.110185
 30
850.0
  0
VERTEX
  5
8AC
  8
TEAM-BODY
 10
-186.68761
 20
-171.59519
 30
850.0
  0
VERTEX
  5
8AD
  8
TEAM-BODY
 10
-199.797714
 20
-186.129847
 30
850.0
  0
VERTEX
  5
8AE
  8
TEAM-BODY
 10
-211.098419
 20
-201.582527
 30
850.0
  0
VERTEX
  5
8AF
  8
TEAM-BODY
 10
-220.487384
 20
-217.81329
 30
850.0
  0
VERTEX
  5
8B0
  8
TEAM-BODY
 10
-227.879581
 20
-234.675146
 30
850.0
  0
VERTEX
  5
8B1
  8
TEAM-BODY
 10
-233.208066
 20
-252.015392
 30
850.0
  0
VERTEX
  5
8B2
  8
TEAM-BODY
 10
-236.424582
 20
-269.676992
 30
850.0
  0
VERTEX
  5
8B3
  8
TEAM-BODY
 10
-237.5
 20
-287.5
 30
850.0
  0
SEQEND
  5
8B4
  8
TEAM-BODY
  0
POLYLINE
  5
626
  8
TEAM-BODY
 66
     1
 10
0.0
 20
0.0
 30
850.0
 70
   128
  0
VERTEX
  5
8B5
  8
TEAM-BODY
 10
300.0
 20
-250.0
 30
850.0
  0
VERTEX
  5
8B6
  8
TEAM-BODY
 10
298.919247
 20
-228.798519
 30
850.0
  0
VERTEX
  5
8B7
  8
TEAM-BODY
 10
295.684773
 20
-207.749795
 30
850.0
  0
VERTEX
  5
8B8
  8
TEAM-BODY
 10
290.319884
 20
-187.005485
 30
850.0
  0
VERTEX
  5
8B9
  8
TEAM-BODY
 10
282.863234
 20
-166.715051
 30
850.0
  0
VERTEX
  5
8BA
  8
TEAM-BODY
 10
273.368547
 20
-147.024688
 30
850.0
  0
VERTEX
  5
8BB
  8
TEAM-BODY
 10
261.904234
 20
-128.076264
 30
850.0
  0
VERTEX
  5
8BC
  8
TEAM-BODY
 10
248.552895
 20
-110.006303
 30
850.0
  0
VERTEX
  5
8BD
  8
TEAM-BODY
 10
233.410726
 20
-92.945001
 30
850.0
  0
VERTEX
  5
8BE
  8
TEAM-BODY
 10
216.586828
 20
-77.015283
 30
850.0
  0
VERTEX
  5
8BF
  8
TEAM-BODY
 10
198.202417
 20
-62.331924
 30
850.0
  0
VERTEX
  5
8C0
  8
TEAM-BODY
 10
178.389953
 20
-49.000717
 30
850.0
  0
VERTEX
  5
8C1
  8
TEAM-BODY
 10
157.292185
 20
-37.117716
 30
850.0
  0
VERTEX
  5
8C2
  8
TEAM-BODY
 10
135.061123
 20
-26.768535
 30
850.0
  0
VERTEX
  5
8C3
  8
TEAM-BODY
 10
111.856943
 20
-18.027743
 30
850.0
  0
VERTEX
  5
8C4
  8
TEAM-BODY
 10
87.846831
 20
-10.958316
 30
850.0
  0
VERTEX
  5
8C5
  8
TEAM-BODY
 10
63.203781
 20
-5.61119
 30
850.0
  0
VERTEX
  5
8C6
  8
TEAM-BODY
 10
38.105346
 20
-2.024891
 30
850.0
  0
VERTEX
  5
8C7
  8
TEAM-BODY
 10
12.732361
 20
-0.225258
 30
850.0
  0
VERTEX
  5
8C8
  8
TEAM-BODY
 10
-12.732361
 20
-0.225258
 30
850.0
  0
VERTEX
  5
8C9
  8
TEAM-BODY
 10
-38.105346
 20
-2.024891
 30
850.0
  0
VERTEX
  5
8CA
  8
TEAM-BODY
 10
-63.203781
 20
-5.61119
 30
850.0
  0
VERTEX
  5
8CB
  8
TEAM-BODY
 10
-87.846831
 20
-10.958316
 30
850.0
  0
VERTEX
  5
8CC
  8
TEAM-BODY
 10
-111.856943
 20
-18.027743
 30
850.0
  0
VERTEX
  5
8CD
  8
TEAM-BODY
 10
-135.061123
 20
-26.768535
 30
850.0
  0
VERTEX
  5
8CE
  8
TEAM-BODY
 10
-157.292185
 20
-37.117716
 30
850.0
  0
VERTEX
  5
8CF
  8
TEAM-BODY
 10
-178.389953
 20
-49.000717
 30
850.0
  0
VERTEX
  5
8D0
  8
TEAM-BODY
 10
-198.202417
 20
-62.331924
 30
850.0
  0
VERTEX
  5
8D1
  8
TEAM-BODY
 10
-216.586828
 20
-77.015283
 30
850.0
  0
VERTEX
  5
8D2
  8
TEAM-BODY
 10
-233.410726
 20
-92.945001
 30
850.0
  0
VERTEX
  5
8D3
  8
TEAM-BODY
 10
-248.552895
 20
-110.006303
 30
850.0
  0
VERTEX
  5
8D4
  8
TEAM-BODY
 10
-261.904234
 20
-128.076264
 30
850.0
  0
VERTEX
  5
8D5
  8
TEAM-BODY
 10
-273.368547
 20
-147.024688
 30
850.0
  0
VERTEX
  5
8D6
  8
TEAM-BODY
 10
-282.863234
 20
-166.715051
 30
850.0
  0
VERTEX
  5
8D7
  8
TEAM-BODY
 10
-290.319884
 20
-187.005485
 30
850.0
  0
VERTEX
  5
8D8
  8
TEAM-BODY
 10
-295.684773
 20
-207.749795
 30
850.0
  0
VERTEX
  5
8D9
  8
TEAM-BODY
 10
-298.919247
 20
-228.798519
 30
850.0
  0
VERTEX
  5
8DA
  8
TEAM-BODY
 10
-300.0
 20
-250.0
 30
850.0
  0
SEQEND
  5
8DB
  8
TEAM-BODY
  0
LINE
  5
627
  8
TEAM-AXE
 10
0.0
 20
-70.0
 30
850.0
 11
0.0
 21
-30.0
 31
850.0
  0
CIRCLE
  5
628
  8
TEAM-DET1
 10
0.0
 20
-50.0
 30
850.0
 40
18.0
  0
LINE
  5
629
  8
TEAM-AXE
 10
20.0
 20
-50.0
 30
850.0
 11
-20.0
 21
-50.0
 31
850.0
  0
TEXT
  5
62A
  8
TEAM-TXT
 10
-124.91523
 20
-222.292405
 30
850.0
 40
30.0
  1
team 233103
 41
0.8
 51
15.0
  7
TEAM
  0
POLYLINE
  5
62D
  8
TEAM-BODY
 66
     1
 10
0.0
 20
0.0
 30
-850.0
 70
   128
210
0.0
220
0.0
230
-1.0
  0
VERTEX
  5
8DC
  8
TEAM-BODY
 10
-300.0
 20
-250.0
 30
-850.0
  0
VERTEX
  5
8DD
  8
TEAM-BODY
 10
-298.919247
 20
-271.201481
 30
-850.0
  0
VERTEX
  5
8DE
  8
TEAM-BODY
 10
-295.684773
 20
-292.250205
 30
-850.0
  0
VERTEX
  5
8DF
  8
TEAM-BODY
 10
-290.319884
 20
-312.994515
 30
-850.0
  0
VERTEX
  5
8E0
  8
TEAM-BODY
 10
-282.863234
 20
-333.284949
 30
-850.0
  0
VERTEX
  5
8E1
  8
TEAM-BODY
 10
-273.368547
 20
-352.975312
 30
-850.0
  0
VERTEX
  5
8E2
  8
TEAM-BODY
 10
-261.904234
 20
-371.923736
 30
-850.0
  0
VERTEX
  5
8E3
  8
TEAM-BODY
 10
-248.552895
 20
-389.993697
 30
-850.0
  0
VERTEX
  5
8E4
  8
TEAM-BODY
 10
-233.410726
 20
-407.054999
 30
-850.0
  0
VERTEX
  5
8E5
  8
TEAM-BODY
 10
-216.586828
 20
-422.984717
 30
-850.0
  0
VERTEX
  5
8E6
  8
TEAM-BODY
 10
-198.202417
 20
-437.668076
 30
-850.0
  0
VERTEX
  5
8E7
  8
TEAM-BODY
 10
-178.389953
 20
-450.999283
 30
-850.0
  0
VERTEX
  5
8E8
  8
TEAM-BODY
 10
-157.292185
 20
-462.882284
 30
-850.0
  0
VERTEX
  5
8E9
  8
TEAM-BODY
 10
-135.061123
 20
-473.231465
 30
-850.0
  0
VERTEX
  5
8EA
  8
TEAM-BODY
 10
-111.856943
 20
-481.972257
 30
-850.0
  0
VERTEX
  5
8EB
  8
TEAM-BODY
 10
-87.846831
 20
-489.041684
 30
-850.0
  0
VERTEX
  5
8EC
  8
TEAM-BODY
 10
-63.203781
 20
-494.38881
 30
-850.0
  0
VERTEX
  5
8ED
  8
TEAM-BODY
 10
-38.105346
 20
-497.975109
 30
-850.0
  0
VERTEX
  5
8EE
  8
TEAM-BODY
 10
-12.732361
 20
-499.774742
 30
-850.0
  0
VERTEX
  5
8EF
  8
TEAM-BODY
 10
12.732361
 20
-499.774742
 30
-850.0
  0
VERTEX
  5
8F0
  8
TEAM-BODY
 10
38.105346
 20
-497.975109
 30
-850.0
  0
VERTEX
  5
8F1
  8
TEAM-BODY
 10
63.203781
 20
-494.38881
 30
-850.0
  0
VERTEX
  5
8F2
  8
TEAM-BODY
 10
87.846831
 20
-489.041684
 30
-850.0
  0
VERTEX
  5
8F3
  8
TEAM-BODY
 10
111.856943
 20
-481.972257
 30
-850.0
  0
VERTEX
  5
8F4
  8
TEAM-BODY
 10
135.061123
 20
-473.231465
 30
-850.0
  0
VERTEX
  5
8F5
  8
TEAM-BODY
 10
157.292185
 20
-462.882284
 30
-850.0
  0
VERTEX
  5
8F6
  8
TEAM-BODY
 10
178.389953
 20
-450.999283
 30
-850.0
  0
VERTEX
  5
8F7
  8
TEAM-BODY
 10
198.202417
 20
-437.668076
 30
-850.0
  0
VERTEX
  5
8F8
  8
TEAM-BODY
 10
216.586828
 20
-422.984717
 30
-850.0
  0
VERTEX
  5
8F9
  8
TEAM-BODY
 10
233.410726
 20
-407.054999
 30
-850.0
  0
VERTEX
  5
8FA
  8
TEAM-BODY
 10
248.552895
 20
-389.993697
 30
-850.0
  0
VERTEX
  5
8FB
  8
TEAM-BODY
 10
261.904234
 20
-371.923736
 30
-850.0
  0
VERTEX
  5
8FC
  8
TEAM-BODY
 10
273.368547
 20
-352.975312
 30
-850.0
  0
VERTEX
  5
8FD
  8
TEAM-BODY
 10
282.863234
 20
-333.284949
 30
-850.0
  0
VERTEX
  5
8FE
  8
TEAM-BODY
 10
290.319884
 20
-312.994515
 30
-850.0
  0
VERTEX
  5
8FF
  8
TEAM-BODY
 10
295.684773
 20
-292.250205
 30
-850.0
  0
VERTEX
  5
900
  8
TEAM-BODY
 10
298.919247
 20
-271.201481
 30
-850.0
  0
VERTEX
  5
901
  8
TEAM-BODY
 10
300.0
 20
-250.0
 30
-850.0
  0
SEQEND
  5
902
  8
TEAM-BODY
  0
POLYLINE
  5
62E
  8
TEAM-NET
 66
     1
 10
0.0
 20
0.0
 30
0.0
 70
    16
 71
     2
 72
    37
  0
VERTEX
  5
62F
  8
TEAM-NET
 10
237.5
 20
-287.5
 30
850.0
 70
    64
  0
VERTEX
  5
630
  8
TEAM-NET
 10
236.333638
 20
-268.940453
 30
850.0
 70
    64
  0
VERTEX
  5
631
  8
TEAM-NET
 10
232.872828
 20
-250.66874
 30
850.0
 70
    64
  0
VERTEX
  5
632
  8
TEAM-NET
 10
227.226283
 20
-232.949333
 30
850.0
 70
    64
  0
VERTEX
  5
633
  8
TEAM-NET
 10
219.557022
 20
-216.005914
 30
850.0
 70
    64
  0
VERTEX
  5
634
  8
TEAM-NET
 10
210.061594
 20
-200.013004
 30
850.0
 70
    64
  0
VERTEX
  5
635
  8
TEAM-NET
 10
198.950185
 20
-185.096182
 30
850.0
 70
    64
  0
VERTEX
  5
636
  8
TEAM-NET
 10
186.431113
 20
-171.338155
 30
850.0
 70
    64
  0
VERTEX
  5
637
  8
TEAM-NET
 10
172.700775
 20
-158.787478
 30
850.0
 70
    64
  0
VERTEX
  5
638
  8
TEAM-NET
 10
157.93843
 20
-147.467525
 30
850.0
 70
    64
  0
VERTEX
  5
639
  8
TEAM-NET
 10
142.304491
 20
-137.384362
 30
850.0
 70
    64
  0
VERTEX
  5
63A
  8
TEAM-NET
 10
125.941043
 20
-128.533041
 30
850.0
 70
    64
  0
VERTEX
  5
63B
  8
TEAM-NET
 10
108.973572
 20
-120.902326
 30
850.0
 70
    64
  0
VERTEX
  5
63C
  8
TEAM-NET
 10
91.513225
 20
-114.478094
 30
850.0
 70
    64
  0
VERTEX
  5
63D
  8
TEAM-NET
 10
73.659217
 20
-109.245706
 30
850.0
 70
    64
  0
VERTEX
  5
63E
  8
TEAM-NET
 10
55.50117
 20
-105.191619
 30
850.0
 70
    64
  0
VERTEX
  5
63F
  8
TEAM-NET
 10
37.121304
 20
-102.304451
 30
850.0
 70
    64
  0
VERTEX
  5
640
  8
TEAM-NET
 10
18.596465
 20
-100.575668
 30
850.0
 70
    64
  0
VERTEX
  5
641
  8
TEAM-NET
 10
0.0
 20
-100.0
 30
850.0
 70
    64
  0
VERTEX
  5
642
  8
TEAM-NET
 10
-18.596465
 20
-100.575668
 30
850.0
 70
    64
  0
VERTEX
  5
643
  8
TEAM-NET
 10
-37.121304
 20
-102.304451
 30
850.0
 70
    64
  0
VERTEX
  5
644
  8
TEAM-NET
 10
-55.50117
 20
-105.191619
 30
850.0
 70
    64
  0
VERTEX
  5
645
  8
TEAM-NET
 10
-73.659217
 20
-109.245706
 30
850.0
 70
    64
  0
VERTEX
  5
646
  8
TEAM-NET
 10
-91.513225
 20
-114.478094
 30
850.0
 70
    64
  0
VERTEX
  5
647
  8
TEAM-NET
 10
-108.973572
 20
-120.902326
 30
850.0
 70
    64
  0
VERTEX
  5
648
  8
TEAM-NET
 10
-125.941043
 20
-128.533041
 30
850.0
 70
    64
  0
VERTEX
  5
649
  8
TEAM-NET
 10
-142.304491
 20
-137.384362
 30
850.0
 70
    64
  0
VERTEX
  5
64A
  8
TEAM-NET
 10
-157.93843
 20
-147.467525
 30
850.0
 70
    64
  0
VERTEX
  5
64B
  8
TEAM-NET
 10
-172.700775
 20
-158.787478
 30
850.0
 70
    64
  0
VERTEX
  5
64C
  8
TEAM-NET
 10
-186.431113
 20
-171.338155
 30
850.0
 70
    64
  0
VERTEX
  5
64D
  8
TEAM-NET
 10
-198.950185
 20
-185.096182
 30
850.0
 70
    64
  0
VERTEX
  5
64E
  8
TEAM-NET
 10
-210.061594
 20
-200.013004
 30
850.0
 70
    64
  0
VERTEX
  5
64F
  8
TEAM-NET
 10
-219.557022
 20
-216.005914
 30
850.0
 70
    64
  0
VERTEX
  5
650
  8
TEAM-NET
 10
-227.226283
 20
-232.949333
 30
850.0
 70
    64
  0
VERTEX
  5
651
  8
TEAM-NET
 10
-232.872828
 20
-250.66874
 30
850.0
 70
    64
  0
VERTEX
  5
652
  8
TEAM-NET
 10
-236.333638
 20
-268.940453
 30
850.0
 70
    64
  0
VERTEX
  5
653
  8
TEAM-NET
 10
-237.5
 20
-287.5
 30
850.0
 70
    64
  0
VERTEX
  5
654
  8
TEAM-NET
 10
300.0
 20
-250.0
 30
850.0
 70
    64
  0
VERTEX
  5
655
  8
TEAM-NET
 10
298.615019
 20
-226.005351
 30
850.0
 70
    64
  0
VERTEX
  5
656
  8
TEAM-NET
 10
294.494798
 20
-202.326241
 30
850.0
 70
    64
  0
VERTEX
  5
657
  8
TEAM-NET
 10
287.739379
 20
-179.259621
 30
850.0
 70
    64
  0
VERTEX
  5
658
  8
TEAM-NET
 10
278.502919
 20
-157.068857
 30
850.0
 70
    64
  0
VERTEX
  5
659
  8
TEAM-NET
 10
266.978304
 20
-135.974585
 30
850.0
 70
    64
  0
VERTEX
  5
65A
  8
TEAM-NET
 10
253.380972
 20
-116.151819
 30
850.0
 70
    64
  0
VERTEX
  5
65B
  8
TEAM-NET
 10
237.93464
 20
-97.732173
 30
850.0
 70
    64
  0
VERTEX
  5
65C
  8
TEAM-NET
 10
220.860387
 20
-80.809342
 30
850.0
 70
    64
  0
VERTEX
  5
65D
  8
TEAM-NET
 10
202.369387
 20
-65.44605
 30
850.0
 70
    64
  0
VERTEX
  5
65E
  8
TEAM-NET
 10
182.658848
 20
-51.681119
 30
850.0
 70
    64
  0
VERTEX
  5
65F
  8
TEAM-NET
 10
161.910409
 20
-39.535864
 30
850.0
 70
    64
  0
VERTEX
  5
660
  8
TEAM-NET
 10
140.29023
 20
-29.019465
 30
850.0
 70
    64
  0
VERTEX
  5
661
  8
TEAM-NET
 10
117.950139
 20
-20.133244
 30
850.0
 70
    64
  0
VERTEX
  5
662
  8
TEAM-NET
 10
95.029373
 20
-12.873952
 30
850.0
 70
    64
  0
VERTEX
  5
663
  8
TEAM-NET
 10
71.656618
 20
-7.236213
 30
850.0
 70
    64
  0
VERTEX
  5
664
  8
TEAM-NET
 10
47.95215
 20
-3.214286
 30
850.0
 70
    64
  0
VERTEX
  5
665
  8
TEAM-NET
 10
24.029985
 20
-0.803291
 30
850.0
 70
    64
  0
VERTEX
  5
666
  8
TEAM-NET
 10
0.0
 20
0.0
 30
850.0
 70
    64
  0
VERTEX
  5
667
  8
TEAM-NET
 10
-24.029985
 20
-0.803291
 30
850.0
 70
    64
  0
VERTEX
  5
668
  8
TEAM-NET
 10
-47.95215
 20
-3.214286
 30
850.0
 70
    64
  0
VERTEX
  5
669
  8
TEAM-NET
 10
-71.656618
 20
-7.236213
 30
850.0
 70
    64
  0
VERTEX
  5
66A
  8
TEAM-NET
 10
-95.029373
 20
-12.873952
 30
850.0
 70
    64
  0
VERTEX
  5
66B
  8
TEAM-NET
 10
-117.950139
 20
-20.133244
 30
850.0
 70
    64
  0
VERTEX
  5
66C
  8
TEAM-NET
 10
-140.29023
 20
-29.019465
 30
850.0
 70
    64
  0
VERTEX
  5
66D
  8
TEAM-NET
 10
-161.910409
 20
-39.535864
 30
850.0
 70
    64
  0
VERTEX
  5
66E
  8
TEAM-NET
 10
-182.658848
 20
-51.681119
 30
850.0
 70
    64
  0
VERTEX
  5
66F
  8
TEAM-NET
 10
-202.369387
 20
-65.44605
 30
850.0
 70
    64
  0
VERTEX
  5
670
  8
TEAM-NET
 10
-220.860387
 20
-80.809342
 30
850.0
 70
    64
  0
VERTEX
  5
671
  8
TEAM-NET
 10
-237.93464
 20
-97.732173
 30
850.0
 70
    64
  0
VERTEX
  5
672
  8
TEAM-NET
 10
-253.380972
 20
-116.151819
 30
850.0
 70
    64
  0
VERTEX
  5
673
  8
TEAM-NET
 10
-266.978304
 20
-135.974585
 30
850.0
 70
    64
  0
VERTEX
  5
674
  8
TEAM-NET
 10
-278.502919
 20
-157.068857
 30
850.0
 70
    64
  0
VERTEX
  5
675
  8
TEAM-NET
 10
-287.739379
 20
-179.259621
 30
850.0
 70
    64
  0
VERTEX
  5
676
  8
TEAM-NET
 10
-294.494798
 20
-202.326241
 30
850.0
 70
    64
  0
VERTEX
  5
677
  8
TEAM-NET
 10
-298.615019
 20
-226.005351
 30
850.0
 70
    64
  0
VERTEX
  5
678
  8
TEAM-NET
 10
-300.0
 20
-250.0
 30
850.0
 70
    64
  0
SEQEND
  5
679
  8
TEAM-NET
  0
POLYLINE
  5
67A
  8
TEAM-NET
 66
     1
 10
0.0
 20
0.0
 30
0.0
 70
    16
 71
     2
 72
    37
  0
VERTEX
  5
67B
  8
TEAM-NET
 10
237.5
 20
-287.5
 30
850.0
 70
    64
  0
VERTEX
  5
67C
  8
TEAM-NET
 10
236.333638
 20
-306.059547
 30
850.0
 70
    64
  0
VERTEX
  5
67D
  8
TEAM-NET
 10
232.872828
 20
-324.33126
 30
850.0
 70
    64
  0
VERTEX
  5
67E
  8
TEAM-NET
 10
227.226283
 20
-342.050667
 30
850.0
 70
    64
  0
VERTEX
  5
67F
  8
TEAM-NET
 10
219.557022
 20
-358.994086
 30
850.0
 70
    64
  0
VERTEX
  5
680
  8
TEAM-NET
 10
210.061594
 20
-374.986996
 30
850.0
 70
    64
  0
VERTEX
  5
681
  8
TEAM-NET
 10
198.950185
 20
-389.903818
 30
850.0
 70
    64
  0
VERTEX
  5
682
  8
TEAM-NET
 10
186.431113
 20
-403.661845
 30
850.0
 70
    64
  0
VERTEX
  5
683
  8
TEAM-NET
 10
172.700775
 20
-416.212522
 30
850.0
 70
    64
  0
VERTEX
  5
684
  8
TEAM-NET
 10
157.93843
 20
-427.532475
 30
850.0
 70
    64
  0
VERTEX
  5
685
  8
TEAM-NET
 10
142.304491
 20
-437.615638
 30
850.0
 70
    64
  0
VERTEX
  5
686
  8
TEAM-NET
 10
125.941043
 20
-446.466959
 30
850.0
 70
    64
  0
VERTEX
  5
687
  8
TEAM-NET
 10
108.973572
 20
-454.097674
 30
850.0
 70
    64
  0
VERTEX
  5
688
  8
TEAM-NET
 10
91.513225
 20
-460.521906
 30
850.0
 70
    64
  0
VERTEX
  5
689
  8
TEAM-NET
 10
73.659217
 20
-465.754294
 30
850.0
 70
    64
  0
VERTEX
  5
68A
  8
TEAM-NET
 10
55.50117
 20
-469.808381
 30
850.0
 70
    64
  0
VERTEX
  5
68B
  8
TEAM-NET
 10
37.121304
 20
-472.695549
 30
850.0
 70
    64
  0
VERTEX
  5
68C
  8
TEAM-NET
 10
18.596465
 20
-474.424332
 30
850.0
 70
    64
  0
VERTEX
  5
68D
  8
TEAM-NET
 10
0.0
 20
-475.0
 30
850.0
 70
    64
  0
VERTEX
  5
68E
  8
TEAM-NET
 10
-18.596465
 20
-474.424332
 30
850.0
 70
    64
  0
VERTEX
  5
68F
  8
TEAM-NET
 10
-37.121304
 20
-472.695549
 30
850.0
 70
    64
  0
VERTEX
  5
690
  8
TEAM-NET
 10
-55.50117
 20
-469.808381
 30
850.0
 70
    64
  0
VERTEX
  5
691
  8
TEAM-NET
 10
-73.659217
 20
-465.754294
 30
850.0
 70
    64
  0
VERTEX
  5
692
  8
TEAM-NET
 10
-91.513225
 20
-460.521906
 30
850.0
 70
    64
  0
VERTEX
  5
693
  8
TEAM-NET
 10
-108.973572
 20
-454.097674
 30
850.0
 70
    64
  0
VERTEX
  5
694
  8
TEAM-NET
 10
-125.941043
 20
-446.466959
 30
850.0
 70
    64
  0
VERTEX
  5
695
  8
TEAM-NET
 10
-142.304491
 20
-437.615638
 30
850.0
 70
    64
  0
VERTEX
  5
696
  8
TEAM-NET
 10
-157.93843
 20
-427.532475
 30
850.0
 70
    64
  0
VERTEX
  5
697
  8
TEAM-NET
 10
-172.700775
 20
-416.212522
 30
850.0
 70
    64
  0
VERTEX
  5
698
  8
TEAM-NET
 10
-186.431113
 20
-403.661845
 30
850.0
 70
    64
  0
VERTEX
  5
699
  8
TEAM-NET
 10
-198.950185
 20
-389.903818
 30
850.0
 70
    64
  0
VERTEX
  5
69A
  8
TEAM-NET
 10
-210.061594
 20
-374.986996
 30
850.0
 70
    64
  0
VERTEX
  5
69B
  8
TEAM-NET
 10
-219.557022
 20
-358.994086
 30
850.0
 70
    64
  0
VERTEX
  5
69C
  8
TEAM-NET
 10
-227.226283
 20
-342.050667
 30
850.0
 70
    64
  0
VERTEX
  5
69D
  8
TEAM-NET
 10
-232.872828
 20
-324.33126
 30
850.0
 70
    64
  0
VERTEX
  5
69E
  8
TEAM-NET
 10
-236.333638
 20
-306.059547
 30
850.0
 70
    64
  0
VERTEX
  5
69F
  8
TEAM-NET
 10
-237.5
 20
-287.5
 30
850.0
 70
    64
  0
VERTEX
  5
6A0
  8
TEAM-NET
 10
300.0
 20
-250.0
 30
850.0
 70
    64
  0
VERTEX
  5
6A1
  8
TEAM-NET
 10
298.615019
 20
-273.994649
 30
850.0
 70
    64
  0
VERTEX
  5
6A2
  8
TEAM-NET
 10
294.494798
 20
-297.673759
 30
850.0
 70
    64
  0
VERTEX
  5
6A3
  8
TEAM-NET
 10
287.739379
 20
-320.740379
 30
850.0
 70
    64
  0
VERTEX
  5
6A4
  8
TEAM-NET
 10
278.502919
 20
-342.931143
 30
850.0
 70
    64
  0
VERTEX
  5
6A5
  8
TEAM-NET
 10
266.978304
 20
-364.025415
 30
850.0
 70
    64
  0
VERTEX
  5
6A6
  8
TEAM-NET
 10
253.380972
 20
-383.848181
 30
850.0
 70
    64
  0
VERTEX
  5
6A7
  8
TEAM-NET
 10
237.93464
 20
-402.267827
 30
850.0
 70
    64
  0
VERTEX
  5
6A8
  8
TEAM-NET
 10
220.860387
 20
-419.190658
 30
850.0
 70
    64
  0
VERTEX
  5
6A9
  8
TEAM-NET
 10
202.369387
 20
-434.55395
 30
850.0
 70
    64
  0
VERTEX
  5
6AA
  8
TEAM-NET
 10
182.658848
 20
-448.318881
 30
850.0
 70
    64
  0
VERTEX
  5
6AB
  8
TEAM-NET
 10
161.910409
 20
-460.464136
 30
850.0
 70
    64
  0
VERTEX
  5
6AC
  8
TEAM-NET
 10
140.29023
 20
-470.980535
 30
850.0
 70
    64
  0
VERTEX
  5
6AD
  8
TEAM-NET
 10
117.950139
 20
-479.866756
 30
850.0
 70
    64
  0
VERTEX
  5
6AE
  8
TEAM-NET
 10
95.029373
 20
-487.126048
 30
850.0
 70
    64
  0
VERTEX
  5
6AF
  8
TEAM-NET
 10
71.656618
 20
-492.763787
 30
850.0
 70
    64
  0
VERTEX
  5
6B0
  8
TEAM-NET
 10
47.95215
 20
-496.785714
 30
850.0
 70
    64
  0
VERTEX
  5
6B1
  8
TEAM-NET
 10
24.029985
 20
-499.196709
 30
850.0
 70
    64
  0
VERTEX
  5
6B2
  8
TEAM-NET
 10
0.0
 20
-500.0
 30
850.0
 70
    64
  0
VERTEX
  5
6B3
  8
TEAM-NET
 10
-24.029985
 20
-499.196709
 30
850.0
 70
    64
  0
VERTEX
  5
6B4
  8
TEAM-NET
 10
-47.95215
 20
-496.785714
 30
850.0
 70
    64
  0
VERTEX
  5
6B5
  8
TEAM-NET
 10
-71.656618
 20
-492.763787
 30
850.0
 70
    64
  0
VERTEX
  5
6B6
  8
TEAM-NET
 10
-95.029373
 20
-487.126048
 30
850.0
 70
    64
  0
VERTEX
  5
6B7
  8
TEAM-NET
 10
-117.950139
 20
-479.866756
 30
850.0
 70
    64
  0
VERTEX
  5
6B8
  8
TEAM-NET
 10
-140.29023
 20
-470.980535
 30
850.0
 70
    64
  0
VERTEX
  5
6B9
  8
TEAM-NET
 10
-161.910409
 20
-460.464136
 30
850.0
 70
    64
  0
VERTEX
  5
6BA
  8
TEAM-NET
 10
-182.658848
 20
-448.318881
 30
850.0
 70
    64
  0
VERTEX
  5
6BB
  8
TEAM-NET
 10
-202.369387
 20
-434.55395
 30
850.0
 70
    64
  0
VERTEX
  5
6BC
  8
TEAM-NET
 10
-220.860387
 20
-419.190658
 30
850.0
 70
    64
  0
VERTEX
  5
6BD
  8
TEAM-NET
 10
-237.93464
 20
-402.267827
 30
850.0
 70
    64
  0
VERTEX
  5
6BE
  8
TEAM-NET
 10
-253.380972
 20
-383.848181
 30
850.0
 70
    64
  0
VERTEX
  5
6BF
  8
TEAM-NET
 10
-266.978304
 20
-364.025415
 30
850.0
 70
    64
  0
VERTEX
  5
6C0
  8
TEAM-NET
 10
-278.502919
 20
-342.931143
 30
850.0
 70
    64
  0
VERTEX
  5
6C1
  8
TEAM-NET
 10
-287.739379
 20
-320.740379
 30
850.0
 70
    64
  0
VERTEX
  5
6C2
  8
TEAM-NET
 10
-294.494798
 20
-297.673759
 30
850.0
 70
    64
  0
VERTEX
  5
6C3
  8
TEAM-NET
 10
-298.615019
 20
-273.994649
 30
850.0
 70
    64
  0
VERTEX
  5
6C4
  8
TEAM-NET
 10
-300.0
 20
-250.0
 30
850.0
 70
    64
  0
SEQEND
  5
6C5
  8
TEAM-NET
  0
ENDSEC
  0
EOF
