  0
SECTION
  2
HEADER
  9
$ACADVER
  1
AC1009
  9
$INSBASE
 10
0.0
 20
0.0
 30
802.0
  9
$EXTMIN
 10
-258.365338
 20
-474.108181
 30
-0.038511
  9
$EXTMAX
 10
258.352044
 20
10.011766
 30
850.034882
  9
$LIMMIN
 10
-258.365338
 20
-474.108181
  9
$LIMMAX
 10
258.352044
 20
10.011766
  9
$ORTHOMODE
 70
     1
  9
$REGENMODE
 70
     1
  9
$FILLMODE
 70
     1
  9
$QTEXTMODE
 70
     0
  9
$MIRRTEXT
 70
     0
  9
$DRAGMODE
 70
     2
  9
$LTSCALE
 40
50.0
  9
$OSMODE
 70
     7
  9
$ATTMODE
 70
     1
  9
$TEXTSIZE
 40
200.0
  9
$TRACEWID
 40
1.0
  9
$TEXTSTYLE
  7
STANDARD
  9
$CLAYER
  8
TEAM-MAS
  9
$CELTYPE
  6
BYLAYER
  9
$CECOLOR
 62
   256
  9
$DIMSCALE
 40
1.0
  9
$DIMASZ
 40
20.0
  9
$DIMEXO
 40
10.0
  9
$DIMDLI
 40
1.0
  9
$DIMRND
 40
0.0
  9
$DIMDLE
 40
0.0
  9
$DIMEXE
 40
1.0
  9
$DIMTP
 40
0.0
  9
$DIMTM
 40
0.0
  9
$DIMTXT
 40
35.0
  9
$DIMCEN
 40
1.0
  9
$DIMTSZ
 40
0.0
  9
$DIMTOL
 70
     0
  9
$DIMLIM
 70
     0
  9
$DIMTIH
 70
     0
  9
$DIMTOH
 70
     0
  9
$DIMSE1
 70
     0
  9
$DIMSE2
 70
     0
  9
$DIMTAD
 70
     0
  9
$DIMZIN
 70
     0
  9
$DIMBLK
  1

  9
$DIMASO
 70
     1
  9
$DIMSHO
 70
     0
  9
$DIMPOST
  1

  9
$DIMAPOST
  1

  9
$DIMALT
 70
     0
  9
$DIMALTD
 70
     2
  9
$DIMALTF
 40
25.4
  9
$DIMLFAC
 40
1.0
  9
$DIMTOFL
 70
     0
  9
$DIMTVP
 40
0.0
  9
$DIMTIX
 70
     0
  9
$DIMSOXD
 70
     0
  9
$DIMSAH
 70
     0
  9
$DIMBLK1
  1

  9
$DIMBLK2
  1

  9
$DIMSTYLE
  2
TEAM
  9
$DIMCLRD
 70
     9
  9
$DIMCLRE
 70
     9
  9
$DIMCLRT
 70
    11
  9
$DIMTFAC
 40
1.0
  9
$DIMGAP
 40
7.0
  9
$LUNITS
 70
     2
  9
$LUPREC
 70
     1
  9
$SKETCHINC
 40
1.0
  9
$FILLETRAD
 40
44.0
  9
$AUNITS
 70
     0
  9
$AUPREC
 70
     0
  9
$MENU
  1
ROPLANS
  9
$ELEVATION
 40
0.0
  9
$PELEVATION
 40
0.0
  9
$THICKNESS
 40
0.0
  9
$LIMCHECK
 70
     0
  9
$BLIPMODE
 70
     1
  9
$CHAMFERA
 40
0.0
  9
$CHAMFERB
 40
0.0
  9
$SKPOLY
 70
     0
  9
$TDCREATE
 40
2450392.957851
  9
$TDUPDATE
 40
2455981.928629
  9
$TDINDWG
 40
3.777306
  9
$TDUSRTIMER
 40
3.777306
  9
$USRTIMER
 70
     1
  9
$ANGBASE
 50
0.0
  9
$ANGDIR
 70
     0
  9
$PDMODE
 70
     0
  9
$PDSIZE
 40
0.0
  9
$PLINEWID
 40
0.0
  9
$COORDS
 70
     2
  9
$SPLFRAME
 70
     0
  9
$SPLINETYPE
 70
     6
  9
$SPLINESEGS
 70
     8
  9
$ATTDIA
 70
     0
  9
$ATTREQ
 70
     0
  9
$HANDLING
 70
     1
  9
$HANDSEED
  5
69C
  9
$SURFTAB1
 70
    36
  9
$SURFTAB2
 70
    36
  9
$SURFTYPE
 70
     6
  9
$SURFU
 70
     6
  9
$SURFV
 70
     6
  9
$UCSNAME
  2

  9
$UCSORG
 10
0.0
 20
0.0
 30
0.0
  9
$UCSXDIR
 10
1.0
 20
0.0
 30
0.0
  9
$UCSYDIR
 10
0.0
 20
1.0
 30
0.0
  9
$PUCSNAME
  2

  9
$PUCSORG
 10
0.0
 20
0.0
 30
0.0
  9
$PUCSXDIR
 10
1.0
 20
0.0
 30
0.0
  9
$PUCSYDIR
 10
0.0
 20
1.0
 30
0.0
  9
$USERI1
 70
     0
  9
$USERI2
 70
     0
  9
$USERI3
 70
     0
  9
$USERI4
 70
     0
  9
$USERI5
 70
     0
  9
$USERR1
 40
0.0
  9
$USERR2
 40
0.0
  9
$USERR3
 40
0.0
  9
$USERR4
 40
0.0
  9
$USERR5
 40
0.0
  9
$WORLDVIEW
 70
     1
  9
$SHADEDGE
 70
     0
  9
$SHADEDIF
 70
    70
  9
$TILEMODE
 70
     1
  9
$MAXACTVP
 70
    16
  9
$PLIMCHECK
 70
     0
  9
$PEXTMIN
 10
-0.805942
 20
0.005011
 30
0.0
  9
$PEXTMAX
 10
20.250094
 20
11.356329
 30
0.0
  9
$PLIMMIN
 10
0.0
 20
0.0
  9
$PLIMMAX
 10
12.0
 20
9.0
  9
$UNITMODE
 70
     0
  9
$VISRETAIN
 70
     0
  9
$PLINEGEN
 70
     0
  9
$PSLTSCALE
 70
     0
  0
ENDSEC
  0
SECTION
  2
TABLES
  0
TABLE
  2
VPORT
 70
     2
  0
VPORT
  2
*ACTIVE
 70
     0
 10
0.0
 20
0.0
 11
1.0
 21
1.0
 12
-0.006647
 22
-232.048207
 13
0.0
 23
0.0
 14
1.0
 24
1.0
 15
50.0
 25
50.0
 16
0.0
 26
0.0
 36
1.0
 17
0.0
 27
0.0
 37
0.0
 40
487.155182
 41
1.903766
 42
50.0
 43
0.0
 44
0.0
 50
0.0
 51
0.0
 71
     0
 72
   100
 73
     1
 74
     1
 75
     0
 76
     0
 77
     0
 78
     0
  0
ENDTAB
  0
TABLE
  2
LTYPE
 70
     2
  0
LTYPE
  2
CONTINUOUS
 70
     0
  3
Solid Line
 72
    65
 73
     0
 40
0.0
  0
LTYPE
  2
31
 70
     0
  3

 72
    65
 73
     4
 40
2.1
 49
1.5
 49
-0.3
 49
0.0
 49
-0.3
  0
ENDTAB
  0
TABLE
  2
LAYER
 70
     9
  0
LAYER
  2
0
 70
     0
 62
     7
  6
CONTINUOUS
  0
LAYER
  2
TEAM-BODY
 70
     0
 62
     2
  6
CONTINUOUS
  0
LAYER
  2
TEAM-AXE
 70
     0
 62
    10
  6
31
  0
LAYER
  2
TEAM-MAS
 70
     0
 62
     9
  6
CONTINUOUS
  0
LAYER
  2
TEAM-TXT
 70
     0
 62
    11
  6
CONTINUOUS
  0
LAYER
  2
TEAM-DET1
 70
     0
 62
     4
  6
CONTINUOUS
  0
LAYER
  2
TEAM-KAN
 70
     0
 62
     6
  6
CONTINUOUS
  0
LAYER
  2
TEAM-NET
 70
     0
 62
    15
  6
CONTINUOUS
  0
LAYER
  2
TEAM-INSP
 70
     0
 62
     5
  6
CONTINUOUS
  0
ENDTAB
  0
TABLE
  2
STYLE
 70
     2
  0
STYLE
  2
STANDARD
 70
     0
 40
0.0
 41
1.0
 50
0.0
 71
     0
 42
200.0
  3
txt
  4

  0
STYLE
  2
TEAM
 70
     0
 40
0.0
 41
0.8
 50
15.0
 71
     0
 42
7.0
  3
ROMANS.shx
  4

  0
ENDTAB
  0
TABLE
  2
VIEW
 70
     0
  0
ENDTAB
  0
TABLE
  2
UCS
 70
     0
  0
ENDTAB
  0
TABLE
  2
APPID
 70
     1
  0
APPID
  2
ACAD
 70
     0
  0
ENDTAB
  0
TABLE
  2
DIMSTYLE
 70
     1
  0
DIMSTYLE
  2
TEAM
 70
     0
  3

  4

  5

  6

  7

 40
1.0
 41
20.0
 42
10.0
 43
1.0
 44
1.0
 45
0.0
 46
0.0
 47
0.0
 48
0.0
140
35.0
141
1.0
142
0.0
143
25.4
144
1.0
145
0.0
146
1.0
147
7.0
 71
     0
 72
     0
 73
     0
 74
     0
 75
     0
 76
     0
 77
     0
 78
     0
170
     0
171
     2
172
     0
173
     0
174
     0
175
     0
176
     9
177
     9
178
    11
  0
ENDTAB
  0
ENDSEC
  0
SECTION
  2
BLOCKS
  0
BLOCK
  8
0
  2
$MODEL_SPACE
 70
     0
 10
0.0
 20
0.0
 30
0.0
  3
$MODEL_SPACE
  1

  0
ENDBLK
  5
68D
  8
0
  0
BLOCK
 67
     1
  8
0
  2
$PAPER_SPACE
 70
     0
 10
0.0
 20
0.0
 30
0.0
  3
$PAPER_SPACE
  1

  0
ENDBLK
  5
68B
 67
     1
  8
0
  0
ENDSEC
  0
SECTION
  2
ENTITIES
  0
CIRCLE
  5
20
  8
TEAM-INSP
 10
0.0
 20
0.0
 30
0.0
 40
10.0
  0
ARC
  5
22
  8
TEAM-BODY
 39
-48.0
 10
0.0
 20
-225.0
 30
850.0
 40
225.0
 50
90.0
 51
270.0
  0
ARC
  5
24
  8
TEAM-BODY
 39
-48.0
 10
0.0
 20
-225.0
 30
850.0
 40
225.0
 50
270.0
 51
90.0
  0
POLYLINE
  5
25
  8
TEAM-NET
 66
     1
 10
0.0
 20
0.0
 30
0.0
 70
    16
 71
    37
 72
    38
  0
VERTEX
  5
26
  8
TEAM-NET
 10
0.0
 20
-100.0
 30
850.0
 70
    64
  0
VERTEX
  5
27
  8
TEAM-NET
 10
156.12495
 20
-100.0
 30
850.0
 70
    64
  0
VERTEX
  5
28
  8
TEAM-NET
 10
163.614523
 20
-109.977011
 30
850.0
 70
    64
  0
VERTEX
  5
29
  8
TEAM-NET
 10
170.467494
 20
-120.401561
 30
850.0
 70
    64
  0
VERTEX
  5
2A
  8
TEAM-NET
 10
176.6572
 20
-131.233088
 30
850.0
 70
    64
  0
VERTEX
  5
2B
  8
TEAM-NET
 10
182.159557
 20
-142.42945
 30
850.0
 70
    64
  0
VERTEX
  5
2C
  8
TEAM-NET
 10
186.953157
 20
-153.947082
 30
850.0
 70
    64
  0
VERTEX
  5
2D
  8
TEAM-NET
 10
191.019348
 20
-165.741171
 30
850.0
 70
    64
  0
VERTEX
  5
2E
  8
TEAM-NET
 10
194.342309
 20
-177.765828
 30
850.0
 70
    64
  0
VERTEX
  5
2F
  8
TEAM-NET
 10
196.909111
 20
-189.974267
 30
850.0
 70
    64
  0
VERTEX
  5
30
  8
TEAM-NET
 10
198.709767
 20
-202.318986
 30
850.0
 70
    64
  0
VERTEX
  5
31
  8
TEAM-NET
 10
199.737271
 20
-214.751953
 30
850.0
 70
    64
  0
VERTEX
  5
32
  8
TEAM-NET
 10
199.987625
 20
-227.224795
 30
850.0
 70
    64
  0
VERTEX
  5
33
  8
TEAM-NET
 10
199.459855
 20
-239.688979
 30
850.0
 70
    64
  0
VERTEX
  5
34
  8
TEAM-NET
 10
198.156015
 20
-252.096012
 30
850.0
 70
    64
  0
VERTEX
  5
35
  8
TEAM-NET
 10
196.081176
 20
-264.397617
 30
850.0
 70
    64
  0
VERTEX
  5
36
  8
TEAM-NET
 10
193.243414
 20
-276.545932
 30
850.0
 70
    64
  0
VERTEX
  5
37
  8
TEAM-NET
 10
189.653768
 20
-288.493688
 30
850.0
 70
    64
  0
VERTEX
  5
38
  8
TEAM-NET
 10
185.326205
 20
-300.1944
 30
850.0
 70
    64
  0
VERTEX
  5
39
  8
TEAM-NET
 10
180.277564
 20
-311.60254
 30
850.0
 70
    64
  0
VERTEX
  5
3A
  8
TEAM-NET
 10
174.527488
 20
-322.673722
 30
850.0
 70
    64
  0
VERTEX
  5
3B
  8
TEAM-NET
 10
168.098349
 20
-333.36487
 30
850.0
 70
    64
  0
VERTEX
  5
3C
  8
TEAM-NET
 10
161.015164
 20
-343.634384
 30
850.0
 70
    64
  0
VERTEX
  5
3D
  8
TEAM-NET
 10
153.30549
 20
-353.442309
 30
850.0
 70
    64
  0
VERTEX
  5
3E
  8
TEAM-NET
 10
144.999326
 20
-362.750482
 30
850.0
 70
    64
  0
VERTEX
  5
3F
  8
TEAM-NET
 10
136.12899
 20
-371.522687
 30
850.0
 70
    64
  0
VERTEX
  5
40
  8
TEAM-NET
 10
126.728995
 20
-379.724793
 30
850.0
 70
    64
  0
VERTEX
  5
41
  8
TEAM-NET
 10
116.835916
 20
-387.324887
 30
850.0
 70
    64
  0
VERTEX
  5
42
  8
TEAM-NET
 10
106.488243
 20
-394.293396
 30
850.0
 70
    64
  0
VERTEX
  5
43
  8
TEAM-NET
 10
95.72624
 20
-400.603209
 30
850.0
 70
    64
  0
VERTEX
  5
44
  8
TEAM-NET
 10
84.591779
 20
-406.229774
 30
850.0
 70
    64
  0
VERTEX
  5
45
  8
TEAM-NET
 10
73.128184
 20
-411.151199
 30
850.0
 70
    64
  0
VERTEX
  5
46
  8
TEAM-NET
 10
61.380056
 20
-415.348335
 30
850.0
 70
    64
  0
VERTEX
  5
47
  8
TEAM-NET
 10
49.393108
 20
-418.804853
 30
850.0
 70
    64
  0
VERTEX
  5
48
  8
TEAM-NET
 10
37.213978
 20
-421.507302
 30
850.0
 70
    64
  0
VERTEX
  5
49
  8
TEAM-NET
 10
24.890053
 20
-423.445169
 30
850.0
 70
    64
  0
VERTEX
  5
4A
  8
TEAM-NET
 10
12.469285
 20
-424.610914
 30
850.0
 70
    64
  0
VERTEX
  5
4B
  8
TEAM-NET
 10
0.0
 20
-425.0
 30
850.0
 70
    64
  0
VERTEX
  5
4C
  8
TEAM-NET
 10
0.0
 20
-100.0
 30
850.0
 70
    64
  0
VERTEX
  5
4D
  8
TEAM-NET
 10
155.530847
 20
-100.0
 30
836.392814
 70
    64
  0
VERTEX
  5
4E
  8
TEAM-NET
 10
162.99192
 20
-109.977011
 30
835.740055
 70
    64
  0
VERTEX
  5
4F
  8
TEAM-NET
 10
169.818814
 20
-120.401561
 30
835.142779
 70
    64
  0
VERTEX
  5
50
  8
TEAM-NET
 10
175.984966
 20
-131.233088
 30
834.603311
 70
    64
  0
VERTEX
  5
51
  8
TEAM-NET
 10
181.466385
 20
-142.42945
 30
834.123749
 70
    64
  0
VERTEX
  5
52
  8
TEAM-NET
 10
186.241744
 20
-153.947082
 30
833.705959
 70
    64
  0
VERTEX
  5
53
  8
TEAM-NET
 10
190.292461
 20
-165.741171
 30
833.351567
 70
    64
  0
VERTEX
  5
54
  8
TEAM-NET
 10
193.602778
 20
-177.765828
 30
833.061952
 70
    64
  0
VERTEX
  5
55
  8
TEAM-NET
 10
196.159812
 20
-189.974267
 30
832.83824
 70
    64
  0
VERTEX
  5
56
  8
TEAM-NET
 10
197.953617
 20
-202.318986
 30
832.681303
 70
    64
  0
VERTEX
  5
57
  8
TEAM-NET
 10
198.977211
 20
-214.751953
 30
832.59175
 70
    64
  0
VERTEX
  5
58
  8
TEAM-NET
 10
199.226612
 20
-227.224795
 30
832.56993
 70
    64
  0
VERTEX
  5
59
  8
TEAM-NET
 10
198.70085
 20
-239.688979
 30
832.615928
 70
    64
  0
VERTEX
  5
5A
  8
TEAM-NET
 10
197.401971
 20
-252.096012
 30
832.729565
 70
    64
  0
VERTEX
  5
5B
  8
TEAM-NET
 10
195.335028
 20
-264.397617
 30
832.910399
 70
    64
  0
VERTEX
  5
5C
  8
TEAM-NET
 10
192.508064
 20
-276.545932
 30
833.157727
 70
    64
  0
VERTEX
  5
5D
  8
TEAM-NET
 10
188.932078
 20
-288.493688
 30
833.470585
 70
    64
  0
VERTEX
  5
5E
  8
TEAM-NET
 10
184.620983
 20
-300.1944
 30
833.847757
 70
    64
  0
VERTEX
  5
5F
  8
TEAM-NET
 10
179.591553
 20
-311.60254
 30
834.287775
 70
    64
  0
VERTEX
  5
60
  8
TEAM-NET
 10
173.863358
 20
-322.673722
 30
834.788927
 70
    64
  0
VERTEX
  5
61
  8
TEAM-NET
 10
167.458684
 20
-333.36487
 30
835.349264
 70
    64
  0
VERTEX
  5
62
  8
TEAM-NET
 10
160.402452
 20
-343.634384
 30
835.966604
 70
    64
  0
VERTEX
  5
63
  8
TEAM-NET
 10
152.722117
 20
-353.442309
 30
836.638546
 70
    64
  0
VERTEX
  5
64
  8
TEAM-NET
 10
144.44756
 20
-362.750482
 30
837.362476
 70
    64
  0
VERTEX
  5
65
  8
TEAM-NET
 10
135.610979
 20
-371.522687
 30
838.135577
 70
    64
  0
VERTEX
  5
66
  8
TEAM-NET
 10
126.246753
 20
-379.724793
 30
838.95484
 70
    64
  0
VERTEX
  5
67
  8
TEAM-NET
 10
116.39132
 20
-387.324887
 30
839.817079
 70
    64
  0
VERTEX
  5
68
  8
TEAM-NET
 10
106.083023
 20
-394.293396
 30
840.718938
 70
    64
  0
VERTEX
  5
69
  8
TEAM-NET
 10
95.361973
 20
-400.603209
 30
841.656908
 70
    64
  0
VERTEX
  5
6A
  8
TEAM-NET
 10
84.269882
 20
-406.229774
 30
842.627341
 70
    64
  0
VERTEX
  5
6B
  8
TEAM-NET
 10
72.849909
 20
-411.151199
 30
843.626459
 70
    64
  0
VERTEX
  5
6C
  8
TEAM-NET
 10
61.146487
 20
-415.348335
 30
844.650376
 70
    64
  0
VERTEX
  5
6D
  8
TEAM-NET
 10
49.205152
 20
-418.804853
 30
845.695107
 70
    64
  0
VERTEX
  5
6E
  8
TEAM-NET
 10
37.072367
 20
-421.507302
 30
846.756588
 70
    64
  0
VERTEX
  5
6F
  8
TEAM-NET
 10
24.795339
 20
-423.445169
 30
847.830689
 70
    64
  0
VERTEX
  5
70
  8
TEAM-NET
 10
12.421835
 20
-424.610914
 30
848.91323
 70
    64
  0
VERTEX
  5
71
  8
TEAM-NET
 10
0.0
 20
-425.0
 30
850.0
 70
    64
  0
VERTEX
  5
72
  8
TEAM-NET
 10
0.0
 20
-100.0
 30
850.0
 70
    64
  0
VERTEX
  5
73
  8
TEAM-NET
 10
153.753061
 20
-100.0
 30
822.889187
 70
    64
  0
VERTEX
  5
74
  8
TEAM-NET
 10
161.12885
 20
-109.977011
 30
821.588636
 70
    64
  0
VERTEX
  5
75
  8
TEAM-NET
 10
167.87771
 20
-120.401561
 30
820.39863
 70
    64
  0
VERTEX
  5
76
  8
TEAM-NET
 10
173.97338
 20
-131.233088
 30
819.323799
 70
    64
  0
VERTEX
  5
77
  8
TEAM-NET
 10
179.392144
 20
-142.42945
 30
818.368325
 70
    64
  0
VERTEX
  5
78
  8
TEAM-NET
 10
184.112918
 20
-153.947082
 30
817.535925
 70
    64
  0
VERTEX
  5
79
  8
TEAM-NET
 10
188.117335
 20
-165.741171
 30
816.829838
 70
    64
  0
VERTEX
  5
7A
  8
TEAM-NET
 10
191.389812
 20
-177.765828
 30
816.252812
 70
    64
  0
VERTEX
  5
7B
  8
TEAM-NET
 10
193.917619
 20
-189.974267
 30
815.807092
 70
    64
  0
VERTEX
  5
7C
  8
TEAM-NET
 10
195.690919
 20
-202.318986
 30
815.494411
 70
    64
  0
VERTEX
  5
7D
  8
TEAM-NET
 10
196.702813
 20
-214.751953
 30
815.315987
 70
    64
  0
VERTEX
  5
7E
  8
TEAM-NET
 10
196.949364
 20
-227.224795
 30
815.272513
 70
    64
  0
VERTEX
  5
7F
  8
TEAM-NET
 10
196.429612
 20
-239.688979
 30
815.36416
 70
    64
  0
VERTEX
  5
80
  8
TEAM-NET
 10
195.14558
 20
-252.096012
 30
815.590569
 70
    64
  0
VERTEX
  5
81
  8
TEAM-NET
 10
193.102263
 20
-264.397617
 30
815.950861
 70
    64
  0
VERTEX
  5
82
  8
TEAM-NET
 10
190.307612
 20
-276.545932
 30
816.443633
 70
    64
  0
VERTEX
  5
83
  8
TEAM-NET
 10
186.772501
 20
-288.493688
 30
817.066969
 70
    64
  0
VERTEX
  5
84
  8
TEAM-NET
 10
182.510683
 20
-300.1944
 30
817.818442
 70
    64
  0
VERTEX
  5
85
  8
TEAM-NET
 10
177.538742
 20
-311.60254
 30
818.69513
 70
    64
  0
VERTEX
  5
86
  8
TEAM-NET
 10
171.876023
 20
-322.673722
 30
819.69362
 70
    64
  0
VERTEX
  5
87
  8
TEAM-NET
 10
165.544558
 20
-333.36487
 30
820.810028
 70
    64
  0
VERTEX
  5
88
  8
TEAM-NET
 10
158.568981
 20
-343.634384
 30
822.04001
 70
    64
  0
VERTEX
  5
89
  8
TEAM-NET
 10
150.976435
 20
-353.442309
 30
823.378781
 70
    64
  0
VERTEX
  5
8A
  8
TEAM-NET
 10
142.796461
 20
-362.750482
 30
824.821131
 70
    64
  0
VERTEX
  5
8B
  8
TEAM-NET
 10
134.060885
 20
-371.522687
 30
826.361449
 70
    64
  0
VERTEX
  5
8C
  8
TEAM-NET
 10
124.803697
 20
-379.724793
 30
827.993741
 70
    64
  0
VERTEX
  5
8D
  8
TEAM-NET
 10
115.060915
 20
-387.324887
 30
829.711656
 70
    64
  0
VERTEX
  5
8E
  8
TEAM-NET
 10
104.870448
 20
-394.293396
 30
831.508511
 70
    64
  0
VERTEX
  5
8F
  8
TEAM-NET
 10
94.271943
 20
-400.603209
 30
833.377313
 70
    64
  0
VERTEX
  5
90
  8
TEAM-NET
 10
83.30664
 20
-406.229774
 30
835.310792
 70
    64
  0
VERTEX
  5
91
  8
TEAM-NET
 10
72.017202
 20
-411.151199
 30
837.301424
 70
    64
  0
VERTEX
  5
92
  8
TEAM-NET
 10
60.447555
 20
-415.348335
 30
839.341465
 70
    64
  0
VERTEX
  5
93
  8
TEAM-NET
 10
48.642716
 20
-418.804853
 30
841.422977
 70
    64
  0
VERTEX
  5
94
  8
TEAM-NET
 10
36.648614
 20
-421.507302
 30
843.537861
 70
    64
  0
VERTEX
  5
95
  8
TEAM-NET
 10
24.511917
 20
-423.445169
 30
845.677888
 70
    64
  0
VERTEX
  5
96
  8
TEAM-NET
 10
12.279848
 20
-424.610914
 30
847.834731
 70
    64
  0
VERTEX
  5
97
  8
TEAM-NET
 10
0.0
 20
-425.0
 30
850.0
 70
    64
  0
VERTEX
  5
98
  8
TEAM-NET
 10
0.0
 20
-100.0
 30
850.0
 70
    64
  0
VERTEX
  5
99
  8
TEAM-NET
 10
150.805121
 20
-100.0
 30
809.59189
 70
    64
  0
VERTEX
  5
9A
  8
TEAM-NET
 10
158.039493
 20
-109.977011
 30
807.653445
 70
    64
  0
VERTEX
  5
9B
  8
TEAM-NET
 10
164.658955
 20
-120.401561
 30
805.879766
 70
    64
  0
VERTEX
  5
9C
  8
TEAM-NET
 10
170.637752
 20
-131.233088
 30
804.277752
 70
    64
  0
VERTEX
  5
9D
  8
TEAM-NET
 10
175.952621
 20
-142.42945
 30
802.853637
 70
    64
  0
VERTEX
  5
9E
  8
TEAM-NET
 10
180.582882
 20
-153.947082
 30
801.612962
 70
    64
  0
VERTEX
  5
9F
  8
TEAM-NET
 10
184.510521
 20
-165.741171
 30
800.560555
 70
    64
  0
VERTEX
  5
A0
  8
TEAM-NET
 10
187.720255
 20
-177.765828
 30
799.700509
 70
    64
  0
VERTEX
  5
A1
  8
TEAM-NET
 10
190.199596
 20
-189.974267
 30
799.036172
 70
    64
  0
VERTEX
  5
A2
  8
TEAM-NET
 10
191.938896
 20
-202.318986
 30
798.570128
 70
    64
  0
VERTEX
  5
A3
  8
TEAM-NET
 10
192.931389
 20
-214.751953
 30
798.30419
 70
    64
  0
VERTEX
  5
A4
  8
TEAM-NET
 10
193.173212
 20
-227.224795
 30
798.239394
 70
    64
  0
VERTEX
  5
A5
  8
TEAM-NET
 10
192.663426
 20
-239.688979
 30
798.375991
 70
    64
  0
VERTEX
  5
A6
  8
TEAM-NET
 10
191.404012
 20
-252.096012
 30
798.713449
 70
    64
  0
VERTEX
  5
A7
  8
TEAM-NET
 10
189.399872
 20
-264.397617
 30
799.250457
 70
    64
  0
VERTEX
  5
A8
  8
TEAM-NET
 10
186.658804
 20
-276.545932
 30
799.984924
 70
    64
  0
VERTEX
  5
A9
  8
TEAM-NET
 10
183.191472
 20
-288.493688
 30
800.913993
 70
    64
  0
VERTEX
  5
AA
  8
TEAM-NET
 10
179.011368
 20
-300.1944
 30
802.034049
 70
    64
  0
VERTEX
  5
AB
  8
TEAM-NET
 10
174.134755
 20
-311.60254
 30
803.340733
 70
    64
  0
VERTEX
  5
AC
  8
TEAM-NET
 10
168.580608
 20
-322.673722
 30
804.828962
 70
    64
  0
VERTEX
  5
AD
  8
TEAM-NET
 10
162.370537
 20
-333.36487
 30
806.492946
 70
    64
  0
VERTEX
  5
AE
  8
TEAM-NET
 10
155.528705
 20
-343.634384
 30
808.326209
 70
    64
  0
VERTEX
  5
AF
  8
TEAM-NET
 10
148.081732
 20
-353.442309
 30
810.321619
 70
    64
  0
VERTEX
  5
B0
  8
TEAM-NET
 10
140.058594
 20
-362.750482
 30
812.471413
 70
    64
  0
VERTEX
  5
B1
  8
TEAM-NET
 10
131.490508
 20
-371.522687
 30
814.767225
 70
    64
  0
VERTEX
  5
B2
  8
TEAM-NET
 10
122.41081
 20
-379.724793
 30
817.200122
 70
    64
  0
VERTEX
  5
B3
  8
TEAM-NET
 10
112.854828
 20
-387.324887
 30
819.76064
 70
    64
  0
VERTEX
  5
B4
  8
TEAM-NET
 10
102.859744
 20
-394.293396
 30
822.438815
 70
    64
  0
VERTEX
  5
B5
  8
TEAM-NET
 10
92.464448
 20
-400.603209
 30
825.224226
 70
    64
  0
VERTEX
  5
B6
  8
TEAM-NET
 10
81.709384
 20
-406.229774
 30
828.106036
 70
    64
  0
VERTEX
  5
B7
  8
TEAM-NET
 10
70.636401
 20
-411.151199
 30
831.073033
 70
    64
  0
VERTEX
  5
B8
  8
TEAM-NET
 10
59.288582
 20
-415.348335
 30
834.113672
 70
    64
  0
VERTEX
  5
B9
  8
TEAM-NET
 10
47.710079
 20
-418.804853
 30
837.216123
 70
    64
  0
VERTEX
  5
BA
  8
TEAM-NET
 10
35.945942
 20
-421.507302
 30
840.368314
 70
    64
  0
VERTEX
  5
BB
  8
TEAM-NET
 10
24.041945
 20
-423.445169
 30
843.55798
 70
    64
  0
VERTEX
  5
BC
  8
TEAM-NET
 10
12.044404
 20
-424.610914
 30
846.772712
 70
    64
  0
VERTEX
  5
BD
  8
TEAM-NET
 10
0.0
 20
-425.0
 30
850.0
 70
    64
  0
VERTEX
  5
BE
  8
TEAM-NET
 10
0.0
 20
-100.0
 30
850.0
 70
    64
  0
VERTEX
  5
BF
  8
TEAM-NET
 10
146.709463
 20
-100.0
 30
796.602122
 70
    64
  0
VERTEX
  5
C0
  8
TEAM-NET
 10
153.74736
 20
-109.977011
 30
794.040538
 70
    64
  0
VERTEX
  5
C1
  8
TEAM-NET
 10
160.187046
 20
-120.401561
 30
791.696683
 70
    64
  0
VERTEX
  5
C2
  8
TEAM-NET
 10
166.003467
 20
-131.233088
 30
789.579679
 70
    64
  0
VERTEX
  5
C3
  8
TEAM-NET
 10
171.173992
 20
-142.42945
 30
787.697762
 70
    64
  0
VERTEX
  5
C4
  8
TEAM-NET
 10
175.678502
 20
-153.947082
 30
786.058255
 70
    64
  0
VERTEX
  5
C5
  8
TEAM-NET
 10
179.499471
 20
-165.741171
 30
784.667535
 70
    64
  0
VERTEX
  5
C6
  8
TEAM-NET
 10
182.622034
 20
-177.765828
 30
783.531016
 70
    64
  0
VERTEX
  5
C7
  8
TEAM-NET
 10
185.034039
 20
-189.974267
 30
782.653118
 70
    64
  0
VERTEX
  5
C8
  8
TEAM-NET
 10
186.726102
 20
-202.318986
 30
782.037257
 70
    64
  0
VERTEX
  5
C9
  8
TEAM-NET
 10
187.69164
 20
-214.751953
 30
781.68583
 70
    64
  0
VERTEX
  5
CA
  8
TEAM-NET
 10
187.926896
 20
-227.224795
 30
781.600204
 70
    64
  0
VERTEX
  5
CB
  8
TEAM-NET
 10
187.430954
 20
-239.688979
 30
781.780712
 70
    64
  0
VERTEX
  5
CC
  8
TEAM-NET
 10
186.205745
 20
-252.096012
 30
782.226651
 70
    64
  0
VERTEX
  5
CD
  8
TEAM-NET
 10
184.256035
 20
-264.397617
 30
782.936288
 70
    64
  0
VERTEX
  5
CE
  8
TEAM-NET
 10
181.58941
 20
-276.545932
 30
783.90686
 70
    64
  0
VERTEX
  5
CF
  8
TEAM-NET
 10
178.216246
 20
-288.493688
 30
785.134591
 70
    64
  0
VERTEX
  5
D0
  8
TEAM-NET
 10
174.149667
 20
-300.1944
 30
786.614705
 70
    64
  0
VERTEX
  5
D1
  8
TEAM-NET
 10
169.405496
 20
-311.60254
 30
788.341442
 70
    64
  0
VERTEX
  5
D2
  8
TEAM-NET
 10
164.002192
 20
-322.673722
 30
790.308084
 70
    64
  0
VERTEX
  5
D3
  8
TEAM-NET
 10
157.960778
 20
-333.36487
 30
792.506978
 70
    64
  0
VERTEX
  5
D4
  8
TEAM-NET
 10
151.304761
 20
-343.634384
 30
794.929571
 70
    64
  0
VERTEX
  5
D5
  8
TEAM-NET
 10
144.060038
 20
-353.442309
 30
797.566434
 70
    64
  0
VERTEX
  5
D6
  8
TEAM-NET
 10
136.254797
 20
-362.750482
 30
800.40731
 70
    64
  0
VERTEX
  5
D7
  8
TEAM-NET
 10
127.919408
 20
-371.522687
 30
803.441143
 70
    64
  0
VERTEX
  5
D8
  8
TEAM-NET
 10
119.086302
 20
-379.724793
 30
806.656131
 70
    64
  0
VERTEX
  5
D9
  8
TEAM-NET
 10
109.789848
 20
-387.324887
 30
810.039763
 70
    64
  0
VERTEX
  5
DA
  8
TEAM-NET
 10
100.066216
 20
-394.293396
 30
813.578876
 70
    64
  0
VERTEX
  5
DB
  8
TEAM-NET
 10
89.953241
 20
-400.603209
 30
817.259698
 70
    64
  0
VERTEX
  5
DC
  8
TEAM-NET
 10
79.490271
 20
-406.229774
 30
821.067908
 70
    64
  0
VERTEX
  5
DD
  8
TEAM-NET
 10
68.718015
 20
-411.151199
 30
824.988688
 70
    64
  0
VERTEX
  5
DE
  8
TEAM-NET
 10
57.678386
 20
-415.348335
 30
829.006784
 70
    64
  0
VERTEX
  5
DF
  8
TEAM-NET
 10
46.414339
 20
-418.804853
 30
833.106562
 70
    64
  0
VERTEX
  5
E0
  8
TEAM-NET
 10
34.9697
 20
-421.507302
 30
837.27207
 70
    64
  0
VERTEX
  5
E1
  8
TEAM-NET
 10
23.388999
 20
-423.445169
 30
841.4871
 70
    64
  0
VERTEX
  5
E2
  8
TEAM-NET
 10
11.717295
 20
-424.610914
 30
845.735253
 70
    64
  0
VERTEX
  5
E3
  8
TEAM-NET
 10
0.0
 20
-425.0
 30
850.0
 70
    64
  0
VERTEX
  5
E4
  8
TEAM-NET
 10
0.0
 20
-100.0
 30
850.0
 70
    64
  0
VERTEX
  5
E5
  8
TEAM-NET
 10
141.497258
 20
-100.0
 30
784.018745
 70
    64
  0
VERTEX
  5
E6
  8
TEAM-NET
 10
148.285116
 20
-109.977011
 30
780.853515
 70
    64
  0
VERTEX
  5
E7
  8
TEAM-NET
 10
154.496017
 20
-120.401561
 30
777.957324
 70
    64
  0
VERTEX
  5
E8
  8
TEAM-NET
 10
160.105796
 20
-131.233088
 30
775.341441
 70
    64
  0
VERTEX
  5
E9
  8
TEAM-NET
 10
165.092625
 20
-142.42945
 30
773.016045
 70
    64
  0
VERTEX
  5
EA
  8
TEAM-NET
 10
169.437102
 20
-153.947082
 30
770.990182
 70
    64
  0
VERTEX
  5
EB
  8
TEAM-NET
 10
173.122322
 20
-165.741171
 30
769.271735
 70
    64
  0
VERTEX
  5
EC
  8
TEAM-NET
 10
176.133948
 20
-177.765828
 30
767.867391
 70
    64
  0
VERTEX
  5
ED
  8
TEAM-NET
 10
178.460261
 20
-189.974267
 30
766.782614
 70
    64
  0
VERTEX
  5
EE
  8
TEAM-NET
 10
180.092209
 20
-202.318986
 30
766.021624
 70
    64
  0
VERTEX
  5
EF
  8
TEAM-NET
 10
181.023444
 20
-214.751953
 30
765.587382
 70
    64
  0
VERTEX
  5
F0
  8
TEAM-NET
 10
181.250342
 20
-227.224795
 30
765.481577
 70
    64
  0
VERTEX
  5
F1
  8
TEAM-NET
 10
180.77202
 20
-239.688979
 30
765.704623
 70
    64
  0
VERTEX
  5
F2
  8
TEAM-NET
 10
179.590339
 20
-252.096012
 30
766.25565
 70
    64
  0
VERTEX
  5
F3
  8
TEAM-NET
 10
177.709897
 20
-264.397617
 30
767.132514
 70
    64
  0
VERTEX
  5
F4
  8
TEAM-NET
 10
175.138011
 20
-276.545932
 30
768.331804
 70
    64
  0
VERTEX
  5
F5
  8
TEAM-NET
 10
171.884686
 20
-288.493688
 30
769.848854
 70
    64
  0
VERTEX
  5
F6
  8
TEAM-NET
 10
167.962583
 20
-300.1944
 30
771.677761
 70
    64
  0
VERTEX
  5
F7
  8
TEAM-NET
 10
163.38696
 20
-311.60254
 30
773.811409
 70
    64
  0
VERTEX
  5
F8
  8
TEAM-NET
 10
158.175621
 20
-322.673722
 30
776.241497
 70
    64
  0
VERTEX
  5
F9
  8
TEAM-NET
 10
152.348843
 20
-333.36487
 30
778.958568
 70
    64
  0
VERTEX
  5
FA
  8
TEAM-NET
 10
145.929297
 20
-343.634384
 30
781.952051
 70
    64
  0
VERTEX
  5
FB
  8
TEAM-NET
 10
138.94196
 20
-353.442309
 30
785.2103
 70
    64
  0
VERTEX
  5
FC
  8
TEAM-NET
 10
131.414019
 20
-362.750482
 30
788.720637
 70
    64
  0
VERTEX
  5
FD
  8
TEAM-NET
 10
123.374764
 20
-371.522687
 30
792.469403
 70
    64
  0
VERTEX
  5
FE
  8
TEAM-NET
 10
114.855475
 20
-379.724793
 30
796.442012
 70
    64
  0
VERTEX
  5
FF
  8
TEAM-NET
 10
105.8893
 20
-387.324887
 30
800.623008
 70
    64
  0
VERTEX
  5
100
  8
TEAM-NET
 10
96.511124
 20
-394.293396
 30
804.996124
 70
    64
  0
VERTEX
  5
101
  8
TEAM-NET
 10
86.757437
 20
-400.603209
 30
809.544343
 70
    64
  0
VERTEX
  5
102
  8
TEAM-NET
 10
76.666188
 20
-406.229774
 30
814.249969
 70
    64
  0
VERTEX
  5
103
  8
TEAM-NET
 10
66.276642
 20
-411.151199
 30
819.094694
 70
    64
  0
VERTEX
  5
104
  8
TEAM-NET
 10
55.629223
 20
-415.348335
 30
824.059667
 70
    64
  0
VERTEX
  5
105
  8
TEAM-NET
 10
44.765358
 20
-418.804853
 30
829.125571
 70
    64
  0
VERTEX
  5
106
  8
TEAM-NET
 10
33.727318
 20
-421.507302
 30
834.272693
 70
    64
  0
VERTEX
  5
107
  8
TEAM-NET
 10
22.558049
 20
-423.445169
 30
839.481009
 70
    64
  0
VERTEX
  5
108
  8
TEAM-NET
 10
11.30101
 20
-424.610914
 30
844.730253
 70
    64
  0
VERTEX
  5
109
  8
TEAM-NET
 10
0.0
 20
-425.0
 30
850.0
 70
    64
  0
VERTEX
  5
10A
  8
TEAM-NET
 10
0.0
 20
-100.0
 30
850.0
 70
    64
  0
VERTEX
  5
10B
  8
TEAM-NET
 10
135.208173
 20
-100.0
 30
771.937525
 70
    64
  0
VERTEX
  5
10C
  8
TEAM-NET
 10
141.694333
 20
-109.977011
 30
768.192739
 70
    64
  0
VERTEX
  5
10D
  8
TEAM-NET
 10
147.62918
 20
-120.401561
 30
764.766253
 70
    64
  0
VERTEX
  5
10E
  8
TEAM-NET
 10
152.989623
 20
-131.233088
 30
761.6714
 70
    64
  0
VERTEX
  5
10F
  8
TEAM-NET
 10
157.754804
 20
-142.42945
 30
758.920221
 70
    64
  0
VERTEX
  5
110
  8
TEAM-NET
 10
161.906183
 20
-153.947082
 30
756.523422
 70
    64
  0
VERTEX
  5
111
  8
TEAM-NET
 10
165.427608
 20
-165.741171
 30
754.490326
 70
    64
  0
VERTEX
  5
112
  8
TEAM-NET
 10
168.305376
 20
-177.765828
 30
752.828846
 70
    64
  0
VERTEX
  5
113
  8
TEAM-NET
 10
170.528292
 20
-189.974267
 30
751.545444
 70
    64
  0
VERTEX
  5
114
  8
TEAM-NET
 10
172.087706
 20
-202.318986
 30
750.645116
 70
    64
  0
VERTEX
  5
115
  8
TEAM-NET
 10
172.977551
 20
-214.751953
 30
750.131364
 70
    64
  0
VERTEX
  5
116
  8
TEAM-NET
 10
173.194364
 20
-227.224795
 30
750.006187
 70
    64
  0
VERTEX
  5
117
  8
TEAM-NET
 10
172.737302
 20
-239.688979
 30
750.270072
 70
    64
  0
VERTEX
  5
118
  8
TEAM-NET
 10
171.608143
 20
-252.096012
 30
750.921993
 70
    64
  0
VERTEX
  5
119
  8
TEAM-NET
 10
169.81128
 20
-264.397617
 30
751.959412
 70
    64
  0
VERTEX
  5
11A
  8
TEAM-NET
 10
167.353705
 20
-276.545932
 30
753.378293
 70
    64
  0
VERTEX
  5
11B
  8
TEAM-NET
 10
164.244981
 20
-288.493688
 30
755.173116
 70
    64
  0
VERTEX
  5
11C
  8
TEAM-NET
 10
160.497201
 20
-300.1944
 30
757.336898
 70
    64
  0
VERTEX
  5
11D
  8
TEAM-NET
 10
156.12495
 20
-311.60254
 30
759.861218
 70
    64
  0
VERTEX
  5
11E
  8
TEAM-NET
 10
151.145238
 20
-322.673722
 30
762.736256
 70
    64
  0
VERTEX
  5
11F
  8
TEAM-NET
 10
145.577441
 20
-333.36487
 30
765.950825
 70
    64
  0
VERTEX
  5
120
  8
TEAM-NET
 10
139.443222
 20
-343.634384
 30
769.492418
 70
    64
  0
VERTEX
  5
121
  8
TEAM-NET
 10
132.766449
 20
-353.442309
 30
773.347255
 70
    64
  0
VERTEX
  5
122
  8
TEAM-NET
 10
125.5731
 20
-362.750482
 30
777.500337
 70
    64
  0
VERTEX
  5
123
  8
TEAM-NET
 10
117.891164
 20
-371.522687
 30
781.935505
 70
    64
  0
VERTEX
  5
124
  8
TEAM-NET
 10
109.750529
 20
-379.724793
 30
786.635502
 70
    64
  0
VERTEX
  5
125
  8
TEAM-NET
 10
101.182871
 20
-387.324887
 30
791.582042
 70
    64
  0
VERTEX
  5
126
  8
TEAM-NET
 10
92.221524
 20
-394.293396
 30
796.755878
 70
    64
  0
VERTEX
  5
127
  8
TEAM-NET
 10
82.901356
 20
-400.603209
 30
802.13688
 70
    64
  0
VERTEX
  5
128
  8
TEAM-NET
 10
73.25863
 20
-406.229774
 30
807.70411
 70
    64
  0
VERTEX
  5
129
  8
TEAM-NET
 10
63.330865
 20
-411.151199
 30
813.435908
 70
    64
  0
VERTEX
  5
12A
  8
TEAM-NET
 10
53.156688
 20
-415.348335
 30
819.309972
 70
    64
  0
VERTEX
  5
12B
  8
TEAM-NET
 10
42.775686
 20
-418.804853
 30
825.303446
 70
    64
  0
VERTEX
  5
12C
  8
TEAM-NET
 10
32.22825
 20
-421.507302
 30
831.393011
 70
    64
  0
VERTEX
  5
12D
  8
TEAM-NET
 10
21.555418
 20
-423.445169
 30
837.554973
 70
    64
  0
VERTEX
  5
12E
  8
TEAM-NET
 10
10.798717
 20
-424.610914
 30
843.765358
 70
    64
  0
VERTEX
  5
12F
  8
TEAM-NET
 10
0.0
 20
-425.0
 30
850.0
 70
    64
  0
VERTEX
  5
130
  8
TEAM-NET
 10
0.0
 20
-100.0
 30
850.0
 70
    64
  0
VERTEX
  5
131
  8
TEAM-NET
 10
127.890072
 20
-100.0
 30
760.450408
 70
    64
  0
VERTEX
  5
132
  8
TEAM-NET
 10
134.025171
 20
-109.977011
 30
756.154565
 70
    64
  0
VERTEX
  5
133
  8
TEAM-NET
 10
139.638796
 20
-120.401561
 30
752.223862
 70
    64
  0
VERTEX
  5
134
  8
TEAM-NET
 10
144.709106
 20
-131.233088
 30
748.673593
 70
    64
  0
VERTEX
  5
135
  8
TEAM-NET
 10
149.216374
 20
-142.42945
 30
745.51757
 70
    64
  0
VERTEX
  5
136
  8
TEAM-NET
 10
153.143061
 20
-153.947082
 30
742.768075
 70
    64
  0
VERTEX
  5
137
  8
TEAM-NET
 10
156.473889
 20
-165.741171
 30
740.435803
 70
    64
  0
VERTEX
  5
138
  8
TEAM-NET
 10
159.1959
 20
-177.765828
 30
738.529831
 70
    64
  0
VERTEX
  5
139
  8
TEAM-NET
 10
161.298501
 20
-189.974267
 30
737.057574
 70
    64
  0
VERTEX
  5
13A
  8
TEAM-NET
 10
162.773512
 20
-202.318986
 30
736.02476
 70
    64
  0
VERTEX
  5
13B
  8
TEAM-NET
 10
163.615194
 20
-214.751953
 30
735.435408
 70
    64
  0
VERTEX
  5
13C
  8
TEAM-NET
 10
163.820272
 20
-227.224795
 30
735.291811
 70
    64
  0
VERTEX
  5
13D
  8
TEAM-NET
 10
163.387948
 20
-239.688979
 30
735.594527
 70
    64
  0
VERTEX
  5
13E
  8
TEAM-NET
 10
162.319905
 20
-252.096012
 30
736.342379
 70
    64
  0
VERTEX
  5
13F
  8
TEAM-NET
 10
160.620297
 20
-264.397617
 30
737.532458
 70
    64
  0
VERTEX
  5
140
  8
TEAM-NET
 10
158.295737
 20
-276.545932
 30
739.160131
 70
    64
  0
VERTEX
  5
141
  8
TEAM-NET
 10
155.355271
 20
-288.493688
 30
741.219068
 70
    64
  0
VERTEX
  5
142
  8
TEAM-NET
 10
151.81034
 20
-300.1944
 30
743.701256
 70
    64
  0
VERTEX
  5
143
  8
TEAM-NET
 10
147.674735
 20
-311.60254
 30
746.597037
 70
    64
  0
VERTEX
  5
144
  8
TEAM-NET
 10
142.964548
 20
-322.673722
 30
749.895146
 70
    64
  0
VERTEX
  5
145
  8
TEAM-NET
 10
137.698106
 20
-333.36487
 30
753.582748
 70
    64
  0
VERTEX
  5
146
  8
TEAM-NET
 10
131.8959
 20
-343.634384
 30
757.645496
 70
    64
  0
VERTEX
  5
147
  8
TEAM-NET
 10
125.580506
 20
-353.442309
 30
762.067583
 70
    64
  0
VERTEX
  5
148
  8
TEAM-NET
 10
118.776495
 20
-362.750482
 30
766.831803
 70
    64
  0
VERTEX
  5
149
  8
TEAM-NET
 10
111.510341
 20
-371.522687
 30
771.919619
 70
    64
  0
VERTEX
  5
14A
  8
TEAM-NET
 10
103.810316
 20
-379.724793
 30
777.311234
 70
    64
  0
VERTEX
  5
14B
  8
TEAM-NET
 10
95.706379
 20
-387.324887
 30
782.985672
 70
    64
  0
VERTEX
  5
14C
  8
TEAM-NET
 10
87.230062
 20
-394.293396
 30
788.920853
 70
    64
  0
VERTEX
  5
14D
  8
TEAM-NET
 10
78.414345
 20
-400.603209
 30
795.093684
 70
    64
  0
VERTEX
  5
14E
  8
TEAM-NET
 10
69.293529
 20
-406.229774
 30
801.480149
 70
    64
  0
VERTEX
  5
14F
  8
TEAM-NET
 10
59.903101
 20
-411.151199
 30
808.055397
 70
    64
  0
VERTEX
  5
150
  8
TEAM-NET
 10
50.279599
 20
-415.348335
 30
814.793846
 70
    64
  0
VERTEX
  5
151
  8
TEAM-NET
 10
40.460465
 20
-418.804853
 30
821.669277
 70
    64
  0
VERTEX
  5
152
  8
TEAM-NET
 10
30.483906
 20
-421.507302
 30
828.654939
 70
    64
  0
VERTEX
  5
153
  8
TEAM-NET
 10
20.388738
 20
-423.445169
 30
835.723652
 70
    64
  0
VERTEX
  5
154
  8
TEAM-NET
 10
10.21424
 20
-424.610914
 30
842.847912
 70
    64
  0
VERTEX
  5
155
  8
TEAM-NET
 10
0.0
 20
-425.0
 30
850.0
 70
    64
  0
VERTEX
  5
156
  8
TEAM-NET
 10
0.0
 20
-100.0
 30
850.0
 70
    64
  0
VERTEX
  5
157
  8
TEAM-NET
 10
119.59865
 20
-100.0
 30
749.644817
 70
    64
  0
VERTEX
  5
158
  8
TEAM-NET
 10
125.335996
 20
-109.977011
 30
744.830612
 70
    64
  0
VERTEX
  5
159
  8
TEAM-NET
 10
130.585676
 20
-120.401561
 30
740.425607
 70
    64
  0
VERTEX
  5
15A
  8
TEAM-NET
 10
135.327266
 20
-131.233088
 30
736.446941
 70
    64
  0
VERTEX
  5
15B
  8
TEAM-NET
 10
139.542316
 20
-142.42945
 30
732.910094
 70
    64
  0
VERTEX
  5
15C
  8
TEAM-NET
 10
143.214427
 20
-153.947082
 30
729.828827
 70
    64
  0
VERTEX
  5
15D
  8
TEAM-NET
 10
146.32931
 20
-165.741171
 30
727.21513
 70
    64
  0
VERTEX
  5
15E
  8
TEAM-NET
 10
148.874846
 20
-177.765828
 30
725.079172
 70
    64
  0
VERTEX
  5
15F
  8
TEAM-NET
 10
150.84113
 20
-189.974267
 30
723.429263
 70
    64
  0
VERTEX
  5
160
  8
TEAM-NET
 10
152.220513
 20
-202.318986
 30
722.271824
 70
    64
  0
VERTEX
  5
161
  8
TEAM-NET
 10
153.007627
 20
-214.751953
 30
721.611357
 70
    64
  0
VERTEX
  5
162
  8
TEAM-NET
 10
153.199409
 20
-227.224795
 30
721.450432
 70
    64
  0
VERTEX
  5
163
  8
TEAM-NET
 10
152.795114
 20
-239.688979
 30
721.789676
 70
    64
  0
VERTEX
  5
164
  8
TEAM-NET
 10
151.796314
 20
-252.096012
 30
722.627769
 70
    64
  0
VERTEX
  5
165
  8
TEAM-NET
 10
150.206896
 20
-264.397617
 30
723.961449
 70
    64
  0
VERTEX
  5
166
  8
TEAM-NET
 10
148.033043
 20
-276.545932
 30
725.785528
 70
    64
  0
VERTEX
  5
167
  8
TEAM-NET
 10
145.283215
 20
-288.493688
 30
728.092908
 70
    64
  0
VERTEX
  5
168
  8
TEAM-NET
 10
141.968109
 20
-300.1944
 30
730.874612
 70
    64
  0
VERTEX
  5
169
  8
TEAM-NET
 10
138.100626
 20
-311.60254
 30
734.119816
 70
    64
  0
VERTEX
  5
16A
  8
TEAM-NET
 10
133.695812
 20
-322.673722
 30
737.815893
 70
    64
  0
VERTEX
  5
16B
  8
TEAM-NET
 10
128.770806
 20
-333.36487
 30
741.948464
 70
    64
  0
VERTEX
  5
16C
  8
TEAM-NET
 10
123.344771
 20
-343.634384
 30
746.501448
 70
    64
  0
VERTEX
  5
16D
  8
TEAM-NET
 10
117.438819
 20
-353.442309
 30
751.45713
 70
    64
  0
VERTEX
  5
16E
  8
TEAM-NET
 10
111.075928
 20
-362.750482
 30
756.79623
 70
    64
  0
VERTEX
  5
16F
  8
TEAM-NET
 10
104.280857
 20
-371.522687
 30
762.497972
 70
    64
  0
VERTEX
  5
170
  8
TEAM-NET
 10
97.080043
 20
-379.724793
 30
768.540172
 70
    64
  0
VERTEX
  5
171
  8
TEAM-NET
 10
89.501504
 20
-387.324887
 30
774.899321
 70
    64
  0
VERTEX
  5
172
  8
TEAM-NET
 10
81.574727
 20
-394.293396
 30
781.550677
 70
    64
  0
VERTEX
  5
173
  8
TEAM-NET
 10
73.330554
 20
-400.603209
 30
788.468359
 70
    64
  0
VERTEX
  5
174
  8
TEAM-NET
 10
64.801062
 20
-406.229774
 30
795.625452
 70
    64
  0
VERTEX
  5
175
  8
TEAM-NET
 10
56.019439
 20
-411.151199
 30
802.99411
 70
    64
  0
VERTEX
  5
176
  8
TEAM-NET
 10
47.019851
 20
-415.348335
 30
810.54566
 70
    64
  0
VERTEX
  5
177
  8
TEAM-NET
 10
37.837316
 20
-418.804853
 30
818.250722
 70
    64
  0
VERTEX
  5
178
  8
TEAM-NET
 10
28.507561
 20
-421.507302
 30
826.079316
 70
    64
  0
VERTEX
  5
179
  8
TEAM-NET
 10
19.066887
 20
-423.445169
 30
834.000982
 70
    64
  0
VERTEX
  5
17A
  8
TEAM-NET
 10
9.552026
 20
-424.610914
 30
841.984898
 70
    64
  0
VERTEX
  5
17B
  8
TEAM-NET
 10
0.0
 20
-425.0
 30
850.0
 70
    64
  0
VERTEX
  5
17C
  8
TEAM-NET
 10
0.0
 20
-100.0
 30
850.0
 70
    64
  0
VERTEX
  5
17D
  8
TEAM-NET
 10
110.397011
 20
-100.0
 30
739.602989
 70
    64
  0
VERTEX
  5
17E
  8
TEAM-NET
 10
115.692938
 20
-109.977011
 30
734.307062
 70
    64
  0
VERTEX
  5
17F
  8
TEAM-NET
 10
120.538721
 20
-120.401561
 30
729.461279
 70
    64
  0
VERTEX
  5
180
  8
TEAM-NET
 10
124.915504
 20
-131.233088
 30
725.084496
 70
    64
  0
VERTEX
  5
181
  8
TEAM-NET
 10
128.806258
 20
-142.42945
 30
721.193742
 70
    64
  0
VERTEX
  5
182
  8
TEAM-NET
 10
132.195845
 20
-153.947082
 30
717.804155
 70
    64
  0
VERTEX
  5
183
  8
TEAM-NET
 10
135.071076
 20
-165.741171
 30
714.928924
 70
    64
  0
VERTEX
  5
184
  8
TEAM-NET
 10
137.420764
 20
-177.765828
 30
712.579236
 70
    64
  0
VERTEX
  5
185
  8
TEAM-NET
 10
139.235768
 20
-189.974267
 30
710.764232
 70
    64
  0
VERTEX
  5
186
  8
TEAM-NET
 10
140.509024
 20
-202.318986
 30
709.490976
 70
    64
  0
VERTEX
  5
187
  8
TEAM-NET
 10
141.235579
 20
-214.751953
 30
708.764421
 70
    64
  0
VERTEX
  5
188
  8
TEAM-NET
 10
141.412606
 20
-227.224795
 30
708.587394
 70
    64
  0
VERTEX
  5
189
  8
TEAM-NET
 10
141.039416
 20
-239.688979
 30
708.960584
 70
    64
  0
VERTEX
  5
18A
  8
TEAM-NET
 10
140.117462
 20
-252.096012
 30
709.882538
 70
    64
  0
VERTEX
  5
18B
  8
TEAM-NET
 10
138.65033
 20
-264.397617
 30
711.34967
 70
    64
  0
VERTEX
  5
18C
  8
TEAM-NET
 10
136.643728
 20
-276.545932
 30
713.356272
 70
    64
  0
VERTEX
  5
18D
  8
TEAM-NET
 10
134.105465
 20
-288.493688
 30
715.894535
 70
    64
  0
VERTEX
  5
18E
  8
TEAM-NET
 10
131.045416
 20
-300.1944
 30
718.954584
 70
    64
  0
VERTEX
  5
18F
  8
TEAM-NET
 10
127.475488
 20
-311.60254
 30
722.524512
 70
    64
  0
VERTEX
  5
190
  8
TEAM-NET
 10
123.40957
 20
-322.673722
 30
726.59043
 70
    64
  0
VERTEX
  5
191
  8
TEAM-NET
 10
118.863483
 20
-333.36487
 30
731.136517
 70
    64
  0
VERTEX
  5
192
  8
TEAM-NET
 10
113.854914
 20
-343.634384
 30
736.145086
 70
    64
  0
VERTEX
  5
193
  8
TEAM-NET
 10
108.403352
 20
-353.442309
 30
741.596648
 70
    64
  0
VERTEX
  5
194
  8
TEAM-NET
 10
102.530007
 20
-362.750482
 30
747.469993
 70
    64
  0
VERTEX
  5
195
  8
TEAM-NET
 10
96.257732
 20
-371.522687
 30
753.742268
 70
    64
  0
VERTEX
  5
196
  8
TEAM-NET
 10
89.610932
 20
-379.724793
 30
760.389068
 70
    64
  0
VERTEX
  5
197
  8
TEAM-NET
 10
82.615468
 20
-387.324887
 30
767.384532
 70
    64
  0
VERTEX
  5
198
  8
TEAM-NET
 10
75.298559
 20
-394.293396
 30
774.701441
 70
    64
  0
VERTEX
  5
199
  8
TEAM-NET
 10
67.688673
 20
-400.603209
 30
782.311327
 70
    64
  0
VERTEX
  5
19A
  8
TEAM-NET
 10
59.815421
 20
-406.229774
 30
790.184579
 70
    64
  0
VERTEX
  5
19B
  8
TEAM-NET
 10
51.709435
 20
-411.151199
 30
798.290565
 70
    64
  0
VERTEX
  5
19C
  8
TEAM-NET
 10
43.402254
 20
-415.348335
 30
806.597746
 70
    64
  0
VERTEX
  5
19D
  8
TEAM-NET
 10
34.926202
 20
-418.804853
 30
815.073798
 70
    64
  0
VERTEX
  5
19E
  8
TEAM-NET
 10
26.314256
 20
-421.507302
 30
823.685744
 70
    64
  0
VERTEX
  5
19F
  8
TEAM-NET
 10
17.599925
 20
-423.445169
 30
832.400075
 70
    64
  0
VERTEX
  5
1A0
  8
TEAM-NET
 10
8.817116
 20
-424.610914
 30
841.182884
 70
    64
  0
VERTEX
  5
1A1
  8
TEAM-NET
 10
0.0
 20
-425.0
 30
850.0
 70
    64
  0
VERTEX
  5
1A2
  8
TEAM-NET
 10
0.0
 20
-100.0
 30
850.0
 70
    64
  0
VERTEX
  5
1A3
  8
TEAM-NET
 10
100.355183
 20
-100.0
 30
730.40135
 70
    64
  0
VERTEX
  5
1A4
  8
TEAM-NET
 10
105.169388
 20
-109.977011
 30
724.664004
 70
    64
  0
VERTEX
  5
1A5
  8
TEAM-NET
 10
109.574393
 20
-120.401561
 30
719.414324
 70
    64
  0
VERTEX
  5
1A6
  8
TEAM-NET
 10
113.553059
 20
-131.233088
 30
714.672734
 70
    64
  0
VERTEX
  5
1A7
  8
TEAM-NET
 10
117.089906
 20
-142.42945
 30
710.457684
 70
    64
  0
VERTEX
  5
1A8
  8
TEAM-NET
 10
120.171173
 20
-153.947082
 30
706.785573
 70
    64
  0
VERTEX
  5
1A9
  8
TEAM-NET
 10
122.78487
 20
-165.741171
 30
703.67069
 70
    64
  0
VERTEX
  5
1AA
  8
TEAM-NET
 10
124.920828
 20
-177.765828
 30
701.125154
 70
    64
  0
VERTEX
  5
1AB
  8
TEAM-NET
 10
126.570737
 20
-189.974267
 30
699.15887
 70
    64
  0
VERTEX
  5
1AC
  8
TEAM-NET
 10
127.728176
 20
-202.318986
 30
697.779487
 70
    64
  0
VERTEX
  5
1AD
  8
TEAM-NET
 10
128.388643
 20
-214.751953
 30
696.992373
 70
    64
  0
VERTEX
  5
1AE
  8
TEAM-NET
 10
128.549568
 20
-227.224795
 30
696.800591
 70
    64
  0
VERTEX
  5
1AF
  8
TEAM-NET
 10
128.210324
 20
-239.688979
 30
697.204886
 70
    64
  0
VERTEX
  5
1B0
  8
TEAM-NET
 10
127.372231
 20
-252.096012
 30
698.203686
 70
    64
  0
VERTEX
  5
1B1
  8
TEAM-NET
 10
126.038551
 20
-264.397617
 30
699.793104
 70
    64
  0
VERTEX
  5
1B2
  8
TEAM-NET
 10
124.214472
 20
-276.545932
 30
701.966957
 70
    64
  0
VERTEX
  5
1B3
  8
TEAM-NET
 10
121.907092
 20
-288.493688
 30
704.716785
 70
    64
  0
VERTEX
  5
1B4
  8
TEAM-NET
 10
119.125388
 20
-300.1944
 30
708.031891
 70
    64
  0
VERTEX
  5
1B5
  8
TEAM-NET
 10
115.880184
 20
-311.60254
 30
711.899374
 70
    64
  0
VERTEX
  5
1B6
  8
TEAM-NET
 10
112.184107
 20
-322.673722
 30
716.304188
 70
    64
  0
VERTEX
  5
1B7
  8
TEAM-NET
 10
108.051536
 20
-333.36487
 30
721.229194
 70
    64
  0
VERTEX
  5
1B8
  8
TEAM-NET
 10
103.498552
 20
-343.634384
 30
726.655229
 70
    64
  0
VERTEX
  5
1B9
  8
TEAM-NET
 10
98.54287
 20
-353.442309
 30
732.561181
 70
    64
  0
VERTEX
  5
1BA
  8
TEAM-NET
 10
93.20377
 20
-362.750482
 30
738.924072
 70
    64
  0
VERTEX
  5
1BB
  8
TEAM-NET
 10
87.502028
 20
-371.522687
 30
745.719143
 70
    64
  0
VERTEX
  5
1BC
  8
TEAM-NET
 10
81.459828
 20
-379.724793
 30
752.919957
 70
    64
  0
VERTEX
  5
1BD
  8
TEAM-NET
 10
75.100679
 20
-387.324887
 30
760.498496
 70
    64
  0
VERTEX
  5
1BE
  8
TEAM-NET
 10
68.449323
 20
-394.293396
 30
768.425273
 70
    64
  0
VERTEX
  5
1BF
  8
TEAM-NET
 10
61.531641
 20
-400.603209
 30
776.669446
 70
    64
  0
VERTEX
  5
1C0
  8
TEAM-NET
 10
54.374548
 20
-406.229774
 30
785.198938
 70
    64
  0
VERTEX
  5
1C1
  8
TEAM-NET
 10
47.00589
 20
-411.151199
 30
793.980561
 70
    64
  0
VERTEX
  5
1C2
  8
TEAM-NET
 10
39.45434
 20
-415.348335
 30
802.980149
 70
    64
  0
VERTEX
  5
1C3
  8
TEAM-NET
 10
31.749278
 20
-418.804853
 30
812.162684
 70
    64
  0
VERTEX
  5
1C4
  8
TEAM-NET
 10
23.920684
 20
-421.507302
 30
821.492439
 70
    64
  0
VERTEX
  5
1C5
  8
TEAM-NET
 10
15.999018
 20
-423.445169
 30
830.933113
 70
    64
  0
VERTEX
  5
1C6
  8
TEAM-NET
 10
8.015102
 20
-424.610914
 30
840.447974
 70
    64
  0
VERTEX
  5
1C7
  8
TEAM-NET
 10
0.0
 20
-425.0
 30
850.0
 70
    64
  0
VERTEX
  5
1C8
  8
TEAM-NET
 10
0.0
 20
-100.0
 30
850.0
 70
    64
  0
VERTEX
  5
1C9
  8
TEAM-NET
 10
89.549592
 20
-100.0
 30
722.109928
 70
    64
  0
VERTEX
  5
1CA
  8
TEAM-NET
 10
93.845435
 20
-109.977011
 30
715.974829
 70
    64
  0
VERTEX
  5
1CB
  8
TEAM-NET
 10
97.776138
 20
-120.401561
 30
710.361204
 70
    64
  0
VERTEX
  5
1CC
  8
TEAM-NET
 10
101.326407
 20
-131.233088
 30
705.290894
 70
    64
  0
VERTEX
  5
1CD
  8
TEAM-NET
 10
104.48243
 20
-142.42945
 30
700.783626
 70
    64
  0
VERTEX
  5
1CE
  8
TEAM-NET
 10
107.231925
 20
-153.947082
 30
696.856939
 70
    64
  0
VERTEX
  5
1CF
  8
TEAM-NET
 10
109.564197
 20
-165.741171
 30
693.526111
 70
    64
  0
VERTEX
  5
1D0
  8
TEAM-NET
 10
111.470169
 20
-177.765828
 30
690.8041
 70
    64
  0
VERTEX
  5
1D1
  8
TEAM-NET
 10
112.942426
 20
-189.974267
 30
688.701499
 70
    64
  0
VERTEX
  5
1D2
  8
TEAM-NET
 10
113.97524
 20
-202.318986
 30
687.226488
 70
    64
  0
VERTEX
  5
1D3
  8
TEAM-NET
 10
114.564592
 20
-214.751953
 30
686.384806
 70
    64
  0
VERTEX
  5
1D4
  8
TEAM-NET
 10
114.708189
 20
-227.224795
 30
686.179728
 70
    64
  0
VERTEX
  5
1D5
  8
TEAM-NET
 10
114.405473
 20
-239.688979
 30
686.612052
 70
    64
  0
VERTEX
  5
1D6
  8
TEAM-NET
 10
113.657621
 20
-252.096012
 30
687.680095
 70
    64
  0
VERTEX
  5
1D7
  8
TEAM-NET
 10
112.467542
 20
-264.397617
 30
689.379703
 70
    64
  0
VERTEX
  5
1D8
  8
TEAM-NET
 10
110.839869
 20
-276.545932
 30
691.704263
 70
    64
  0
VERTEX
  5
1D9
  8
TEAM-NET
 10
108.780932
 20
-288.493688
 30
694.644729
 70
    64
  0
VERTEX
  5
1DA
  8
TEAM-NET
 10
106.298744
 20
-300.1944
 30
698.18966
 70
    64
  0
VERTEX
  5
1DB
  8
TEAM-NET
 10
103.402963
 20
-311.60254
 30
702.325265
 70
    64
  0
VERTEX
  5
1DC
  8
TEAM-NET
 10
100.104854
 20
-322.673722
 30
707.035452
 70
    64
  0
VERTEX
  5
1DD
  8
TEAM-NET
 10
96.417252
 20
-333.36487
 30
712.301894
 70
    64
  0
VERTEX
  5
1DE
  8
TEAM-NET
 10
92.354504
 20
-343.634384
 30
718.1041
 70
    64
  0
VERTEX
  5
1DF
  8
TEAM-NET
 10
87.932417
 20
-353.442309
 30
724.419494
 70
    64
  0
VERTEX
  5
1E0
  8
TEAM-NET
 10
83.168197
 20
-362.750482
 30
731.223505
 70
    64
  0
VERTEX
  5
1E1
  8
TEAM-NET
 10
78.080381
 20
-371.522687
 30
738.489659
 70
    64
  0
VERTEX
  5
1E2
  8
TEAM-NET
 10
72.688766
 20
-379.724793
 30
746.189684
 70
    64
  0
VERTEX
  5
1E3
  8
TEAM-NET
 10
67.014328
 20
-387.324887
 30
754.293621
 70
    64
  0
VERTEX
  5
1E4
  8
TEAM-NET
 10
61.079147
 20
-394.293396
 30
762.769938
 70
    64
  0
VERTEX
  5
1E5
  8
TEAM-NET
 10
54.906316
 20
-400.603209
 30
771.585655
 70
    64
  0
VERTEX
  5
1E6
  8
TEAM-NET
 10
48.519851
 20
-406.229774
 30
780.706471
 70
    64
  0
VERTEX
  5
1E7
  8
TEAM-NET
 10
41.944603
 20
-411.151199
 30
790.096899
 70
    64
  0
VERTEX
  5
1E8
  8
TEAM-NET
 10
35.206154
 20
-415.348335
 30
799.720401
 70
    64
  0
VERTEX
  5
1E9
  8
TEAM-NET
 10
28.330723
 20
-418.804853
 30
809.539535
 70
    64
  0
VERTEX
  5
1EA
  8
TEAM-NET
 10
21.345061
 20
-421.507302
 30
819.516094
 70
    64
  0
VERTEX
  5
1EB
  8
TEAM-NET
 10
14.276348
 20
-423.445169
 30
829.611262
 70
    64
  0
VERTEX
  5
1EC
  8
TEAM-NET
 10
7.152088
 20
-424.610914
 30
839.78576
 70
    64
  0
VERTEX
  5
1ED
  8
TEAM-NET
 10
0.0
 20
-425.0
 30
850.0
 70
    64
  0
VERTEX
  5
1EE
  8
TEAM-NET
 10
0.0
 20
-100.0
 30
850.0
 70
    64
  0
VERTEX
  5
1EF
  8
TEAM-NET
 10
78.062475
 20
-100.0
 30
714.791827
 70
    64
  0
VERTEX
  5
1F0
  8
TEAM-NET
 10
81.807261
 20
-109.977011
 30
708.305667
 70
    64
  0
VERTEX
  5
1F1
  8
TEAM-NET
 10
85.233747
 20
-120.401561
 30
702.37082
 70
    64
  0
VERTEX
  5
1F2
  8
TEAM-NET
 10
88.3286
 20
-131.233088
 30
697.010377
 70
    64
  0
VERTEX
  5
1F3
  8
TEAM-NET
 10
91.079779
 20
-142.42945
 30
692.245196
 70
    64
  0
VERTEX
  5
1F4
  8
TEAM-NET
 10
93.476578
 20
-153.947082
 30
688.093817
 70
    64
  0
VERTEX
  5
1F5
  8
TEAM-NET
 10
95.509674
 20
-165.741171
 30
684.572392
 70
    64
  0
VERTEX
  5
1F6
  8
TEAM-NET
 10
97.171154
 20
-177.765828
 30
681.694624
 70
    64
  0
VERTEX
  5
1F7
  8
TEAM-NET
 10
98.454556
 20
-189.974267
 30
679.471708
 70
    64
  0
VERTEX
  5
1F8
  8
TEAM-NET
 10
99.354884
 20
-202.318986
 30
677.912294
 70
    64
  0
VERTEX
  5
1F9
  8
TEAM-NET
 10
99.868636
 20
-214.751953
 30
677.022449
 70
    64
  0
VERTEX
  5
1FA
  8
TEAM-NET
 10
99.993813
 20
-227.224795
 30
676.805636
 70
    64
  0
VERTEX
  5
1FB
  8
TEAM-NET
 10
99.729928
 20
-239.688979
 30
677.262698
 70
    64
  0
VERTEX
  5
1FC
  8
TEAM-NET
 10
99.078007
 20
-252.096012
 30
678.391857
 70
    64
  0
VERTEX
  5
1FD
  8
TEAM-NET
 10
98.040588
 20
-264.397617
 30
680.18872
 70
    64
  0
VERTEX
  5
1FE
  8
TEAM-NET
 10
96.621707
 20
-276.545932
 30
682.646295
 70
    64
  0
VERTEX
  5
1FF
  8
TEAM-NET
 10
94.826884
 20
-288.493688
 30
685.755019
 70
    64
  0
VERTEX
  5
200
  8
TEAM-NET
 10
92.663102
 20
-300.1944
 30
689.502799
 70
    64
  0
VERTEX
  5
201
  8
TEAM-NET
 10
90.138782
 20
-311.60254
 30
693.87505
 70
    64
  0
VERTEX
  5
202
  8
TEAM-NET
 10
87.263744
 20
-322.673722
 30
698.854762
 70
    64
  0
VERTEX
  5
203
  8
TEAM-NET
 10
84.049175
 20
-333.36487
 30
704.422559
 70
    64
  0
VERTEX
  5
204
  8
TEAM-NET
 10
80.507582
 20
-343.634384
 30
710.556778
 70
    64
  0
VERTEX
  5
205
  8
TEAM-NET
 10
76.652745
 20
-353.442309
 30
717.233551
 70
    64
  0
VERTEX
  5
206
  8
TEAM-NET
 10
72.499663
 20
-362.750482
 30
724.4269
 70
    64
  0
VERTEX
  5
207
  8
TEAM-NET
 10
68.064495
 20
-371.522687
 30
732.108836
 70
    64
  0
VERTEX
  5
208
  8
TEAM-NET
 10
63.364498
 20
-379.724793
 30
740.249471
 70
    64
  0
VERTEX
  5
209
  8
TEAM-NET
 10
58.417958
 20
-387.324887
 30
748.817129
 70
    64
  0
VERTEX
  5
20A
  8
TEAM-NET
 10
53.244122
 20
-394.293396
 30
757.778476
 70
    64
  0
VERTEX
  5
20B
  8
TEAM-NET
 10
47.86312
 20
-400.603209
 30
767.098644
 70
    64
  0
VERTEX
  5
20C
  8
TEAM-NET
 10
42.29589
 20
-406.229774
 30
776.74137
 70
    64
  0
VERTEX
  5
20D
  8
TEAM-NET
 10
36.564092
 20
-411.151199
 30
786.669135
 70
    64
  0
VERTEX
  5
20E
  8
TEAM-NET
 10
30.690028
 20
-415.348335
 30
796.843312
 70
    64
  0
VERTEX
  5
20F
  8
TEAM-NET
 10
24.696554
 20
-418.804853
 30
807.224314
 70
    64
  0
VERTEX
  5
210
  8
TEAM-NET
 10
18.606989
 20
-421.507302
 30
817.77175
 70
    64
  0
VERTEX
  5
211
  8
TEAM-NET
 10
12.445027
 20
-423.445169
 30
828.444582
 70
    64
  0
VERTEX
  5
212
  8
TEAM-NET
 10
6.234642
 20
-424.610914
 30
839.201283
 70
    64
  0
VERTEX
  5
213
  8
TEAM-NET
 10
0.0
 20
-425.0
 30
850.0
 70
    64
  0
VERTEX
  5
214
  8
TEAM-NET
 10
0.0
 20
-100.0
 30
850.0
 70
    64
  0
VERTEX
  5
215
  8
TEAM-NET
 10
65.981255
 20
-100.0
 30
708.502742
 70
    64
  0
VERTEX
  5
216
  8
TEAM-NET
 10
69.146485
 20
-109.977011
 30
701.714884
 70
    64
  0
VERTEX
  5
217
  8
TEAM-NET
 10
72.042676
 20
-120.401561
 30
695.503983
 70
    64
  0
VERTEX
  5
218
  8
TEAM-NET
 10
74.658559
 20
-131.233088
 30
689.894204
 70
    64
  0
VERTEX
  5
219
  8
TEAM-NET
 10
76.983955
 20
-142.42945
 30
684.907375
 70
    64
  0
VERTEX
  5
21A
  8
TEAM-NET
 10
79.009818
 20
-153.947082
 30
680.562898
 70
    64
  0
VERTEX
  5
21B
  8
TEAM-NET
 10
80.728265
 20
-165.741171
 30
676.877678
 70
    64
  0
VERTEX
  5
21C
  8
TEAM-NET
 10
82.132609
 20
-177.765828
 30
673.866052
 70
    64
  0
VERTEX
  5
21D
  8
TEAM-NET
 10
83.217386
 20
-189.974267
 30
671.539739
 70
    64
  0
VERTEX
  5
21E
  8
TEAM-NET
 10
83.978376
 20
-202.318986
 30
669.907791
 70
    64
  0
VERTEX
  5
21F
  8
TEAM-NET
 10
84.412618
 20
-214.751953
 30
668.976556
 70
    64
  0
VERTEX
  5
220
  8
TEAM-NET
 10
84.518423
 20
-227.224795
 30
668.749658
 70
    64
  0
VERTEX
  5
221
  8
TEAM-NET
 10
84.295377
 20
-239.688979
 30
669.22798
 70
    64
  0
VERTEX
  5
222
  8
TEAM-NET
 10
83.74435
 20
-252.096012
 30
670.409661
 70
    64
  0
VERTEX
  5
223
  8
TEAM-NET
 10
82.867486
 20
-264.397617
 30
672.290103
 70
    64
  0
VERTEX
  5
224
  8
TEAM-NET
 10
81.668196
 20
-276.545932
 30
674.861989
 70
    64
  0
VERTEX
  5
225
  8
TEAM-NET
 10
80.151146
 20
-288.493688
 30
678.115314
 70
    64
  0
VERTEX
  5
226
  8
TEAM-NET
 10
78.322239
 20
-300.1944
 30
682.037417
 70
    64
  0
VERTEX
  5
227
  8
TEAM-NET
 10
76.188591
 20
-311.60254
 30
686.61304
 70
    64
  0
VERTEX
  5
228
  8
TEAM-NET
 10
73.758503
 20
-322.673722
 30
691.824379
 70
    64
  0
VERTEX
  5
229
  8
TEAM-NET
 10
71.041432
 20
-333.36487
 30
697.651157
 70
    64
  0
VERTEX
  5
22A
  8
TEAM-NET
 10
68.047949
 20
-343.634384
 30
704.070703
 70
    64
  0
VERTEX
  5
22B
  8
TEAM-NET
 10
64.7897
 20
-353.442309
 30
711.05804
 70
    64
  0
VERTEX
  5
22C
  8
TEAM-NET
 10
61.279363
 20
-362.750482
 30
718.585981
 70
    64
  0
VERTEX
  5
22D
  8
TEAM-NET
 10
57.530597
 20
-371.522687
 30
726.625236
 70
    64
  0
VERTEX
  5
22E
  8
TEAM-NET
 10
53.557988
 20
-379.724793
 30
735.144525
 70
    64
  0
VERTEX
  5
22F
  8
TEAM-NET
 10
49.376992
 20
-387.324887
 30
744.1107
 70
    64
  0
VERTEX
  5
230
  8
TEAM-NET
 10
45.003876
 20
-394.293396
 30
753.488876
 70
    64
  0
VERTEX
  5
231
  8
TEAM-NET
 10
40.455657
 20
-400.603209
 30
763.242563
 70
    64
  0
VERTEX
  5
232
  8
TEAM-NET
 10
35.750031
 20
-406.229774
 30
773.333812
 70
    64
  0
VERTEX
  5
233
  8
TEAM-NET
 10
30.905306
 20
-411.151199
 30
783.723358
 70
    64
  0
VERTEX
  5
234
  8
TEAM-NET
 10
25.940333
 20
-415.348335
 30
794.370777
 70
    64
  0
VERTEX
  5
235
  8
TEAM-NET
 10
20.874429
 20
-418.804853
 30
805.234642
 70
    64
  0
VERTEX
  5
236
  8
TEAM-NET
 10
15.727307
 20
-421.507302
 30
816.272682
 70
    64
  0
VERTEX
  5
237
  8
TEAM-NET
 10
10.518991
 20
-423.445169
 30
827.441951
 70
    64
  0
VERTEX
  5
238
  8
TEAM-NET
 10
5.269747
 20
-424.610914
 30
838.69899
 70
    64
  0
VERTEX
  5
239
  8
TEAM-NET
 10
0.0
 20
-425.0
 30
850.0
 70
    64
  0
VERTEX
  5
23A
  8
TEAM-NET
 10
0.0
 20
-100.0
 30
850.0
 70
    64
  0
VERTEX
  5
23B
  8
TEAM-NET
 10
53.397878
 20
-100.0
 30
703.290537
 70
    64
  0
VERTEX
  5
23C
  8
TEAM-NET
 10
55.959462
 20
-109.977011
 30
696.25264
 70
    64
  0
VERTEX
  5
23D
  8
TEAM-NET
 10
58.303317
 20
-120.401561
 30
689.812954
 70
    64
  0
VERTEX
  5
23E
  8
TEAM-NET
 10
60.420321
 20
-131.233088
 30
683.996533
 70
    64
  0
VERTEX
  5
23F
  8
TEAM-NET
 10
62.302238
 20
-142.42945
 30
678.826008
 70
    64
  0
VERTEX
  5
240
  8
TEAM-NET
 10
63.941745
 20
-153.947082
 30
674.321498
 70
    64
  0
VERTEX
  5
241
  8
TEAM-NET
 10
65.332465
 20
-165.741171
 30
670.500529
 70
    64
  0
VERTEX
  5
242
  8
TEAM-NET
 10
66.468984
 20
-177.765828
 30
667.377966
 70
    64
  0
VERTEX
  5
243
  8
TEAM-NET
 10
67.346882
 20
-189.974267
 30
664.965961
 70
    64
  0
VERTEX
  5
244
  8
TEAM-NET
 10
67.962743
 20
-202.318986
 30
663.273898
 70
    64
  0
VERTEX
  5
245
  8
TEAM-NET
 10
68.31417
 20
-214.751953
 30
662.30836
 70
    64
  0
VERTEX
  5
246
  8
TEAM-NET
 10
68.399796
 20
-227.224795
 30
662.073104
 70
    64
  0
VERTEX
  5
247
  8
TEAM-NET
 10
68.219288
 20
-239.688979
 30
662.569046
 70
    64
  0
VERTEX
  5
248
  8
TEAM-NET
 10
67.773349
 20
-252.096012
 30
663.794255
 70
    64
  0
VERTEX
  5
249
  8
TEAM-NET
 10
67.063712
 20
-264.397617
 30
665.743965
 70
    64
  0
VERTEX
  5
24A
  8
TEAM-NET
 10
66.09314
 20
-276.545932
 30
668.41059
 70
    64
  0
VERTEX
  5
24B
  8
TEAM-NET
 10
64.865409
 20
-288.493688
 30
671.783754
 70
    64
  0
VERTEX
  5
24C
  8
TEAM-NET
 10
63.385295
 20
-300.1944
 30
675.850333
 70
    64
  0
VERTEX
  5
24D
  8
TEAM-NET
 10
61.658558
 20
-311.60254
 30
680.594504
 70
    64
  0
VERTEX
  5
24E
  8
TEAM-NET
 10
59.691916
 20
-322.673722
 30
685.997808
 70
    64
  0
VERTEX
  5
24F
  8
TEAM-NET
 10
57.493022
 20
-333.36487
 30
692.039222
 70
    64
  0
VERTEX
  5
250
  8
TEAM-NET
 10
55.070429
 20
-343.634384
 30
698.695239
 70
    64
  0
VERTEX
  5
251
  8
TEAM-NET
 10
52.433566
 20
-353.442309
 30
705.939962
 70
    64
  0
VERTEX
  5
252
  8
TEAM-NET
 10
49.59269
 20
-362.750482
 30
713.745203
 70
    64
  0
VERTEX
  5
253
  8
TEAM-NET
 10
46.558857
 20
-371.522687
 30
722.080592
 70
    64
  0
VERTEX
  5
254
  8
TEAM-NET
 10
43.343869
 20
-379.724793
 30
730.913698
 70
    64
  0
VERTEX
  5
255
  8
TEAM-NET
 10
39.960237
 20
-387.324887
 30
740.210152
 70
    64
  0
VERTEX
  5
256
  8
TEAM-NET
 10
36.421124
 20
-394.293396
 30
749.933784
 70
    64
  0
VERTEX
  5
257
  8
TEAM-NET
 10
32.740302
 20
-400.603209
 30
760.046759
 70
    64
  0
VERTEX
  5
258
  8
TEAM-NET
 10
28.932092
 20
-406.229774
 30
770.509729
 70
    64
  0
VERTEX
  5
259
  8
TEAM-NET
 10
25.011312
 20
-411.151199
 30
781.281985
 70
    64
  0
VERTEX
  5
25A
  8
TEAM-NET
 10
20.993216
 20
-415.348335
 30
792.321614
 70
    64
  0
VERTEX
  5
25B
  8
TEAM-NET
 10
16.893438
 20
-418.804853
 30
803.585661
 70
    64
  0
VERTEX
  5
25C
  8
TEAM-NET
 10
12.72793
 20
-421.507302
 30
815.0303
 70
    64
  0
VERTEX
  5
25D
  8
TEAM-NET
 10
8.5129
 20
-423.445169
 30
826.611001
 70
    64
  0
VERTEX
  5
25E
  8
TEAM-NET
 10
4.264747
 20
-424.610914
 30
838.282705
 70
    64
  0
VERTEX
  5
25F
  8
TEAM-NET
 10
0.0
 20
-425.0
 30
850.0
 70
    64
  0
VERTEX
  5
260
  8
TEAM-NET
 10
0.0
 20
-100.0
 30
850.0
 70
    64
  0
VERTEX
  5
261
  8
TEAM-NET
 10
40.40811
 20
-100.0
 30
699.194879
 70
    64
  0
VERTEX
  5
262
  8
TEAM-NET
 10
42.346555
 20
-109.977011
 30
691.960507
 70
    64
  0
VERTEX
  5
263
  8
TEAM-NET
 10
44.120234
 20
-120.401561
 30
685.341045
 70
    64
  0
VERTEX
  5
264
  8
TEAM-NET
 10
45.722248
 20
-131.233088
 30
679.362248
 70
    64
  0
VERTEX
  5
265
  8
TEAM-NET
 10
47.146363
 20
-142.42945
 30
674.047379
 70
    64
  0
VERTEX
  5
266
  8
TEAM-NET
 10
48.387038
 20
-153.947082
 30
669.417118
 70
    64
  0
VERTEX
  5
267
  8
TEAM-NET
 10
49.439445
 20
-165.741171
 30
665.489479
 70
    64
  0
VERTEX
  5
268
  8
TEAM-NET
 10
50.299491
 20
-177.765828
 30
662.279745
 70
    64
  0
VERTEX
  5
269
  8
TEAM-NET
 10
50.963828
 20
-189.974267
 30
659.800404
 70
    64
  0
VERTEX
  5
26A
  8
TEAM-NET
 10
51.429872
 20
-202.318986
 30
658.061104
 70
    64
  0
VERTEX
  5
26B
  8
TEAM-NET
 10
51.69581
 20
-214.751953
 30
657.068611
 70
    64
  0
VERTEX
  5
26C
  8
TEAM-NET
 10
51.760606
 20
-227.224795
 30
656.826788
 70
    64
  0
VERTEX
  5
26D
  8
TEAM-NET
 10
51.624009
 20
-239.688979
 30
657.336574
 70
    64
  0
VERTEX
  5
26E
  8
TEAM-NET
 10
51.286551
 20
-252.096012
 30
658.595988
 70
    64
  0
VERTEX
  5
26F
  8
TEAM-NET
 10
50.749543
 20
-264.397617
 30
660.600128
 70
    64
  0
VERTEX
  5
270
  8
TEAM-NET
 10
50.015076
 20
-276.545932
 30
663.341196
 70
    64
  0
VERTEX
  5
271
  8
TEAM-NET
 10
49.086007
 20
-288.493688
 30
666.808528
 70
    64
  0
VERTEX
  5
272
  8
TEAM-NET
 10
47.965951
 20
-300.1944
 30
670.988632
 70
    64
  0
VERTEX
  5
273
  8
TEAM-NET
 10
46.659267
 20
-311.60254
 30
675.865245
 70
    64
  0
VERTEX
  5
274
  8
TEAM-NET
 10
45.171038
 20
-322.673722
 30
681.419392
 70
    64
  0
VERTEX
  5
275
  8
TEAM-NET
 10
43.507054
 20
-333.36487
 30
687.629463
 70
    64
  0
VERTEX
  5
276
  8
TEAM-NET
 10
41.673791
 20
-343.634384
 30
694.471295
 70
    64
  0
VERTEX
  5
277
  8
TEAM-NET
 10
39.678381
 20
-353.442309
 30
701.918268
 70
    64
  0
VERTEX
  5
278
  8
TEAM-NET
 10
37.528587
 20
-362.750482
 30
709.941406
 70
    64
  0
VERTEX
  5
279
  8
TEAM-NET
 10
35.232775
 20
-371.522687
 30
718.509492
 70
    64
  0
VERTEX
  5
27A
  8
TEAM-NET
 10
32.799878
 20
-379.724793
 30
727.58919
 70
    64
  0
VERTEX
  5
27B
  8
TEAM-NET
 10
30.23936
 20
-387.324887
 30
737.145172
 70
    64
  0
VERTEX
  5
27C
  8
TEAM-NET
 10
27.561185
 20
-394.293396
 30
747.140256
 70
    64
  0
VERTEX
  5
27D
  8
TEAM-NET
 10
24.775774
 20
-400.603209
 30
757.535552
 70
    64
  0
VERTEX
  5
27E
  8
TEAM-NET
 10
21.893964
 20
-406.229774
 30
768.290616
 70
    64
  0
VERTEX
  5
27F
  8
TEAM-NET
 10
18.926967
 20
-411.151199
 30
779.363599
 70
    64
  0
VERTEX
  5
280
  8
TEAM-NET
 10
15.886328
 20
-415.348335
 30
790.711418
 70
    64
  0
VERTEX
  5
281
  8
TEAM-NET
 10
12.783877
 20
-418.804853
 30
802.289921
 70
    64
  0
VERTEX
  5
282
  8
TEAM-NET
 10
9.631686
 20
-421.507302
 30
814.054058
 70
    64
  0
VERTEX
  5
283
  8
TEAM-NET
 10
6.44202
 20
-423.445169
 30
825.958055
 70
    64
  0
VERTEX
  5
284
  8
TEAM-NET
 10
3.227288
 20
-424.610914
 30
837.955596
 70
    64
  0
VERTEX
  5
285
  8
TEAM-NET
 10
0.0
 20
-425.0
 30
850.0
 70
    64
  0
VERTEX
  5
286
  8
TEAM-NET
 10
0.0
 20
-100.0
 30
850.0
 70
    64
  0
VERTEX
  5
287
  8
TEAM-NET
 10
27.110813
 20
-100.0
 30
696.246939
 70
    64
  0
VERTEX
  5
288
  8
TEAM-NET
 10
28.411364
 20
-109.977011
 30
688.87115
 70
    64
  0
VERTEX
  5
289
  8
TEAM-NET
 10
29.60137
 20
-120.401561
 30
682.12229
 70
    64
  0
VERTEX
  5
28A
  8
TEAM-NET
 10
30.676201
 20
-131.233088
 30
676.02662
 70
    64
  0
VERTEX
  5
28B
  8
TEAM-NET
 10
31.631675
 20
-142.42945
 30
670.607856
 70
    64
  0
VERTEX
  5
28C
  8
TEAM-NET
 10
32.464075
 20
-153.947082
 30
665.887082
 70
    64
  0
VERTEX
  5
28D
  8
TEAM-NET
 10
33.170162
 20
-165.741171
 30
661.882665
 70
    64
  0
VERTEX
  5
28E
  8
TEAM-NET
 10
33.747188
 20
-177.765828
 30
658.610188
 70
    64
  0
VERTEX
  5
28F
  8
TEAM-NET
 10
34.192908
 20
-189.974267
 30
656.082381
 70
    64
  0
VERTEX
  5
290
  8
TEAM-NET
 10
34.505589
 20
-202.318986
 30
654.309081
 70
    64
  0
VERTEX
  5
291
  8
TEAM-NET
 10
34.684013
 20
-214.751953
 30
653.297187
 70
    64
  0
VERTEX
  5
292
  8
TEAM-NET
 10
34.727487
 20
-227.224795
 30
653.050636
 70
    64
  0
VERTEX
  5
293
  8
TEAM-NET
 10
34.63584
 20
-239.688979
 30
653.570388
 70
    64
  0
VERTEX
  5
294
  8
TEAM-NET
 10
34.409431
 20
-252.096012
 30
654.85442
 70
    64
  0
VERTEX
  5
295
  8
TEAM-NET
 10
34.049139
 20
-264.397617
 30
656.897737
 70
    64
  0
VERTEX
  5
296
  8
TEAM-NET
 10
33.556367
 20
-276.545932
 30
659.692388
 70
    64
  0
VERTEX
  5
297
  8
TEAM-NET
 10
32.933031
 20
-288.493688
 30
663.227499
 70
    64
  0
VERTEX
  5
298
  8
TEAM-NET
 10
32.181558
 20
-300.1944
 30
667.489317
 70
    64
  0
VERTEX
  5
299
  8
TEAM-NET
 10
31.30487
 20
-311.60254
 30
672.461258
 70
    64
  0
VERTEX
  5
29A
  8
TEAM-NET
 10
30.30638
 20
-322.673722
 30
678.123977
 70
    64
  0
VERTEX
  5
29B
  8
TEAM-NET
 10
29.189972
 20
-333.36487
 30
684.455442
 70
    64
  0
VERTEX
  5
29C
  8
TEAM-NET
 10
27.95999
 20
-343.634384
 30
691.431019
 70
    64
  0
VERTEX
  5
29D
  8
TEAM-NET
 10
26.621219
 20
-353.442309
 30
699.023565
 70
    64
  0
VERTEX
  5
29E
  8
TEAM-NET
 10
25.178869
 20
-362.750482
 30
707.203539
 70
    64
  0
VERTEX
  5
29F
  8
TEAM-NET
 10
23.638551
 20
-371.522687
 30
715.939115
 70
    64
  0
VERTEX
  5
2A0
  8
TEAM-NET
 10
22.006259
 20
-379.724793
 30
725.196303
 70
    64
  0
VERTEX
  5
2A1
  8
TEAM-NET
 10
20.288344
 20
-387.324887
 30
734.939085
 70
    64
  0
VERTEX
  5
2A2
  8
TEAM-NET
 10
18.491489
 20
-394.293396
 30
745.129552
 70
    64
  0
VERTEX
  5
2A3
  8
TEAM-NET
 10
16.622687
 20
-400.603209
 30
755.728057
 70
    64
  0
VERTEX
  5
2A4
  8
TEAM-NET
 10
14.689208
 20
-406.229774
 30
766.69336
 70
    64
  0
VERTEX
  5
2A5
  8
TEAM-NET
 10
12.698576
 20
-411.151199
 30
777.982798
 70
    64
  0
VERTEX
  5
2A6
  8
TEAM-NET
 10
10.658535
 20
-415.348335
 30
789.552445
 70
    64
  0
VERTEX
  5
2A7
  8
TEAM-NET
 10
8.577023
 20
-418.804853
 30
801.357284
 70
    64
  0
VERTEX
  5
2A8
  8
TEAM-NET
 10
6.462139
 20
-421.507302
 30
813.351386
 70
    64
  0
VERTEX
  5
2A9
  8
TEAM-NET
 10
4.322112
 20
-423.445169
 30
825.488083
 70
    64
  0
VERTEX
  5
2AA
  8
TEAM-NET
 10
2.165269
 20
-424.610914
 30
837.720152
 70
    64
  0
VERTEX
  5
2AB
  8
TEAM-NET
 10
0.0
 20
-425.0
 30
850.0
 70
    64
  0
VERTEX
  5
2AC
  8
TEAM-NET
 10
0.0
 20
-100.0
 30
850.0
 70
    64
  0
VERTEX
  5
2AD
  8
TEAM-NET
 10
13.607186
 20
-100.0
 30
694.469153
 70
    64
  0
VERTEX
  5
2AE
  8
TEAM-NET
 10
14.259945
 20
-109.977011
 30
687.00808
 70
    64
  0
VERTEX
  5
2AF
  8
TEAM-NET
 10
14.857221
 20
-120.401561
 30
680.181186
 70
    64
  0
VERTEX
  5
2B0
  8
TEAM-NET
 10
15.396689
 20
-131.233088
 30
674.015034
 70
    64
  0
VERTEX
  5
2B1
  8
TEAM-NET
 10
15.876251
 20
-142.42945
 30
668.533615
 70
    64
  0
VERTEX
  5
2B2
  8
TEAM-NET
 10
16.294041
 20
-153.947082
 30
663.758256
 70
    64
  0
VERTEX
  5
2B3
  8
TEAM-NET
 10
16.648433
 20
-165.741171
 30
659.707539
 70
    64
  0
VERTEX
  5
2B4
  8
TEAM-NET
 10
16.938048
 20
-177.765828
 30
656.397222
 70
    64
  0
VERTEX
  5
2B5
  8
TEAM-NET
 10
17.16176
 20
-189.974267
 30
653.840188
 70
    64
  0
VERTEX
  5
2B6
  8
TEAM-NET
 10
17.318697
 20
-202.318986
 30
652.046383
 70
    64
  0
VERTEX
  5
2B7
  8
TEAM-NET
 10
17.40825
 20
-214.751953
 30
651.022789
 70
    64
  0
VERTEX
  5
2B8
  8
TEAM-NET
 10
17.43007
 20
-227.224795
 30
650.773388
 70
    64
  0
VERTEX
  5
2B9
  8
TEAM-NET
 10
17.384072
 20
-239.688979
 30
651.29915
 70
    64
  0
VERTEX
  5
2BA
  8
TEAM-NET
 10
17.270435
 20
-252.096012
 30
652.598029
 70
    64
  0
VERTEX
  5
2BB
  8
TEAM-NET
 10
17.089601
 20
-264.397617
 30
654.664972
 70
    64
  0
VERTEX
  5
2BC
  8
TEAM-NET
 10
16.842273
 20
-276.545932
 30
657.491936
 70
    64
  0
VERTEX
  5
2BD
  8
TEAM-NET
 10
16.529415
 20
-288.493688
 30
661.067922
 70
    64
  0
VERTEX
  5
2BE
  8
TEAM-NET
 10
16.152243
 20
-300.1944
 30
665.379017
 70
    64
  0
VERTEX
  5
2BF
  8
TEAM-NET
 10
15.712225
 20
-311.60254
 30
670.408447
 70
    64
  0
VERTEX
  5
2C0
  8
TEAM-NET
 10
15.211073
 20
-322.673722
 30
676.136642
 70
    64
  0
VERTEX
  5
2C1
  8
TEAM-NET
 10
14.650736
 20
-333.36487
 30
682.541316
 70
    64
  0
VERTEX
  5
2C2
  8
TEAM-NET
 10
14.033396
 20
-343.634384
 30
689.597548
 70
    64
  0
VERTEX
  5
2C3
  8
TEAM-NET
 10
13.361454
 20
-353.442309
 30
697.277883
 70
    64
  0
VERTEX
  5
2C4
  8
TEAM-NET
 10
12.637524
 20
-362.750482
 30
705.55244
 70
    64
  0
VERTEX
  5
2C5
  8
TEAM-NET
 10
11.864423
 20
-371.522687
 30
714.389021
 70
    64
  0
VERTEX
  5
2C6
  8
TEAM-NET
 10
11.04516
 20
-379.724793
 30
723.753247
 70
    64
  0
VERTEX
  5
2C7
  8
TEAM-NET
 10
10.182921
 20
-387.324887
 30
733.60868
 70
    64
  0
VERTEX
  5
2C8
  8
TEAM-NET
 10
9.281062
 20
-394.293396
 30
743.916977
 70
    64
  0
VERTEX
  5
2C9
  8
TEAM-NET
 10
8.343092
 20
-400.603209
 30
754.638027
 70
    64
  0
VERTEX
  5
2CA
  8
TEAM-NET
 10
7.372659
 20
-406.229774
 30
765.730118
 70
    64
  0
VERTEX
  5
2CB
  8
TEAM-NET
 10
6.373541
 20
-411.151199
 30
777.150091
 70
    64
  0
VERTEX
  5
2CC
  8
TEAM-NET
 10
5.349624
 20
-415.348335
 30
788.853513
 70
    64
  0
VERTEX
  5
2CD
  8
TEAM-NET
 10
4.304893
 20
-418.804853
 30
800.794848
 70
    64
  0
VERTEX
  5
2CE
  8
TEAM-NET
 10
3.243412
 20
-421.507302
 30
812.927633
 70
    64
  0
VERTEX
  5
2CF
  8
TEAM-NET
 10
2.169311
 20
-423.445169
 30
825.204661
 70
    64
  0
VERTEX
  5
2D0
  8
TEAM-NET
 10
1.08677
 20
-424.610914
 30
837.578165
 70
    64
  0
VERTEX
  5
2D1
  8
TEAM-NET
 10
0.0
 20
-425.0
 30
850.0
 70
    64
  0
VERTEX
  5
2D2
  8
TEAM-NET
 10
0.0
 20
-100.0
 30
850.0
 70
    64
  0
VERTEX
  5
2D3
  8
TEAM-NET
 10
0.0
 20
-100.0
 30
693.87505
 70
    64
  0
VERTEX
  5
2D4
  8
TEAM-NET
 10
0.0
 20
-109.977011
 30
686.385477
 70
    64
  0
VERTEX
  5
2D5
  8
TEAM-NET
 10
0.0
 20
-120.401561
 30
679.532506
 70
    64
  0
VERTEX
  5
2D6
  8
TEAM-NET
 10
0.0
 20
-131.233088
 30
673.3428
 70
    64
  0
VERTEX
  5
2D7
  8
TEAM-NET
 10
0.0
 20
-142.42945
 30
667.840443
 70
    64
  0
VERTEX
  5
2D8
  8
TEAM-NET
 10
0.0
 20
-153.947082
 30
663.046843
 70
    64
  0
VERTEX
  5
2D9
  8
TEAM-NET
 10
0.0
 20
-165.741171
 30
658.980652
 70
    64
  0
VERTEX
  5
2DA
  8
TEAM-NET
 10
0.0
 20
-177.765828
 30
655.657691
 70
    64
  0
VERTEX
  5
2DB
  8
TEAM-NET
 10
0.0
 20
-189.974267
 30
653.090889
 70
    64
  0
VERTEX
  5
2DC
  8
TEAM-NET
 10
0.0
 20
-202.318986
 30
651.290233
 70
    64
  0
VERTEX
  5
2DD
  8
TEAM-NET
 10
0.0
 20
-214.751953
 30
650.262729
 70
    64
  0
VERTEX
  5
2DE
  8
TEAM-NET
 10
0.0
 20
-227.224795
 30
650.012375
 70
    64
  0
VERTEX
  5
2DF
  8
TEAM-NET
 10
0.0
 20
-239.688979
 30
650.540145
 70
    64
  0
VERTEX
  5
2E0
  8
TEAM-NET
 10
0.0
 20
-252.096012
 30
651.843985
 70
    64
  0
VERTEX
  5
2E1
  8
TEAM-NET
 10
0.0
 20
-264.397617
 30
653.918824
 70
    64
  0
VERTEX
  5
2E2
  8
TEAM-NET
 10
0.0
 20
-276.545932
 30
656.756586
 70
    64
  0
VERTEX
  5
2E3
  8
TEAM-NET
 10
0.0
 20
-288.493688
 30
660.346232
 70
    64
  0
VERTEX
  5
2E4
  8
TEAM-NET
 10
0.0
 20
-300.1944
 30
664.673795
 70
    64
  0
VERTEX
  5
2E5
  8
TEAM-NET
 10
0.0
 20
-311.60254
 30
669.722436
 70
    64
  0
VERTEX
  5
2E6
  8
TEAM-NET
 10
0.0
 20
-322.673722
 30
675.472512
 70
    64
  0
VERTEX
  5
2E7
  8
TEAM-NET
 10
0.0
 20
-333.36487
 30
681.901651
 70
    64
  0
VERTEX
  5
2E8
  8
TEAM-NET
 10
0.0
 20
-343.634384
 30
688.984836
 70
    64
  0
VERTEX
  5
2E9
  8
TEAM-NET
 10
0.0
 20
-353.442309
 30
696.69451
 70
    64
  0
VERTEX
  5
2EA
  8
TEAM-NET
 10
0.0
 20
-362.750482
 30
705.000674
 70
    64
  0
VERTEX
  5
2EB
  8
TEAM-NET
 10
0.0
 20
-371.522687
 30
713.87101
 70
    64
  0
VERTEX
  5
2EC
  8
TEAM-NET
 10
0.0
 20
-379.724793
 30
723.271005
 70
    64
  0
VERTEX
  5
2ED
  8
TEAM-NET
 10
0.0
 20
-387.324887
 30
733.164084
 70
    64
  0
VERTEX
  5
2EE
  8
TEAM-NET
 10
0.0
 20
-394.293396
 30
743.511757
 70
    64
  0
VERTEX
  5
2EF
  8
TEAM-NET
 10
0.0
 20
-400.603209
 30
754.27376
 70
    64
  0
VERTEX
  5
2F0
  8
TEAM-NET
 10
0.0
 20
-406.229774
 30
765.408221
 70
    64
  0
VERTEX
  5
2F1
  8
TEAM-NET
 10
0.0
 20
-411.151199
 30
776.871816
 70
    64
  0
VERTEX
  5
2F2
  8
TEAM-NET
 10
0.0
 20
-415.348335
 30
788.619944
 70
    64
  0
VERTEX
  5
2F3
  8
TEAM-NET
 10
0.0
 20
-418.804853
 30
800.606892
 70
    64
  0
VERTEX
  5
2F4
  8
TEAM-NET
 10
0.0
 20
-421.507302
 30
812.786022
 70
    64
  0
VERTEX
  5
2F5
  8
TEAM-NET
 10
0.0
 20
-423.445169
 30
825.109947
 70
    64
  0
VERTEX
  5
2F6
  8
TEAM-NET
 10
0.0
 20
-424.610914
 30
837.530715
 70
    64
  0
VERTEX
  5
2F7
  8
TEAM-NET
 10
0.0
 20
-425.0
 30
850.0
 70
    64
  0
VERTEX
  5
2F8
  8
TEAM-NET
 10
0.0
 20
-100.0
 30
850.0
 70
    64
  0
VERTEX
  5
2F9
  8
TEAM-NET
 10
-13.607186
 20
-100.0
 30
694.469153
 70
    64
  0
VERTEX
  5
2FA
  8
TEAM-NET
 10
-14.259945
 20
-109.977011
 30
687.00808
 70
    64
  0
VERTEX
  5
2FB
  8
TEAM-NET
 10
-14.857221
 20
-120.401561
 30
680.181186
 70
    64
  0
VERTEX
  5
2FC
  8
TEAM-NET
 10
-15.396689
 20
-131.233088
 30
674.015034
 70
    64
  0
VERTEX
  5
2FD
  8
TEAM-NET
 10
-15.876251
 20
-142.42945
 30
668.533615
 70
    64
  0
VERTEX
  5
2FE
  8
TEAM-NET
 10
-16.294041
 20
-153.947082
 30
663.758256
 70
    64
  0
VERTEX
  5
2FF
  8
TEAM-NET
 10
-16.648433
 20
-165.741171
 30
659.707539
 70
    64
  0
VERTEX
  5
300
  8
TEAM-NET
 10
-16.938048
 20
-177.765828
 30
656.397222
 70
    64
  0
VERTEX
  5
301
  8
TEAM-NET
 10
-17.16176
 20
-189.974267
 30
653.840188
 70
    64
  0
VERTEX
  5
302
  8
TEAM-NET
 10
-17.318697
 20
-202.318986
 30
652.046383
 70
    64
  0
VERTEX
  5
303
  8
TEAM-NET
 10
-17.40825
 20
-214.751953
 30
651.022789
 70
    64
  0
VERTEX
  5
304
  8
TEAM-NET
 10
-17.43007
 20
-227.224795
 30
650.773388
 70
    64
  0
VERTEX
  5
305
  8
TEAM-NET
 10
-17.384072
 20
-239.688979
 30
651.29915
 70
    64
  0
VERTEX
  5
306
  8
TEAM-NET
 10
-17.270435
 20
-252.096012
 30
652.598029
 70
    64
  0
VERTEX
  5
307
  8
TEAM-NET
 10
-17.089601
 20
-264.397617
 30
654.664972
 70
    64
  0
VERTEX
  5
308
  8
TEAM-NET
 10
-16.842273
 20
-276.545932
 30
657.491936
 70
    64
  0
VERTEX
  5
309
  8
TEAM-NET
 10
-16.529415
 20
-288.493688
 30
661.067922
 70
    64
  0
VERTEX
  5
30A
  8
TEAM-NET
 10
-16.152243
 20
-300.1944
 30
665.379017
 70
    64
  0
VERTEX
  5
30B
  8
TEAM-NET
 10
-15.712225
 20
-311.60254
 30
670.408447
 70
    64
  0
VERTEX
  5
30C
  8
TEAM-NET
 10
-15.211073
 20
-322.673722
 30
676.136642
 70
    64
  0
VERTEX
  5
30D
  8
TEAM-NET
 10
-14.650736
 20
-333.36487
 30
682.541316
 70
    64
  0
VERTEX
  5
30E
  8
TEAM-NET
 10
-14.033396
 20
-343.634384
 30
689.597548
 70
    64
  0
VERTEX
  5
30F
  8
TEAM-NET
 10
-13.361454
 20
-353.442309
 30
697.277883
 70
    64
  0
VERTEX
  5
310
  8
TEAM-NET
 10
-12.637524
 20
-362.750482
 30
705.55244
 70
    64
  0
VERTEX
  5
311
  8
TEAM-NET
 10
-11.864423
 20
-371.522687
 30
714.389021
 70
    64
  0
VERTEX
  5
312
  8
TEAM-NET
 10
-11.04516
 20
-379.724793
 30
723.753247
 70
    64
  0
VERTEX
  5
313
  8
TEAM-NET
 10
-10.182921
 20
-387.324887
 30
733.60868
 70
    64
  0
VERTEX
  5
314
  8
TEAM-NET
 10
-9.281062
 20
-394.293396
 30
743.916977
 70
    64
  0
VERTEX
  5
315
  8
TEAM-NET
 10
-8.343092
 20
-400.603209
 30
754.638027
 70
    64
  0
VERTEX
  5
316
  8
TEAM-NET
 10
-7.372659
 20
-406.229774
 30
765.730118
 70
    64
  0
VERTEX
  5
317
  8
TEAM-NET
 10
-6.373541
 20
-411.151199
 30
777.150091
 70
    64
  0
VERTEX
  5
318
  8
TEAM-NET
 10
-5.349624
 20
-415.348335
 30
788.853513
 70
    64
  0
VERTEX
  5
319
  8
TEAM-NET
 10
-4.304893
 20
-418.804853
 30
800.794848
 70
    64
  0
VERTEX
  5
31A
  8
TEAM-NET
 10
-3.243412
 20
-421.507302
 30
812.927633
 70
    64
  0
VERTEX
  5
31B
  8
TEAM-NET
 10
-2.169311
 20
-423.445169
 30
825.204661
 70
    64
  0
VERTEX
  5
31C
  8
TEAM-NET
 10
-1.08677
 20
-424.610914
 30
837.578165
 70
    64
  0
VERTEX
  5
31D
  8
TEAM-NET
 10
0.0
 20
-425.0
 30
850.0
 70
    64
  0
VERTEX
  5
31E
  8
TEAM-NET
 10
0.0
 20
-100.0
 30
850.0
 70
    64
  0
VERTEX
  5
31F
  8
TEAM-NET
 10
-27.110813
 20
-100.0
 30
696.246939
 70
    64
  0
VERTEX
  5
320
  8
TEAM-NET
 10
-28.411364
 20
-109.977011
 30
688.87115
 70
    64
  0
VERTEX
  5
321
  8
TEAM-NET
 10
-29.60137
 20
-120.401561
 30
682.12229
 70
    64
  0
VERTEX
  5
322
  8
TEAM-NET
 10
-30.676201
 20
-131.233088
 30
676.02662
 70
    64
  0
VERTEX
  5
323
  8
TEAM-NET
 10
-31.631675
 20
-142.42945
 30
670.607856
 70
    64
  0
VERTEX
  5
324
  8
TEAM-NET
 10
-32.464075
 20
-153.947082
 30
665.887082
 70
    64
  0
VERTEX
  5
325
  8
TEAM-NET
 10
-33.170162
 20
-165.741171
 30
661.882665
 70
    64
  0
VERTEX
  5
326
  8
TEAM-NET
 10
-33.747188
 20
-177.765828
 30
658.610188
 70
    64
  0
VERTEX
  5
327
  8
TEAM-NET
 10
-34.192908
 20
-189.974267
 30
656.082381
 70
    64
  0
VERTEX
  5
328
  8
TEAM-NET
 10
-34.505589
 20
-202.318986
 30
654.309081
 70
    64
  0
VERTEX
  5
329
  8
TEAM-NET
 10
-34.684013
 20
-214.751953
 30
653.297187
 70
    64
  0
VERTEX
  5
32A
  8
TEAM-NET
 10
-34.727487
 20
-227.224795
 30
653.050636
 70
    64
  0
VERTEX
  5
32B
  8
TEAM-NET
 10
-34.63584
 20
-239.688979
 30
653.570388
 70
    64
  0
VERTEX
  5
32C
  8
TEAM-NET
 10
-34.409431
 20
-252.096012
 30
654.85442
 70
    64
  0
VERTEX
  5
32D
  8
TEAM-NET
 10
-34.049139
 20
-264.397617
 30
656.897737
 70
    64
  0
VERTEX
  5
32E
  8
TEAM-NET
 10
-33.556367
 20
-276.545932
 30
659.692388
 70
    64
  0
VERTEX
  5
32F
  8
TEAM-NET
 10
-32.933031
 20
-288.493688
 30
663.227499
 70
    64
  0
VERTEX
  5
330
  8
TEAM-NET
 10
-32.181558
 20
-300.1944
 30
667.489317
 70
    64
  0
VERTEX
  5
331
  8
TEAM-NET
 10
-31.30487
 20
-311.60254
 30
672.461258
 70
    64
  0
VERTEX
  5
332
  8
TEAM-NET
 10
-30.30638
 20
-322.673722
 30
678.123977
 70
    64
  0
VERTEX
  5
333
  8
TEAM-NET
 10
-29.189972
 20
-333.36487
 30
684.455442
 70
    64
  0
VERTEX
  5
334
  8
TEAM-NET
 10
-27.95999
 20
-343.634384
 30
691.431019
 70
    64
  0
VERTEX
  5
335
  8
TEAM-NET
 10
-26.621219
 20
-353.442309
 30
699.023565
 70
    64
  0
VERTEX
  5
336
  8
TEAM-NET
 10
-25.178869
 20
-362.750482
 30
707.203539
 70
    64
  0
VERTEX
  5
337
  8
TEAM-NET
 10
-23.638551
 20
-371.522687
 30
715.939115
 70
    64
  0
VERTEX
  5
338
  8
TEAM-NET
 10
-22.006259
 20
-379.724793
 30
725.196303
 70
    64
  0
VERTEX
  5
339
  8
TEAM-NET
 10
-20.288344
 20
-387.324887
 30
734.939085
 70
    64
  0
VERTEX
  5
33A
  8
TEAM-NET
 10
-18.491489
 20
-394.293396
 30
745.129552
 70
    64
  0
VERTEX
  5
33B
  8
TEAM-NET
 10
-16.622687
 20
-400.603209
 30
755.728057
 70
    64
  0
VERTEX
  5
33C
  8
TEAM-NET
 10
-14.689208
 20
-406.229774
 30
766.69336
 70
    64
  0
VERTEX
  5
33D
  8
TEAM-NET
 10
-12.698576
 20
-411.151199
 30
777.982798
 70
    64
  0
VERTEX
  5
33E
  8
TEAM-NET
 10
-10.658535
 20
-415.348335
 30
789.552445
 70
    64
  0
VERTEX
  5
33F
  8
TEAM-NET
 10
-8.577023
 20
-418.804853
 30
801.357284
 70
    64
  0
VERTEX
  5
340
  8
TEAM-NET
 10
-6.462139
 20
-421.507302
 30
813.351386
 70
    64
  0
VERTEX
  5
341
  8
TEAM-NET
 10
-4.322112
 20
-423.445169
 30
825.488083
 70
    64
  0
VERTEX
  5
342
  8
TEAM-NET
 10
-2.165269
 20
-424.610914
 30
837.720152
 70
    64
  0
VERTEX
  5
343
  8
TEAM-NET
 10
0.0
 20
-425.0
 30
850.0
 70
    64
  0
VERTEX
  5
344
  8
TEAM-NET
 10
0.0
 20
-100.0
 30
850.0
 70
    64
  0
VERTEX
  5
345
  8
TEAM-NET
 10
-40.40811
 20
-100.0
 30
699.194879
 70
    64
  0
VERTEX
  5
346
  8
TEAM-NET
 10
-42.346555
 20
-109.977011
 30
691.960507
 70
    64
  0
VERTEX
  5
347
  8
TEAM-NET
 10
-44.120234
 20
-120.401561
 30
685.341045
 70
    64
  0
VERTEX
  5
348
  8
TEAM-NET
 10
-45.722248
 20
-131.233088
 30
679.362248
 70
    64
  0
VERTEX
  5
349
  8
TEAM-NET
 10
-47.146363
 20
-142.42945
 30
674.047379
 70
    64
  0
VERTEX
  5
34A
  8
TEAM-NET
 10
-48.387038
 20
-153.947082
 30
669.417118
 70
    64
  0
VERTEX
  5
34B
  8
TEAM-NET
 10
-49.439445
 20
-165.741171
 30
665.489479
 70
    64
  0
VERTEX
  5
34C
  8
TEAM-NET
 10
-50.299491
 20
-177.765828
 30
662.279745
 70
    64
  0
VERTEX
  5
34D
  8
TEAM-NET
 10
-50.963828
 20
-189.974267
 30
659.800404
 70
    64
  0
VERTEX
  5
34E
  8
TEAM-NET
 10
-51.429872
 20
-202.318986
 30
658.061104
 70
    64
  0
VERTEX
  5
34F
  8
TEAM-NET
 10
-51.69581
 20
-214.751953
 30
657.068611
 70
    64
  0
VERTEX
  5
350
  8
TEAM-NET
 10
-51.760606
 20
-227.224795
 30
656.826788
 70
    64
  0
VERTEX
  5
351
  8
TEAM-NET
 10
-51.624009
 20
-239.688979
 30
657.336574
 70
    64
  0
VERTEX
  5
352
  8
TEAM-NET
 10
-51.286551
 20
-252.096012
 30
658.595988
 70
    64
  0
VERTEX
  5
353
  8
TEAM-NET
 10
-50.749543
 20
-264.397617
 30
660.600128
 70
    64
  0
VERTEX
  5
354
  8
TEAM-NET
 10
-50.015076
 20
-276.545932
 30
663.341196
 70
    64
  0
VERTEX
  5
355
  8
TEAM-NET
 10
-49.086007
 20
-288.493688
 30
666.808528
 70
    64
  0
VERTEX
  5
356
  8
TEAM-NET
 10
-47.965951
 20
-300.1944
 30
670.988632
 70
    64
  0
VERTEX
  5
357
  8
TEAM-NET
 10
-46.659267
 20
-311.60254
 30
675.865245
 70
    64
  0
VERTEX
  5
358
  8
TEAM-NET
 10
-45.171038
 20
-322.673722
 30
681.419392
 70
    64
  0
VERTEX
  5
359
  8
TEAM-NET
 10
-43.507054
 20
-333.36487
 30
687.629463
 70
    64
  0
VERTEX
  5
35A
  8
TEAM-NET
 10
-41.673791
 20
-343.634384
 30
694.471295
 70
    64
  0
VERTEX
  5
35B
  8
TEAM-NET
 10
-39.678381
 20
-353.442309
 30
701.918268
 70
    64
  0
VERTEX
  5
35C
  8
TEAM-NET
 10
-37.528587
 20
-362.750482
 30
709.941406
 70
    64
  0
VERTEX
  5
35D
  8
TEAM-NET
 10
-35.232775
 20
-371.522687
 30
718.509492
 70
    64
  0
VERTEX
  5
35E
  8
TEAM-NET
 10
-32.799878
 20
-379.724793
 30
727.58919
 70
    64
  0
VERTEX
  5
35F
  8
TEAM-NET
 10
-30.23936
 20
-387.324887
 30
737.145172
 70
    64
  0
VERTEX
  5
360
  8
TEAM-NET
 10
-27.561185
 20
-394.293396
 30
747.140256
 70
    64
  0
VERTEX
  5
361
  8
TEAM-NET
 10
-24.775774
 20
-400.603209
 30
757.535552
 70
    64
  0
VERTEX
  5
362
  8
TEAM-NET
 10
-21.893964
 20
-406.229774
 30
768.290616
 70
    64
  0
VERTEX
  5
363
  8
TEAM-NET
 10
-18.926967
 20
-411.151199
 30
779.363599
 70
    64
  0
VERTEX
  5
364
  8
TEAM-NET
 10
-15.886328
 20
-415.348335
 30
790.711418
 70
    64
  0
VERTEX
  5
365
  8
TEAM-NET
 10
-12.783877
 20
-418.804853
 30
802.289921
 70
    64
  0
VERTEX
  5
366
  8
TEAM-NET
 10
-9.631686
 20
-421.507302
 30
814.054058
 70
    64
  0
VERTEX
  5
367
  8
TEAM-NET
 10
-6.44202
 20
-423.445169
 30
825.958055
 70
    64
  0
VERTEX
  5
368
  8
TEAM-NET
 10
-3.227288
 20
-424.610914
 30
837.955596
 70
    64
  0
VERTEX
  5
369
  8
TEAM-NET
 10
0.0
 20
-425.0
 30
850.0
 70
    64
  0
VERTEX
  5
36A
  8
TEAM-NET
 10
0.0
 20
-100.0
 30
850.0
 70
    64
  0
VERTEX
  5
36B
  8
TEAM-NET
 10
-53.397878
 20
-100.0
 30
703.290537
 70
    64
  0
VERTEX
  5
36C
  8
TEAM-NET
 10
-55.959462
 20
-109.977011
 30
696.25264
 70
    64
  0
VERTEX
  5
36D
  8
TEAM-NET
 10
-58.303317
 20
-120.401561
 30
689.812954
 70
    64
  0
VERTEX
  5
36E
  8
TEAM-NET
 10
-60.420321
 20
-131.233088
 30
683.996533
 70
    64
  0
VERTEX
  5
36F
  8
TEAM-NET
 10
-62.302238
 20
-142.42945
 30
678.826008
 70
    64
  0
VERTEX
  5
370
  8
TEAM-NET
 10
-63.941745
 20
-153.947082
 30
674.321498
 70
    64
  0
VERTEX
  5
371
  8
TEAM-NET
 10
-65.332465
 20
-165.741171
 30
670.500529
 70
    64
  0
VERTEX
  5
372
  8
TEAM-NET
 10
-66.468984
 20
-177.765828
 30
667.377966
 70
    64
  0
VERTEX
  5
373
  8
TEAM-NET
 10
-67.346882
 20
-189.974267
 30
664.965961
 70
    64
  0
VERTEX
  5
374
  8
TEAM-NET
 10
-67.962743
 20
-202.318986
 30
663.273898
 70
    64
  0
VERTEX
  5
375
  8
TEAM-NET
 10
-68.31417
 20
-214.751953
 30
662.30836
 70
    64
  0
VERTEX
  5
376
  8
TEAM-NET
 10
-68.399796
 20
-227.224795
 30
662.073104
 70
    64
  0
VERTEX
  5
377
  8
TEAM-NET
 10
-68.219288
 20
-239.688979
 30
662.569046
 70
    64
  0
VERTEX
  5
378
  8
TEAM-NET
 10
-67.773349
 20
-252.096012
 30
663.794255
 70
    64
  0
VERTEX
  5
379
  8
TEAM-NET
 10
-67.063712
 20
-264.397617
 30
665.743965
 70
    64
  0
VERTEX
  5
37A
  8
TEAM-NET
 10
-66.09314
 20
-276.545932
 30
668.41059
 70
    64
  0
VERTEX
  5
37B
  8
TEAM-NET
 10
-64.865409
 20
-288.493688
 30
671.783754
 70
    64
  0
VERTEX
  5
37C
  8
TEAM-NET
 10
-63.385295
 20
-300.1944
 30
675.850333
 70
    64
  0
VERTEX
  5
37D
  8
TEAM-NET
 10
-61.658558
 20
-311.60254
 30
680.594504
 70
    64
  0
VERTEX
  5
37E
  8
TEAM-NET
 10
-59.691916
 20
-322.673722
 30
685.997808
 70
    64
  0
VERTEX
  5
37F
  8
TEAM-NET
 10
-57.493022
 20
-333.36487
 30
692.039222
 70
    64
  0
VERTEX
  5
380
  8
TEAM-NET
 10
-55.070429
 20
-343.634384
 30
698.695239
 70
    64
  0
VERTEX
  5
381
  8
TEAM-NET
 10
-52.433566
 20
-353.442309
 30
705.939962
 70
    64
  0
VERTEX
  5
382
  8
TEAM-NET
 10
-49.59269
 20
-362.750482
 30
713.745203
 70
    64
  0
VERTEX
  5
383
  8
TEAM-NET
 10
-46.558857
 20
-371.522687
 30
722.080592
 70
    64
  0
VERTEX
  5
384
  8
TEAM-NET
 10
-43.343869
 20
-379.724793
 30
730.913698
 70
    64
  0
VERTEX
  5
385
  8
TEAM-NET
 10
-39.960237
 20
-387.324887
 30
740.210152
 70
    64
  0
VERTEX
  5
386
  8
TEAM-NET
 10
-36.421124
 20
-394.293396
 30
749.933784
 70
    64
  0
VERTEX
  5
387
  8
TEAM-NET
 10
-32.740302
 20
-400.603209
 30
760.046759
 70
    64
  0
VERTEX
  5
388
  8
TEAM-NET
 10
-28.932092
 20
-406.229774
 30
770.509729
 70
    64
  0
VERTEX
  5
389
  8
TEAM-NET
 10
-25.011312
 20
-411.151199
 30
781.281985
 70
    64
  0
VERTEX
  5
38A
  8
TEAM-NET
 10
-20.993216
 20
-415.348335
 30
792.321614
 70
    64
  0
VERTEX
  5
38B
  8
TEAM-NET
 10
-16.893438
 20
-418.804853
 30
803.585661
 70
    64
  0
VERTEX
  5
38C
  8
TEAM-NET
 10
-12.72793
 20
-421.507302
 30
815.0303
 70
    64
  0
VERTEX
  5
38D
  8
TEAM-NET
 10
-8.5129
 20
-423.445169
 30
826.611001
 70
    64
  0
VERTEX
  5
38E
  8
TEAM-NET
 10
-4.264747
 20
-424.610914
 30
838.282705
 70
    64
  0
VERTEX
  5
38F
  8
TEAM-NET
 10
0.0
 20
-425.0
 30
850.0
 70
    64
  0
VERTEX
  5
390
  8
TEAM-NET
 10
0.0
 20
-100.0
 30
850.0
 70
    64
  0
VERTEX
  5
391
  8
TEAM-NET
 10
-65.981255
 20
-100.0
 30
708.502742
 70
    64
  0
VERTEX
  5
392
  8
TEAM-NET
 10
-69.146485
 20
-109.977011
 30
701.714884
 70
    64
  0
VERTEX
  5
393
  8
TEAM-NET
 10
-72.042676
 20
-120.401561
 30
695.503983
 70
    64
  0
VERTEX
  5
394
  8
TEAM-NET
 10
-74.658559
 20
-131.233088
 30
689.894204
 70
    64
  0
VERTEX
  5
395
  8
TEAM-NET
 10
-76.983955
 20
-142.42945
 30
684.907375
 70
    64
  0
VERTEX
  5
396
  8
TEAM-NET
 10
-79.009818
 20
-153.947082
 30
680.562898
 70
    64
  0
VERTEX
  5
397
  8
TEAM-NET
 10
-80.728265
 20
-165.741171
 30
676.877678
 70
    64
  0
VERTEX
  5
398
  8
TEAM-NET
 10
-82.132609
 20
-177.765828
 30
673.866052
 70
    64
  0
VERTEX
  5
399
  8
TEAM-NET
 10
-83.217386
 20
-189.974267
 30
671.539739
 70
    64
  0
VERTEX
  5
39A
  8
TEAM-NET
 10
-83.978376
 20
-202.318986
 30
669.907791
 70
    64
  0
VERTEX
  5
39B
  8
TEAM-NET
 10
-84.412618
 20
-214.751953
 30
668.976556
 70
    64
  0
VERTEX
  5
39C
  8
TEAM-NET
 10
-84.518423
 20
-227.224795
 30
668.749658
 70
    64
  0
VERTEX
  5
39D
  8
TEAM-NET
 10
-84.295377
 20
-239.688979
 30
669.22798
 70
    64
  0
VERTEX
  5
39E
  8
TEAM-NET
 10
-83.74435
 20
-252.096012
 30
670.409661
 70
    64
  0
VERTEX
  5
39F
  8
TEAM-NET
 10
-82.867486
 20
-264.397617
 30
672.290103
 70
    64
  0
VERTEX
  5
3A0
  8
TEAM-NET
 10
-81.668196
 20
-276.545932
 30
674.861989
 70
    64
  0
VERTEX
  5
3A1
  8
TEAM-NET
 10
-80.151146
 20
-288.493688
 30
678.115314
 70
    64
  0
VERTEX
  5
3A2
  8
TEAM-NET
 10
-78.322239
 20
-300.1944
 30
682.037417
 70
    64
  0
VERTEX
  5
3A3
  8
TEAM-NET
 10
-76.188591
 20
-311.60254
 30
686.61304
 70
    64
  0
VERTEX
  5
3A4
  8
TEAM-NET
 10
-73.758503
 20
-322.673722
 30
691.824379
 70
    64
  0
VERTEX
  5
3A5
  8
TEAM-NET
 10
-71.041432
 20
-333.36487
 30
697.651157
 70
    64
  0
VERTEX
  5
3A6
  8
TEAM-NET
 10
-68.047949
 20
-343.634384
 30
704.070703
 70
    64
  0
VERTEX
  5
3A7
  8
TEAM-NET
 10
-64.7897
 20
-353.442309
 30
711.05804
 70
    64
  0
VERTEX
  5
3A8
  8
TEAM-NET
 10
-61.279363
 20
-362.750482
 30
718.585981
 70
    64
  0
VERTEX
  5
3A9
  8
TEAM-NET
 10
-57.530597
 20
-371.522687
 30
726.625236
 70
    64
  0
VERTEX
  5
3AA
  8
TEAM-NET
 10
-53.557988
 20
-379.724793
 30
735.144525
 70
    64
  0
VERTEX
  5
3AB
  8
TEAM-NET
 10
-49.376992
 20
-387.324887
 30
744.1107
 70
    64
  0
VERTEX
  5
3AC
  8
TEAM-NET
 10
-45.003876
 20
-394.293396
 30
753.488876
 70
    64
  0
VERTEX
  5
3AD
  8
TEAM-NET
 10
-40.455657
 20
-400.603209
 30
763.242563
 70
    64
  0
VERTEX
  5
3AE
  8
TEAM-NET
 10
-35.750031
 20
-406.229774
 30
773.333812
 70
    64
  0
VERTEX
  5
3AF
  8
TEAM-NET
 10
-30.905306
 20
-411.151199
 30
783.723358
 70
    64
  0
VERTEX
  5
3B0
  8
TEAM-NET
 10
-25.940333
 20
-415.348335
 30
794.370777
 70
    64
  0
VERTEX
  5
3B1
  8
TEAM-NET
 10
-20.874429
 20
-418.804853
 30
805.234642
 70
    64
  0
VERTEX
  5
3B2
  8
TEAM-NET
 10
-15.727307
 20
-421.507302
 30
816.272682
 70
    64
  0
VERTEX
  5
3B3
  8
TEAM-NET
 10
-10.518991
 20
-423.445169
 30
827.441951
 70
    64
  0
VERTEX
  5
3B4
  8
TEAM-NET
 10
-5.269747
 20
-424.610914
 30
838.69899
 70
    64
  0
VERTEX
  5
3B5
  8
TEAM-NET
 10
0.0
 20
-425.0
 30
850.0
 70
    64
  0
VERTEX
  5
3B6
  8
TEAM-NET
 10
0.0
 20
-100.0
 30
850.0
 70
    64
  0
VERTEX
  5
3B7
  8
TEAM-NET
 10
-78.062475
 20
-100.0
 30
714.791827
 70
    64
  0
VERTEX
  5
3B8
  8
TEAM-NET
 10
-81.807261
 20
-109.977011
 30
708.305667
 70
    64
  0
VERTEX
  5
3B9
  8
TEAM-NET
 10
-85.233747
 20
-120.401561
 30
702.37082
 70
    64
  0
VERTEX
  5
3BA
  8
TEAM-NET
 10
-88.3286
 20
-131.233088
 30
697.010377
 70
    64
  0
VERTEX
  5
3BB
  8
TEAM-NET
 10
-91.079779
 20
-142.42945
 30
692.245196
 70
    64
  0
VERTEX
  5
3BC
  8
TEAM-NET
 10
-93.476578
 20
-153.947082
 30
688.093817
 70
    64
  0
VERTEX
  5
3BD
  8
TEAM-NET
 10
-95.509674
 20
-165.741171
 30
684.572392
 70
    64
  0
VERTEX
  5
3BE
  8
TEAM-NET
 10
-97.171154
 20
-177.765828
 30
681.694624
 70
    64
  0
VERTEX
  5
3BF
  8
TEAM-NET
 10
-98.454556
 20
-189.974267
 30
679.471708
 70
    64
  0
VERTEX
  5
3C0
  8
TEAM-NET
 10
-99.354884
 20
-202.318986
 30
677.912294
 70
    64
  0
VERTEX
  5
3C1
  8
TEAM-NET
 10
-99.868636
 20
-214.751953
 30
677.022449
 70
    64
  0
VERTEX
  5
3C2
  8
TEAM-NET
 10
-99.993813
 20
-227.224795
 30
676.805636
 70
    64
  0
VERTEX
  5
3C3
  8
TEAM-NET
 10
-99.729928
 20
-239.688979
 30
677.262698
 70
    64
  0
VERTEX
  5
3C4
  8
TEAM-NET
 10
-99.078007
 20
-252.096012
 30
678.391857
 70
    64
  0
VERTEX
  5
3C5
  8
TEAM-NET
 10
-98.040588
 20
-264.397617
 30
680.18872
 70
    64
  0
VERTEX
  5
3C6
  8
TEAM-NET
 10
-96.621707
 20
-276.545932
 30
682.646295
 70
    64
  0
VERTEX
  5
3C7
  8
TEAM-NET
 10
-94.826884
 20
-288.493688
 30
685.755019
 70
    64
  0
VERTEX
  5
3C8
  8
TEAM-NET
 10
-92.663102
 20
-300.1944
 30
689.502799
 70
    64
  0
VERTEX
  5
3C9
  8
TEAM-NET
 10
-90.138782
 20
-311.60254
 30
693.87505
 70
    64
  0
VERTEX
  5
3CA
  8
TEAM-NET
 10
-87.263744
 20
-322.673722
 30
698.854762
 70
    64
  0
VERTEX
  5
3CB
  8
TEAM-NET
 10
-84.049175
 20
-333.36487
 30
704.422559
 70
    64
  0
VERTEX
  5
3CC
  8
TEAM-NET
 10
-80.507582
 20
-343.634384
 30
710.556778
 70
    64
  0
VERTEX
  5
3CD
  8
TEAM-NET
 10
-76.652745
 20
-353.442309
 30
717.233551
 70
    64
  0
VERTEX
  5
3CE
  8
TEAM-NET
 10
-72.499663
 20
-362.750482
 30
724.4269
 70
    64
  0
VERTEX
  5
3CF
  8
TEAM-NET
 10
-68.064495
 20
-371.522687
 30
732.108836
 70
    64
  0
VERTEX
  5
3D0
  8
TEAM-NET
 10
-63.364498
 20
-379.724793
 30
740.249471
 70
    64
  0
VERTEX
  5
3D1
  8
TEAM-NET
 10
-58.417958
 20
-387.324887
 30
748.817129
 70
    64
  0
VERTEX
  5
3D2
  8
TEAM-NET
 10
-53.244122
 20
-394.293396
 30
757.778476
 70
    64
  0
VERTEX
  5
3D3
  8
TEAM-NET
 10
-47.86312
 20
-400.603209
 30
767.098644
 70
    64
  0
VERTEX
  5
3D4
  8
TEAM-NET
 10
-42.29589
 20
-406.229774
 30
776.74137
 70
    64
  0
VERTEX
  5
3D5
  8
TEAM-NET
 10
-36.564092
 20
-411.151199
 30
786.669135
 70
    64
  0
VERTEX
  5
3D6
  8
TEAM-NET
 10
-30.690028
 20
-415.348335
 30
796.843312
 70
    64
  0
VERTEX
  5
3D7
  8
TEAM-NET
 10
-24.696554
 20
-418.804853
 30
807.224314
 70
    64
  0
VERTEX
  5
3D8
  8
TEAM-NET
 10
-18.606989
 20
-421.507302
 30
817.77175
 70
    64
  0
VERTEX
  5
3D9
  8
TEAM-NET
 10
-12.445027
 20
-423.445169
 30
828.444582
 70
    64
  0
VERTEX
  5
3DA
  8
TEAM-NET
 10
-6.234642
 20
-424.610914
 30
839.201283
 70
    64
  0
VERTEX
  5
3DB
  8
TEAM-NET
 10
0.0
 20
-425.0
 30
850.0
 70
    64
  0
VERTEX
  5
3DC
  8
TEAM-NET
 10
0.0
 20
-100.0
 30
850.0
 70
    64
  0
VERTEX
  5
3DD
  8
TEAM-NET
 10
-89.549592
 20
-100.0
 30
722.109928
 70
    64
  0
VERTEX
  5
3DE
  8
TEAM-NET
 10
-93.845435
 20
-109.977011
 30
715.974829
 70
    64
  0
VERTEX
  5
3DF
  8
TEAM-NET
 10
-97.776138
 20
-120.401561
 30
710.361204
 70
    64
  0
VERTEX
  5
3E0
  8
TEAM-NET
 10
-101.326407
 20
-131.233088
 30
705.290894
 70
    64
  0
VERTEX
  5
3E1
  8
TEAM-NET
 10
-104.48243
 20
-142.42945
 30
700.783626
 70
    64
  0
VERTEX
  5
3E2
  8
TEAM-NET
 10
-107.231925
 20
-153.947082
 30
696.856939
 70
    64
  0
VERTEX
  5
3E3
  8
TEAM-NET
 10
-109.564197
 20
-165.741171
 30
693.526111
 70
    64
  0
VERTEX
  5
3E4
  8
TEAM-NET
 10
-111.470169
 20
-177.765828
 30
690.8041
 70
    64
  0
VERTEX
  5
3E5
  8
TEAM-NET
 10
-112.942426
 20
-189.974267
 30
688.701499
 70
    64
  0
VERTEX
  5
3E6
  8
TEAM-NET
 10
-113.97524
 20
-202.318986
 30
687.226488
 70
    64
  0
VERTEX
  5
3E7
  8
TEAM-NET
 10
-114.564592
 20
-214.751953
 30
686.384806
 70
    64
  0
VERTEX
  5
3E8
  8
TEAM-NET
 10
-114.708189
 20
-227.224795
 30
686.179728
 70
    64
  0
VERTEX
  5
3E9
  8
TEAM-NET
 10
-114.405473
 20
-239.688979
 30
686.612052
 70
    64
  0
VERTEX
  5
3EA
  8
TEAM-NET
 10
-113.657621
 20
-252.096012
 30
687.680095
 70
    64
  0
VERTEX
  5
3EB
  8
TEAM-NET
 10
-112.467542
 20
-264.397617
 30
689.379703
 70
    64
  0
VERTEX
  5
3EC
  8
TEAM-NET
 10
-110.839869
 20
-276.545932
 30
691.704263
 70
    64
  0
VERTEX
  5
3ED
  8
TEAM-NET
 10
-108.780932
 20
-288.493688
 30
694.644729
 70
    64
  0
VERTEX
  5
3EE
  8
TEAM-NET
 10
-106.298744
 20
-300.1944
 30
698.18966
 70
    64
  0
VERTEX
  5
3EF
  8
TEAM-NET
 10
-103.402963
 20
-311.60254
 30
702.325265
 70
    64
  0
VERTEX
  5
3F0
  8
TEAM-NET
 10
-100.104854
 20
-322.673722
 30
707.035452
 70
    64
  0
VERTEX
  5
3F1
  8
TEAM-NET
 10
-96.417252
 20
-333.36487
 30
712.301894
 70
    64
  0
VERTEX
  5
3F2
  8
TEAM-NET
 10
-92.354504
 20
-343.634384
 30
718.1041
 70
    64
  0
VERTEX
  5
3F3
  8
TEAM-NET
 10
-87.932417
 20
-353.442309
 30
724.419494
 70
    64
  0
VERTEX
  5
3F4
  8
TEAM-NET
 10
-83.168197
 20
-362.750482
 30
731.223505
 70
    64
  0
VERTEX
  5
3F5
  8
TEAM-NET
 10
-78.080381
 20
-371.522687
 30
738.489659
 70
    64
  0
VERTEX
  5
3F6
  8
TEAM-NET
 10
-72.688766
 20
-379.724793
 30
746.189684
 70
    64
  0
VERTEX
  5
3F7
  8
TEAM-NET
 10
-67.014328
 20
-387.324887
 30
754.293621
 70
    64
  0
VERTEX
  5
3F8
  8
TEAM-NET
 10
-61.079147
 20
-394.293396
 30
762.769938
 70
    64
  0
VERTEX
  5
3F9
  8
TEAM-NET
 10
-54.906316
 20
-400.603209
 30
771.585655
 70
    64
  0
VERTEX
  5
3FA
  8
TEAM-NET
 10
-48.519851
 20
-406.229774
 30
780.706471
 70
    64
  0
VERTEX
  5
3FB
  8
TEAM-NET
 10
-41.944603
 20
-411.151199
 30
790.096899
 70
    64
  0
VERTEX
  5
3FC
  8
TEAM-NET
 10
-35.206154
 20
-415.348335
 30
799.720401
 70
    64
  0
VERTEX
  5
3FD
  8
TEAM-NET
 10
-28.330723
 20
-418.804853
 30
809.539535
 70
    64
  0
VERTEX
  5
3FE
  8
TEAM-NET
 10
-21.345061
 20
-421.507302
 30
819.516094
 70
    64
  0
VERTEX
  5
3FF
  8
TEAM-NET
 10
-14.276348
 20
-423.445169
 30
829.611262
 70
    64
  0
VERTEX
  5
400
  8
TEAM-NET
 10
-7.152088
 20
-424.610914
 30
839.78576
 70
    64
  0
VERTEX
  5
401
  8
TEAM-NET
 10
0.0
 20
-425.0
 30
850.0
 70
    64
  0
VERTEX
  5
402
  8
TEAM-NET
 10
0.0
 20
-100.0
 30
850.0
 70
    64
  0
VERTEX
  5
403
  8
TEAM-NET
 10
-100.355183
 20
-100.0
 30
730.40135
 70
    64
  0
VERTEX
  5
404
  8
TEAM-NET
 10
-105.169388
 20
-109.977011
 30
724.664004
 70
    64
  0
VERTEX
  5
405
  8
TEAM-NET
 10
-109.574393
 20
-120.401561
 30
719.414324
 70
    64
  0
VERTEX
  5
406
  8
TEAM-NET
 10
-113.553059
 20
-131.233088
 30
714.672734
 70
    64
  0
VERTEX
  5
407
  8
TEAM-NET
 10
-117.089906
 20
-142.42945
 30
710.457684
 70
    64
  0
VERTEX
  5
408
  8
TEAM-NET
 10
-120.171173
 20
-153.947082
 30
706.785573
 70
    64
  0
VERTEX
  5
409
  8
TEAM-NET
 10
-122.78487
 20
-165.741171
 30
703.67069
 70
    64
  0
VERTEX
  5
40A
  8
TEAM-NET
 10
-124.920828
 20
-177.765828
 30
701.125154
 70
    64
  0
VERTEX
  5
40B
  8
TEAM-NET
 10
-126.570737
 20
-189.974267
 30
699.15887
 70
    64
  0
VERTEX
  5
40C
  8
TEAM-NET
 10
-127.728176
 20
-202.318986
 30
697.779487
 70
    64
  0
VERTEX
  5
40D
  8
TEAM-NET
 10
-128.388643
 20
-214.751953
 30
696.992373
 70
    64
  0
VERTEX
  5
40E
  8
TEAM-NET
 10
-128.549568
 20
-227.224795
 30
696.800591
 70
    64
  0
VERTEX
  5
40F
  8
TEAM-NET
 10
-128.210324
 20
-239.688979
 30
697.204886
 70
    64
  0
VERTEX
  5
410
  8
TEAM-NET
 10
-127.372231
 20
-252.096012
 30
698.203686
 70
    64
  0
VERTEX
  5
411
  8
TEAM-NET
 10
-126.038551
 20
-264.397617
 30
699.793104
 70
    64
  0
VERTEX
  5
412
  8
TEAM-NET
 10
-124.214472
 20
-276.545932
 30
701.966957
 70
    64
  0
VERTEX
  5
413
  8
TEAM-NET
 10
-121.907092
 20
-288.493688
 30
704.716785
 70
    64
  0
VERTEX
  5
414
  8
TEAM-NET
 10
-119.125388
 20
-300.1944
 30
708.031891
 70
    64
  0
VERTEX
  5
415
  8
TEAM-NET
 10
-115.880184
 20
-311.60254
 30
711.899374
 70
    64
  0
VERTEX
  5
416
  8
TEAM-NET
 10
-112.184107
 20
-322.673722
 30
716.304188
 70
    64
  0
VERTEX
  5
417
  8
TEAM-NET
 10
-108.051536
 20
-333.36487
 30
721.229194
 70
    64
  0
VERTEX
  5
418
  8
TEAM-NET
 10
-103.498552
 20
-343.634384
 30
726.655229
 70
    64
  0
VERTEX
  5
419
  8
TEAM-NET
 10
-98.54287
 20
-353.442309
 30
732.561181
 70
    64
  0
VERTEX
  5
41A
  8
TEAM-NET
 10
-93.20377
 20
-362.750482
 30
738.924072
 70
    64
  0
VERTEX
  5
41B
  8
TEAM-NET
 10
-87.502028
 20
-371.522687
 30
745.719143
 70
    64
  0
VERTEX
  5
41C
  8
TEAM-NET
 10
-81.459828
 20
-379.724793
 30
752.919957
 70
    64
  0
VERTEX
  5
41D
  8
TEAM-NET
 10
-75.100679
 20
-387.324887
 30
760.498496
 70
    64
  0
VERTEX
  5
41E
  8
TEAM-NET
 10
-68.449323
 20
-394.293396
 30
768.425273
 70
    64
  0
VERTEX
  5
41F
  8
TEAM-NET
 10
-61.531641
 20
-400.603209
 30
776.669446
 70
    64
  0
VERTEX
  5
420
  8
TEAM-NET
 10
-54.374548
 20
-406.229774
 30
785.198938
 70
    64
  0
VERTEX
  5
421
  8
TEAM-NET
 10
-47.00589
 20
-411.151199
 30
793.980561
 70
    64
  0
VERTEX
  5
422
  8
TEAM-NET
 10
-39.45434
 20
-415.348335
 30
802.980149
 70
    64
  0
VERTEX
  5
423
  8
TEAM-NET
 10
-31.749278
 20
-418.804853
 30
812.162684
 70
    64
  0
VERTEX
  5
424
  8
TEAM-NET
 10
-23.920684
 20
-421.507302
 30
821.492439
 70
    64
  0
VERTEX
  5
425
  8
TEAM-NET
 10
-15.999018
 20
-423.445169
 30
830.933113
 70
    64
  0
VERTEX
  5
426
  8
TEAM-NET
 10
-8.015102
 20
-424.610914
 30
840.447974
 70
    64
  0
VERTEX
  5
427
  8
TEAM-NET
 10
0.0
 20
-425.0
 30
850.0
 70
    64
  0
VERTEX
  5
428
  8
TEAM-NET
 10
0.0
 20
-100.0
 30
850.0
 70
    64
  0
VERTEX
  5
429
  8
TEAM-NET
 10
-110.397011
 20
-100.0
 30
739.602989
 70
    64
  0
VERTEX
  5
42A
  8
TEAM-NET
 10
-115.692938
 20
-109.977011
 30
734.307062
 70
    64
  0
VERTEX
  5
42B
  8
TEAM-NET
 10
-120.538721
 20
-120.401561
 30
729.461279
 70
    64
  0
VERTEX
  5
42C
  8
TEAM-NET
 10
-124.915504
 20
-131.233088
 30
725.084496
 70
    64
  0
VERTEX
  5
42D
  8
TEAM-NET
 10
-128.806258
 20
-142.42945
 30
721.193742
 70
    64
  0
VERTEX
  5
42E
  8
TEAM-NET
 10
-132.195845
 20
-153.947082
 30
717.804155
 70
    64
  0
VERTEX
  5
42F
  8
TEAM-NET
 10
-135.071076
 20
-165.741171
 30
714.928924
 70
    64
  0
VERTEX
  5
430
  8
TEAM-NET
 10
-137.420764
 20
-177.765828
 30
712.579236
 70
    64
  0
VERTEX
  5
431
  8
TEAM-NET
 10
-139.235768
 20
-189.974267
 30
710.764232
 70
    64
  0
VERTEX
  5
432
  8
TEAM-NET
 10
-140.509024
 20
-202.318986
 30
709.490976
 70
    64
  0
VERTEX
  5
433
  8
TEAM-NET
 10
-141.235579
 20
-214.751953
 30
708.764421
 70
    64
  0
VERTEX
  5
434
  8
TEAM-NET
 10
-141.412606
 20
-227.224795
 30
708.587394
 70
    64
  0
VERTEX
  5
435
  8
TEAM-NET
 10
-141.039416
 20
-239.688979
 30
708.960584
 70
    64
  0
VERTEX
  5
436
  8
TEAM-NET
 10
-140.117462
 20
-252.096012
 30
709.882538
 70
    64
  0
VERTEX
  5
437
  8
TEAM-NET
 10
-138.65033
 20
-264.397617
 30
711.34967
 70
    64
  0
VERTEX
  5
438
  8
TEAM-NET
 10
-136.643728
 20
-276.545932
 30
713.356272
 70
    64
  0
VERTEX
  5
439
  8
TEAM-NET
 10
-134.105465
 20
-288.493688
 30
715.894535
 70
    64
  0
VERTEX
  5
43A
  8
TEAM-NET
 10
-131.045416
 20
-300.1944
 30
718.954584
 70
    64
  0
VERTEX
  5
43B
  8
TEAM-NET
 10
-127.475488
 20
-311.60254
 30
722.524512
 70
    64
  0
VERTEX
  5
43C
  8
TEAM-NET
 10
-123.40957
 20
-322.673722
 30
726.59043
 70
    64
  0
VERTEX
  5
43D
  8
TEAM-NET
 10
-118.863483
 20
-333.36487
 30
731.136517
 70
    64
  0
VERTEX
  5
43E
  8
TEAM-NET
 10
-113.854914
 20
-343.634384
 30
736.145086
 70
    64
  0
VERTEX
  5
43F
  8
TEAM-NET
 10
-108.403352
 20
-353.442309
 30
741.596648
 70
    64
  0
VERTEX
  5
440
  8
TEAM-NET
 10
-102.530007
 20
-362.750482
 30
747.469993
 70
    64
  0
VERTEX
  5
441
  8
TEAM-NET
 10
-96.257732
 20
-371.522687
 30
753.742268
 70
    64
  0
VERTEX
  5
442
  8
TEAM-NET
 10
-89.610932
 20
-379.724793
 30
760.389068
 70
    64
  0
VERTEX
  5
443
  8
TEAM-NET
 10
-82.615468
 20
-387.324887
 30
767.384532
 70
    64
  0
VERTEX
  5
444
  8
TEAM-NET
 10
-75.298559
 20
-394.293396
 30
774.701441
 70
    64
  0
VERTEX
  5
445
  8
TEAM-NET
 10
-67.688673
 20
-400.603209
 30
782.311327
 70
    64
  0
VERTEX
  5
446
  8
TEAM-NET
 10
-59.815421
 20
-406.229774
 30
790.184579
 70
    64
  0
VERTEX
  5
447
  8
TEAM-NET
 10
-51.709435
 20
-411.151199
 30
798.290565
 70
    64
  0
VERTEX
  5
448
  8
TEAM-NET
 10
-43.402254
 20
-415.348335
 30
806.597746
 70
    64
  0
VERTEX
  5
449
  8
TEAM-NET
 10
-34.926202
 20
-418.804853
 30
815.073798
 70
    64
  0
VERTEX
  5
44A
  8
TEAM-NET
 10
-26.314256
 20
-421.507302
 30
823.685744
 70
    64
  0
VERTEX
  5
44B
  8
TEAM-NET
 10
-17.599925
 20
-423.445169
 30
832.400075
 70
    64
  0
VERTEX
  5
44C
  8
TEAM-NET
 10
-8.817116
 20
-424.610914
 30
841.182884
 70
    64
  0
VERTEX
  5
44D
  8
TEAM-NET
 10
0.0
 20
-425.0
 30
850.0
 70
    64
  0
VERTEX
  5
44E
  8
TEAM-NET
 10
0.0
 20
-100.0
 30
850.0
 70
    64
  0
VERTEX
  5
44F
  8
TEAM-NET
 10
-119.59865
 20
-100.0
 30
749.644817
 70
    64
  0
VERTEX
  5
450
  8
TEAM-NET
 10
-125.335996
 20
-109.977011
 30
744.830612
 70
    64
  0
VERTEX
  5
451
  8
TEAM-NET
 10
-130.585676
 20
-120.401561
 30
740.425607
 70
    64
  0
VERTEX
  5
452
  8
TEAM-NET
 10
-135.327266
 20
-131.233088
 30
736.446941
 70
    64
  0
VERTEX
  5
453
  8
TEAM-NET
 10
-139.542316
 20
-142.42945
 30
732.910094
 70
    64
  0
VERTEX
  5
454
  8
TEAM-NET
 10
-143.214427
 20
-153.947082
 30
729.828827
 70
    64
  0
VERTEX
  5
455
  8
TEAM-NET
 10
-146.32931
 20
-165.741171
 30
727.21513
 70
    64
  0
VERTEX
  5
456
  8
TEAM-NET
 10
-148.874846
 20
-177.765828
 30
725.079172
 70
    64
  0
VERTEX
  5
457
  8
TEAM-NET
 10
-150.84113
 20
-189.974267
 30
723.429263
 70
    64
  0
VERTEX
  5
458
  8
TEAM-NET
 10
-152.220513
 20
-202.318986
 30
722.271824
 70
    64
  0
VERTEX
  5
459
  8
TEAM-NET
 10
-153.007627
 20
-214.751953
 30
721.611357
 70
    64
  0
VERTEX
  5
45A
  8
TEAM-NET
 10
-153.199409
 20
-227.224795
 30
721.450432
 70
    64
  0
VERTEX
  5
45B
  8
TEAM-NET
 10
-152.795114
 20
-239.688979
 30
721.789676
 70
    64
  0
VERTEX
  5
45C
  8
TEAM-NET
 10
-151.796314
 20
-252.096012
 30
722.627769
 70
    64
  0
VERTEX
  5
45D
  8
TEAM-NET
 10
-150.206896
 20
-264.397617
 30
723.961449
 70
    64
  0
VERTEX
  5
45E
  8
TEAM-NET
 10
-148.033043
 20
-276.545932
 30
725.785528
 70
    64
  0
VERTEX
  5
45F
  8
TEAM-NET
 10
-145.283215
 20
-288.493688
 30
728.092908
 70
    64
  0
VERTEX
  5
460
  8
TEAM-NET
 10
-141.968109
 20
-300.1944
 30
730.874612
 70
    64
  0
VERTEX
  5
461
  8
TEAM-NET
 10
-138.100626
 20
-311.60254
 30
734.119816
 70
    64
  0
VERTEX
  5
462
  8
TEAM-NET
 10
-133.695812
 20
-322.673722
 30
737.815893
 70
    64
  0
VERTEX
  5
463
  8
TEAM-NET
 10
-128.770806
 20
-333.36487
 30
741.948464
 70
    64
  0
VERTEX
  5
464
  8
TEAM-NET
 10
-123.344771
 20
-343.634384
 30
746.501448
 70
    64
  0
VERTEX
  5
465
  8
TEAM-NET
 10
-117.438819
 20
-353.442309
 30
751.45713
 70
    64
  0
VERTEX
  5
466
  8
TEAM-NET
 10
-111.075928
 20
-362.750482
 30
756.79623
 70
    64
  0
VERTEX
  5
467
  8
TEAM-NET
 10
-104.280857
 20
-371.522687
 30
762.497972
 70
    64
  0
VERTEX
  5
468
  8
TEAM-NET
 10
-97.080043
 20
-379.724793
 30
768.540172
 70
    64
  0
VERTEX
  5
469
  8
TEAM-NET
 10
-89.501504
 20
-387.324887
 30
774.899321
 70
    64
  0
VERTEX
  5
46A
  8
TEAM-NET
 10
-81.574727
 20
-394.293396
 30
781.550677
 70
    64
  0
VERTEX
  5
46B
  8
TEAM-NET
 10
-73.330554
 20
-400.603209
 30
788.468359
 70
    64
  0
VERTEX
  5
46C
  8
TEAM-NET
 10
-64.801062
 20
-406.229774
 30
795.625452
 70
    64
  0
VERTEX
  5
46D
  8
TEAM-NET
 10
-56.019439
 20
-411.151199
 30
802.99411
 70
    64
  0
VERTEX
  5
46E
  8
TEAM-NET
 10
-47.019851
 20
-415.348335
 30
810.54566
 70
    64
  0
VERTEX
  5
46F
  8
TEAM-NET
 10
-37.837316
 20
-418.804853
 30
818.250722
 70
    64
  0
VERTEX
  5
470
  8
TEAM-NET
 10
-28.507561
 20
-421.507302
 30
826.079316
 70
    64
  0
VERTEX
  5
471
  8
TEAM-NET
 10
-19.066887
 20
-423.445169
 30
834.000982
 70
    64
  0
VERTEX
  5
472
  8
TEAM-NET
 10
-9.552026
 20
-424.610914
 30
841.984898
 70
    64
  0
VERTEX
  5
473
  8
TEAM-NET
 10
0.0
 20
-425.0
 30
850.0
 70
    64
  0
VERTEX
  5
474
  8
TEAM-NET
 10
0.0
 20
-100.0
 30
850.0
 70
    64
  0
VERTEX
  5
475
  8
TEAM-NET
 10
-127.890072
 20
-100.0
 30
760.450408
 70
    64
  0
VERTEX
  5
476
  8
TEAM-NET
 10
-134.025171
 20
-109.977011
 30
756.154565
 70
    64
  0
VERTEX
  5
477
  8
TEAM-NET
 10
-139.638796
 20
-120.401561
 30
752.223862
 70
    64
  0
VERTEX
  5
478
  8
TEAM-NET
 10
-144.709106
 20
-131.233088
 30
748.673593
 70
    64
  0
VERTEX
  5
479
  8
TEAM-NET
 10
-149.216374
 20
-142.42945
 30
745.51757
 70
    64
  0
VERTEX
  5
47A
  8
TEAM-NET
 10
-153.143061
 20
-153.947082
 30
742.768075
 70
    64
  0
VERTEX
  5
47B
  8
TEAM-NET
 10
-156.473889
 20
-165.741171
 30
740.435803
 70
    64
  0
VERTEX
  5
47C
  8
TEAM-NET
 10
-159.1959
 20
-177.765828
 30
738.529831
 70
    64
  0
VERTEX
  5
47D
  8
TEAM-NET
 10
-161.298501
 20
-189.974267
 30
737.057574
 70
    64
  0
VERTEX
  5
47E
  8
TEAM-NET
 10
-162.773512
 20
-202.318986
 30
736.02476
 70
    64
  0
VERTEX
  5
47F
  8
TEAM-NET
 10
-163.615194
 20
-214.751953
 30
735.435408
 70
    64
  0
VERTEX
  5
480
  8
TEAM-NET
 10
-163.820272
 20
-227.224795
 30
735.291811
 70
    64
  0
VERTEX
  5
481
  8
TEAM-NET
 10
-163.387948
 20
-239.688979
 30
735.594527
 70
    64
  0
VERTEX
  5
482
  8
TEAM-NET
 10
-162.319905
 20
-252.096012
 30
736.342379
 70
    64
  0
VERTEX
  5
483
  8
TEAM-NET
 10
-160.620297
 20
-264.397617
 30
737.532458
 70
    64
  0
VERTEX
  5
484
  8
TEAM-NET
 10
-158.295737
 20
-276.545932
 30
739.160131
 70
    64
  0
VERTEX
  5
485
  8
TEAM-NET
 10
-155.355271
 20
-288.493688
 30
741.219068
 70
    64
  0
VERTEX
  5
486
  8
TEAM-NET
 10
-151.81034
 20
-300.1944
 30
743.701256
 70
    64
  0
VERTEX
  5
487
  8
TEAM-NET
 10
-147.674735
 20
-311.60254
 30
746.597037
 70
    64
  0
VERTEX
  5
488
  8
TEAM-NET
 10
-142.964548
 20
-322.673722
 30
749.895146
 70
    64
  0
VERTEX
  5
489
  8
TEAM-NET
 10
-137.698106
 20
-333.36487
 30
753.582748
 70
    64
  0
VERTEX
  5
48A
  8
TEAM-NET
 10
-131.8959
 20
-343.634384
 30
757.645496
 70
    64
  0
VERTEX
  5
48B
  8
TEAM-NET
 10
-125.580506
 20
-353.442309
 30
762.067583
 70
    64
  0
VERTEX
  5
48C
  8
TEAM-NET
 10
-118.776495
 20
-362.750482
 30
766.831803
 70
    64
  0
VERTEX
  5
48D
  8
TEAM-NET
 10
-111.510341
 20
-371.522687
 30
771.919619
 70
    64
  0
VERTEX
  5
48E
  8
TEAM-NET
 10
-103.810316
 20
-379.724793
 30
777.311234
 70
    64
  0
VERTEX
  5
48F
  8
TEAM-NET
 10
-95.706379
 20
-387.324887
 30
782.985672
 70
    64
  0
VERTEX
  5
490
  8
TEAM-NET
 10
-87.230062
 20
-394.293396
 30
788.920853
 70
    64
  0
VERTEX
  5
491
  8
TEAM-NET
 10
-78.414345
 20
-400.603209
 30
795.093684
 70
    64
  0
VERTEX
  5
492
  8
TEAM-NET
 10
-69.293529
 20
-406.229774
 30
801.480149
 70
    64
  0
VERTEX
  5
493
  8
TEAM-NET
 10
-59.903101
 20
-411.151199
 30
808.055397
 70
    64
  0
VERTEX
  5
494
  8
TEAM-NET
 10
-50.279599
 20
-415.348335
 30
814.793846
 70
    64
  0
VERTEX
  5
495
  8
TEAM-NET
 10
-40.460465
 20
-418.804853
 30
821.669277
 70
    64
  0
VERTEX
  5
496
  8
TEAM-NET
 10
-30.483906
 20
-421.507302
 30
828.654939
 70
    64
  0
VERTEX
  5
497
  8
TEAM-NET
 10
-20.388738
 20
-423.445169
 30
835.723652
 70
    64
  0
VERTEX
  5
498
  8
TEAM-NET
 10
-10.21424
 20
-424.610914
 30
842.847912
 70
    64
  0
VERTEX
  5
499
  8
TEAM-NET
 10
0.0
 20
-425.0
 30
850.0
 70
    64
  0
VERTEX
  5
49A
  8
TEAM-NET
 10
0.0
 20
-100.0
 30
850.0
 70
    64
  0
VERTEX
  5
49B
  8
TEAM-NET
 10
-135.208173
 20
-100.0
 30
771.937525
 70
    64
  0
VERTEX
  5
49C
  8
TEAM-NET
 10
-141.694333
 20
-109.977011
 30
768.192739
 70
    64
  0
VERTEX
  5
49D
  8
TEAM-NET
 10
-147.62918
 20
-120.401561
 30
764.766253
 70
    64
  0
VERTEX
  5
49E
  8
TEAM-NET
 10
-152.989623
 20
-131.233088
 30
761.6714
 70
    64
  0
VERTEX
  5
49F
  8
TEAM-NET
 10
-157.754804
 20
-142.42945
 30
758.920221
 70
    64
  0
VERTEX
  5
4A0
  8
TEAM-NET
 10
-161.906183
 20
-153.947082
 30
756.523422
 70
    64
  0
VERTEX
  5
4A1
  8
TEAM-NET
 10
-165.427608
 20
-165.741171
 30
754.490326
 70
    64
  0
VERTEX
  5
4A2
  8
TEAM-NET
 10
-168.305376
 20
-177.765828
 30
752.828846
 70
    64
  0
VERTEX
  5
4A3
  8
TEAM-NET
 10
-170.528292
 20
-189.974267
 30
751.545444
 70
    64
  0
VERTEX
  5
4A4
  8
TEAM-NET
 10
-172.087706
 20
-202.318986
 30
750.645116
 70
    64
  0
VERTEX
  5
4A5
  8
TEAM-NET
 10
-172.977551
 20
-214.751953
 30
750.131364
 70
    64
  0
VERTEX
  5
4A6
  8
TEAM-NET
 10
-173.194364
 20
-227.224795
 30
750.006187
 70
    64
  0
VERTEX
  5
4A7
  8
TEAM-NET
 10
-172.737302
 20
-239.688979
 30
750.270072
 70
    64
  0
VERTEX
  5
4A8
  8
TEAM-NET
 10
-171.608143
 20
-252.096012
 30
750.921993
 70
    64
  0
VERTEX
  5
4A9
  8
TEAM-NET
 10
-169.81128
 20
-264.397617
 30
751.959412
 70
    64
  0
VERTEX
  5
4AA
  8
TEAM-NET
 10
-167.353705
 20
-276.545932
 30
753.378293
 70
    64
  0
VERTEX
  5
4AB
  8
TEAM-NET
 10
-164.244981
 20
-288.493688
 30
755.173116
 70
    64
  0
VERTEX
  5
4AC
  8
TEAM-NET
 10
-160.497201
 20
-300.1944
 30
757.336898
 70
    64
  0
VERTEX
  5
4AD
  8
TEAM-NET
 10
-156.12495
 20
-311.60254
 30
759.861218
 70
    64
  0
VERTEX
  5
4AE
  8
TEAM-NET
 10
-151.145238
 20
-322.673722
 30
762.736256
 70
    64
  0
VERTEX
  5
4AF
  8
TEAM-NET
 10
-145.577441
 20
-333.36487
 30
765.950825
 70
    64
  0
VERTEX
  5
4B0
  8
TEAM-NET
 10
-139.443222
 20
-343.634384
 30
769.492418
 70
    64
  0
VERTEX
  5
4B1
  8
TEAM-NET
 10
-132.766449
 20
-353.442309
 30
773.347255
 70
    64
  0
VERTEX
  5
4B2
  8
TEAM-NET
 10
-125.5731
 20
-362.750482
 30
777.500337
 70
    64
  0
VERTEX
  5
4B3
  8
TEAM-NET
 10
-117.891164
 20
-371.522687
 30
781.935505
 70
    64
  0
VERTEX
  5
4B4
  8
TEAM-NET
 10
-109.750529
 20
-379.724793
 30
786.635502
 70
    64
  0
VERTEX
  5
4B5
  8
TEAM-NET
 10
-101.182871
 20
-387.324887
 30
791.582042
 70
    64
  0
VERTEX
  5
4B6
  8
TEAM-NET
 10
-92.221524
 20
-394.293396
 30
796.755878
 70
    64
  0
VERTEX
  5
4B7
  8
TEAM-NET
 10
-82.901356
 20
-400.603209
 30
802.13688
 70
    64
  0
VERTEX
  5
4B8
  8
TEAM-NET
 10
-73.25863
 20
-406.229774
 30
807.70411
 70
    64
  0
VERTEX
  5
4B9
  8
TEAM-NET
 10
-63.330865
 20
-411.151199
 30
813.435908
 70
    64
  0
VERTEX
  5
4BA
  8
TEAM-NET
 10
-53.156688
 20
-415.348335
 30
819.309972
 70
    64
  0
VERTEX
  5
4BB
  8
TEAM-NET
 10
-42.775686
 20
-418.804853
 30
825.303446
 70
    64
  0
VERTEX
  5
4BC
  8
TEAM-NET
 10
-32.22825
 20
-421.507302
 30
831.393011
 70
    64
  0
VERTEX
  5
4BD
  8
TEAM-NET
 10
-21.555418
 20
-423.445169
 30
837.554973
 70
    64
  0
VERTEX
  5
4BE
  8
TEAM-NET
 10
-10.798717
 20
-424.610914
 30
843.765358
 70
    64
  0
VERTEX
  5
4BF
  8
TEAM-NET
 10
0.0
 20
-425.0
 30
850.0
 70
    64
  0
VERTEX
  5
4C0
  8
TEAM-NET
 10
0.0
 20
-100.0
 30
850.0
 70
    64
  0
VERTEX
  5
4C1
  8
TEAM-NET
 10
-141.497258
 20
-100.0
 30
784.018745
 70
    64
  0
VERTEX
  5
4C2
  8
TEAM-NET
 10
-148.285116
 20
-109.977011
 30
780.853515
 70
    64
  0
VERTEX
  5
4C3
  8
TEAM-NET
 10
-154.496017
 20
-120.401561
 30
777.957324
 70
    64
  0
VERTEX
  5
4C4
  8
TEAM-NET
 10
-160.105796
 20
-131.233088
 30
775.341441
 70
    64
  0
VERTEX
  5
4C5
  8
TEAM-NET
 10
-165.092625
 20
-142.42945
 30
773.016045
 70
    64
  0
VERTEX
  5
4C6
  8
TEAM-NET
 10
-169.437102
 20
-153.947082
 30
770.990182
 70
    64
  0
VERTEX
  5
4C7
  8
TEAM-NET
 10
-173.122322
 20
-165.741171
 30
769.271735
 70
    64
  0
VERTEX
  5
4C8
  8
TEAM-NET
 10
-176.133948
 20
-177.765828
 30
767.867391
 70
    64
  0
VERTEX
  5
4C9
  8
TEAM-NET
 10
-178.460261
 20
-189.974267
 30
766.782614
 70
    64
  0
VERTEX
  5
4CA
  8
TEAM-NET
 10
-180.092209
 20
-202.318986
 30
766.021624
 70
    64
  0
VERTEX
  5
4CB
  8
TEAM-NET
 10
-181.023444
 20
-214.751953
 30
765.587382
 70
    64
  0
VERTEX
  5
4CC
  8
TEAM-NET
 10
-181.250342
 20
-227.224795
 30
765.481577
 70
    64
  0
VERTEX
  5
4CD
  8
TEAM-NET
 10
-180.77202
 20
-239.688979
 30
765.704623
 70
    64
  0
VERTEX
  5
4CE
  8
TEAM-NET
 10
-179.590339
 20
-252.096012
 30
766.25565
 70
    64
  0
VERTEX
  5
4CF
  8
TEAM-NET
 10
-177.709897
 20
-264.397617
 30
767.132514
 70
    64
  0
VERTEX
  5
4D0
  8
TEAM-NET
 10
-175.138011
 20
-276.545932
 30
768.331804
 70
    64
  0
VERTEX
  5
4D1
  8
TEAM-NET
 10
-171.884686
 20
-288.493688
 30
769.848854
 70
    64
  0
VERTEX
  5
4D2
  8
TEAM-NET
 10
-167.962583
 20
-300.1944
 30
771.677761
 70
    64
  0
VERTEX
  5
4D3
  8
TEAM-NET
 10
-163.38696
 20
-311.60254
 30
773.811409
 70
    64
  0
VERTEX
  5
4D4
  8
TEAM-NET
 10
-158.175621
 20
-322.673722
 30
776.241497
 70
    64
  0
VERTEX
  5
4D5
  8
TEAM-NET
 10
-152.348843
 20
-333.36487
 30
778.958568
 70
    64
  0
VERTEX
  5
4D6
  8
TEAM-NET
 10
-145.929297
 20
-343.634384
 30
781.952051
 70
    64
  0
VERTEX
  5
4D7
  8
TEAM-NET
 10
-138.94196
 20
-353.442309
 30
785.2103
 70
    64
  0
VERTEX
  5
4D8
  8
TEAM-NET
 10
-131.414019
 20
-362.750482
 30
788.720637
 70
    64
  0
VERTEX
  5
4D9
  8
TEAM-NET
 10
-123.374764
 20
-371.522687
 30
792.469403
 70
    64
  0
VERTEX
  5
4DA
  8
TEAM-NET
 10
-114.855475
 20
-379.724793
 30
796.442012
 70
    64
  0
VERTEX
  5
4DB
  8
TEAM-NET
 10
-105.8893
 20
-387.324887
 30
800.623008
 70
    64
  0
VERTEX
  5
4DC
  8
TEAM-NET
 10
-96.511124
 20
-394.293396
 30
804.996124
 70
    64
  0
VERTEX
  5
4DD
  8
TEAM-NET
 10
-86.757437
 20
-400.603209
 30
809.544343
 70
    64
  0
VERTEX
  5
4DE
  8
TEAM-NET
 10
-76.666188
 20
-406.229774
 30
814.249969
 70
    64
  0
VERTEX
  5
4DF
  8
TEAM-NET
 10
-66.276642
 20
-411.151199
 30
819.094694
 70
    64
  0
VERTEX
  5
4E0
  8
TEAM-NET
 10
-55.629223
 20
-415.348335
 30
824.059667
 70
    64
  0
VERTEX
  5
4E1
  8
TEAM-NET
 10
-44.765358
 20
-418.804853
 30
829.125571
 70
    64
  0
VERTEX
  5
4E2
  8
TEAM-NET
 10
-33.727318
 20
-421.507302
 30
834.272693
 70
    64
  0
VERTEX
  5
4E3
  8
TEAM-NET
 10
-22.558049
 20
-423.445169
 30
839.481009
 70
    64
  0
VERTEX
  5
4E4
  8
TEAM-NET
 10
-11.30101
 20
-424.610914
 30
844.730253
 70
    64
  0
VERTEX
  5
4E5
  8
TEAM-NET
 10
0.0
 20
-425.0
 30
850.0
 70
    64
  0
VERTEX
  5
4E6
  8
TEAM-NET
 10
0.0
 20
-100.0
 30
850.0
 70
    64
  0
VERTEX
  5
4E7
  8
TEAM-NET
 10
-146.709463
 20
-100.0
 30
796.602122
 70
    64
  0
VERTEX
  5
4E8
  8
TEAM-NET
 10
-153.74736
 20
-109.977011
 30
794.040538
 70
    64
  0
VERTEX
  5
4E9
  8
TEAM-NET
 10
-160.187046
 20
-120.401561
 30
791.696683
 70
    64
  0
VERTEX
  5
4EA
  8
TEAM-NET
 10
-166.003467
 20
-131.233088
 30
789.579679
 70
    64
  0
VERTEX
  5
4EB
  8
TEAM-NET
 10
-171.173992
 20
-142.42945
 30
787.697762
 70
    64
  0
VERTEX
  5
4EC
  8
TEAM-NET
 10
-175.678502
 20
-153.947082
 30
786.058255
 70
    64
  0
VERTEX
  5
4ED
  8
TEAM-NET
 10
-179.499471
 20
-165.741171
 30
784.667535
 70
    64
  0
VERTEX
  5
4EE
  8
TEAM-NET
 10
-182.622034
 20
-177.765828
 30
783.531016
 70
    64
  0
VERTEX
  5
4EF
  8
TEAM-NET
 10
-185.034039
 20
-189.974267
 30
782.653118
 70
    64
  0
VERTEX
  5
4F0
  8
TEAM-NET
 10
-186.726102
 20
-202.318986
 30
782.037257
 70
    64
  0
VERTEX
  5
4F1
  8
TEAM-NET
 10
-187.69164
 20
-214.751953
 30
781.68583
 70
    64
  0
VERTEX
  5
4F2
  8
TEAM-NET
 10
-187.926896
 20
-227.224795
 30
781.600204
 70
    64
  0
VERTEX
  5
4F3
  8
TEAM-NET
 10
-187.430954
 20
-239.688979
 30
781.780712
 70
    64
  0
VERTEX
  5
4F4
  8
TEAM-NET
 10
-186.205745
 20
-252.096012
 30
782.226651
 70
    64
  0
VERTEX
  5
4F5
  8
TEAM-NET
 10
-184.256035
 20
-264.397617
 30
782.936288
 70
    64
  0
VERTEX
  5
4F6
  8
TEAM-NET
 10
-181.58941
 20
-276.545932
 30
783.90686
 70
    64
  0
VERTEX
  5
4F7
  8
TEAM-NET
 10
-178.216246
 20
-288.493688
 30
785.134591
 70
    64
  0
VERTEX
  5
4F8
  8
TEAM-NET
 10
-174.149667
 20
-300.1944
 30
786.614705
 70
    64
  0
VERTEX
  5
4F9
  8
TEAM-NET
 10
-169.405496
 20
-311.60254
 30
788.341442
 70
    64
  0
VERTEX
  5
4FA
  8
TEAM-NET
 10
-164.002192
 20
-322.673722
 30
790.308084
 70
    64
  0
VERTEX
  5
4FB
  8
TEAM-NET
 10
-157.960778
 20
-333.36487
 30
792.506978
 70
    64
  0
VERTEX
  5
4FC
  8
TEAM-NET
 10
-151.304761
 20
-343.634384
 30
794.929571
 70
    64
  0
VERTEX
  5
4FD
  8
TEAM-NET
 10
-144.060038
 20
-353.442309
 30
797.566434
 70
    64
  0
VERTEX
  5
4FE
  8
TEAM-NET
 10
-136.254797
 20
-362.750482
 30
800.40731
 70
    64
  0
VERTEX
  5
4FF
  8
TEAM-NET
 10
-127.919408
 20
-371.522687
 30
803.441143
 70
    64
  0
VERTEX
  5
500
  8
TEAM-NET
 10
-119.086302
 20
-379.724793
 30
806.656131
 70
    64
  0
VERTEX
  5
501
  8
TEAM-NET
 10
-109.789848
 20
-387.324887
 30
810.039763
 70
    64
  0
VERTEX
  5
502
  8
TEAM-NET
 10
-100.066216
 20
-394.293396
 30
813.578876
 70
    64
  0
VERTEX
  5
503
  8
TEAM-NET
 10
-89.953241
 20
-400.603209
 30
817.259698
 70
    64
  0
VERTEX
  5
504
  8
TEAM-NET
 10
-79.490271
 20
-406.229774
 30
821.067908
 70
    64
  0
VERTEX
  5
505
  8
TEAM-NET
 10
-68.718015
 20
-411.151199
 30
824.988688
 70
    64
  0
VERTEX
  5
506
  8
TEAM-NET
 10
-57.678386
 20
-415.348335
 30
829.006784
 70
    64
  0
VERTEX
  5
507
  8
TEAM-NET
 10
-46.414339
 20
-418.804853
 30
833.106562
 70
    64
  0
VERTEX
  5
508
  8
TEAM-NET
 10
-34.9697
 20
-421.507302
 30
837.27207
 70
    64
  0
VERTEX
  5
509
  8
TEAM-NET
 10
-23.388999
 20
-423.445169
 30
841.4871
 70
    64
  0
VERTEX
  5
50A
  8
TEAM-NET
 10
-11.717295
 20
-424.610914
 30
845.735253
 70
    64
  0
VERTEX
  5
50B
  8
TEAM-NET
 10
0.0
 20
-425.0
 30
850.0
 70
    64
  0
VERTEX
  5
50C
  8
TEAM-NET
 10
0.0
 20
-100.0
 30
850.0
 70
    64
  0
VERTEX
  5
50D
  8
TEAM-NET
 10
-150.805121
 20
-100.0
 30
809.59189
 70
    64
  0
VERTEX
  5
50E
  8
TEAM-NET
 10
-158.039493
 20
-109.977011
 30
807.653445
 70
    64
  0
VERTEX
  5
50F
  8
TEAM-NET
 10
-164.658955
 20
-120.401561
 30
805.879766
 70
    64
  0
VERTEX
  5
510
  8
TEAM-NET
 10
-170.637752
 20
-131.233088
 30
804.277752
 70
    64
  0
VERTEX
  5
511
  8
TEAM-NET
 10
-175.952621
 20
-142.42945
 30
802.853637
 70
    64
  0
VERTEX
  5
512
  8
TEAM-NET
 10
-180.582882
 20
-153.947082
 30
801.612962
 70
    64
  0
VERTEX
  5
513
  8
TEAM-NET
 10
-184.510521
 20
-165.741171
 30
800.560555
 70
    64
  0
VERTEX
  5
514
  8
TEAM-NET
 10
-187.720255
 20
-177.765828
 30
799.700509
 70
    64
  0
VERTEX
  5
515
  8
TEAM-NET
 10
-190.199596
 20
-189.974267
 30
799.036172
 70
    64
  0
VERTEX
  5
516
  8
TEAM-NET
 10
-191.938896
 20
-202.318986
 30
798.570128
 70
    64
  0
VERTEX
  5
517
  8
TEAM-NET
 10
-192.931389
 20
-214.751953
 30
798.30419
 70
    64
  0
VERTEX
  5
518
  8
TEAM-NET
 10
-193.173212
 20
-227.224795
 30
798.239394
 70
    64
  0
VERTEX
  5
519
  8
TEAM-NET
 10
-192.663426
 20
-239.688979
 30
798.375991
 70
    64
  0
VERTEX
  5
51A
  8
TEAM-NET
 10
-191.404012
 20
-252.096012
 30
798.713449
 70
    64
  0
VERTEX
  5
51B
  8
TEAM-NET
 10
-189.399872
 20
-264.397617
 30
799.250457
 70
    64
  0
VERTEX
  5
51C
  8
TEAM-NET
 10
-186.658804
 20
-276.545932
 30
799.984924
 70
    64
  0
VERTEX
  5
51D
  8
TEAM-NET
 10
-183.191472
 20
-288.493688
 30
800.913993
 70
    64
  0
VERTEX
  5
51E
  8
TEAM-NET
 10
-179.011368
 20
-300.1944
 30
802.034049
 70
    64
  0
VERTEX
  5
51F
  8
TEAM-NET
 10
-174.134755
 20
-311.60254
 30
803.340733
 70
    64
  0
VERTEX
  5
520
  8
TEAM-NET
 10
-168.580608
 20
-322.673722
 30
804.828962
 70
    64
  0
VERTEX
  5
521
  8
TEAM-NET
 10
-162.370537
 20
-333.36487
 30
806.492946
 70
    64
  0
VERTEX
  5
522
  8
TEAM-NET
 10
-155.528705
 20
-343.634384
 30
808.326209
 70
    64
  0
VERTEX
  5
523
  8
TEAM-NET
 10
-148.081732
 20
-353.442309
 30
810.321619
 70
    64
  0
VERTEX
  5
524
  8
TEAM-NET
 10
-140.058594
 20
-362.750482
 30
812.471413
 70
    64
  0
VERTEX
  5
525
  8
TEAM-NET
 10
-131.490508
 20
-371.522687
 30
814.767225
 70
    64
  0
VERTEX
  5
526
  8
TEAM-NET
 10
-122.41081
 20
-379.724793
 30
817.200122
 70
    64
  0
VERTEX
  5
527
  8
TEAM-NET
 10
-112.854828
 20
-387.324887
 30
819.76064
 70
    64
  0
VERTEX
  5
528
  8
TEAM-NET
 10
-102.859744
 20
-394.293396
 30
822.438815
 70
    64
  0
VERTEX
  5
529
  8
TEAM-NET
 10
-92.464448
 20
-400.603209
 30
825.224226
 70
    64
  0
VERTEX
  5
52A
  8
TEAM-NET
 10
-81.709384
 20
-406.229774
 30
828.106036
 70
    64
  0
VERTEX
  5
52B
  8
TEAM-NET
 10
-70.636401
 20
-411.151199
 30
831.073033
 70
    64
  0
VERTEX
  5
52C
  8
TEAM-NET
 10
-59.288582
 20
-415.348335
 30
834.113672
 70
    64
  0
VERTEX
  5
52D
  8
TEAM-NET
 10
-47.710079
 20
-418.804853
 30
837.216123
 70
    64
  0
VERTEX
  5
52E
  8
TEAM-NET
 10
-35.945942
 20
-421.507302
 30
840.368314
 70
    64
  0
VERTEX
  5
52F
  8
TEAM-NET
 10
-24.041945
 20
-423.445169
 30
843.55798
 70
    64
  0
VERTEX
  5
530
  8
TEAM-NET
 10
-12.044404
 20
-424.610914
 30
846.772712
 70
    64
  0
VERTEX
  5
531
  8
TEAM-NET
 10
0.0
 20
-425.0
 30
850.0
 70
    64
  0
VERTEX
  5
532
  8
TEAM-NET
 10
0.0
 20
-100.0
 30
850.0
 70
    64
  0
VERTEX
  5
533
  8
TEAM-NET
 10
-153.753061
 20
-100.0
 30
822.889187
 70
    64
  0
VERTEX
  5
534
  8
TEAM-NET
 10
-161.12885
 20
-109.977011
 30
821.588636
 70
    64
  0
VERTEX
  5
535
  8
TEAM-NET
 10
-167.87771
 20
-120.401561
 30
820.39863
 70
    64
  0
VERTEX
  5
536
  8
TEAM-NET
 10
-173.97338
 20
-131.233088
 30
819.323799
 70
    64
  0
VERTEX
  5
537
  8
TEAM-NET
 10
-179.392144
 20
-142.42945
 30
818.368325
 70
    64
  0
VERTEX
  5
538
  8
TEAM-NET
 10
-184.112918
 20
-153.947082
 30
817.535925
 70
    64
  0
VERTEX
  5
539
  8
TEAM-NET
 10
-188.117335
 20
-165.741171
 30
816.829838
 70
    64
  0
VERTEX
  5
53A
  8
TEAM-NET
 10
-191.389812
 20
-177.765828
 30
816.252812
 70
    64
  0
VERTEX
  5
53B
  8
TEAM-NET
 10
-193.917619
 20
-189.974267
 30
815.807092
 70
    64
  0
VERTEX
  5
53C
  8
TEAM-NET
 10
-195.690919
 20
-202.318986
 30
815.494411
 70
    64
  0
VERTEX
  5
53D
  8
TEAM-NET
 10
-196.702813
 20
-214.751953
 30
815.315987
 70
    64
  0
VERTEX
  5
53E
  8
TEAM-NET
 10
-196.949364
 20
-227.224795
 30
815.272513
 70
    64
  0
VERTEX
  5
53F
  8
TEAM-NET
 10
-196.429612
 20
-239.688979
 30
815.36416
 70
    64
  0
VERTEX
  5
540
  8
TEAM-NET
 10
-195.14558
 20
-252.096012
 30
815.590569
 70
    64
  0
VERTEX
  5
541
  8
TEAM-NET
 10
-193.102263
 20
-264.397617
 30
815.950861
 70
    64
  0
VERTEX
  5
542
  8
TEAM-NET
 10
-190.307612
 20
-276.545932
 30
816.443633
 70
    64
  0
VERTEX
  5
543
  8
TEAM-NET
 10
-186.772501
 20
-288.493688
 30
817.066969
 70
    64
  0
VERTEX
  5
544
  8
TEAM-NET
 10
-182.510683
 20
-300.1944
 30
817.818442
 70
    64
  0
VERTEX
  5
545
  8
TEAM-NET
 10
-177.538742
 20
-311.60254
 30
818.69513
 70
    64
  0
VERTEX
  5
546
  8
TEAM-NET
 10
-171.876023
 20
-322.673722
 30
819.69362
 70
    64
  0
VERTEX
  5
547
  8
TEAM-NET
 10
-165.544558
 20
-333.36487
 30
820.810028
 70
    64
  0
VERTEX
  5
548
  8
TEAM-NET
 10
-158.568981
 20
-343.634384
 30
822.04001
 70
    64
  0
VERTEX
  5
549
  8
TEAM-NET
 10
-150.976435
 20
-353.442309
 30
823.378781
 70
    64
  0
VERTEX
  5
54A
  8
TEAM-NET
 10
-142.796461
 20
-362.750482
 30
824.821131
 70
    64
  0
VERTEX
  5
54B
  8
TEAM-NET
 10
-134.060885
 20
-371.522687
 30
826.361449
 70
    64
  0
VERTEX
  5
54C
  8
TEAM-NET
 10
-124.803697
 20
-379.724793
 30
827.993741
 70
    64
  0
VERTEX
  5
54D
  8
TEAM-NET
 10
-115.060915
 20
-387.324887
 30
829.711656
 70
    64
  0
VERTEX
  5
54E
  8
TEAM-NET
 10
-104.870448
 20
-394.293396
 30
831.508511
 70
    64
  0
VERTEX
  5
54F
  8
TEAM-NET
 10
-94.271943
 20
-400.603209
 30
833.377313
 70
    64
  0
VERTEX
  5
550
  8
TEAM-NET
 10
-83.30664
 20
-406.229774
 30
835.310792
 70
    64
  0
VERTEX
  5
551
  8
TEAM-NET
 10
-72.017202
 20
-411.151199
 30
837.301424
 70
    64
  0
VERTEX
  5
552
  8
TEAM-NET
 10
-60.447555
 20
-415.348335
 30
839.341465
 70
    64
  0
VERTEX
  5
553
  8
TEAM-NET
 10
-48.642716
 20
-418.804853
 30
841.422977
 70
    64
  0
VERTEX
  5
554
  8
TEAM-NET
 10
-36.648614
 20
-421.507302
 30
843.537861
 70
    64
  0
VERTEX
  5
555
  8
TEAM-NET
 10
-24.511917
 20
-423.445169
 30
845.677888
 70
    64
  0
VERTEX
  5
556
  8
TEAM-NET
 10
-12.279848
 20
-424.610914
 30
847.834731
 70
    64
  0
VERTEX
  5
557
  8
TEAM-NET
 10
0.0
 20
-425.0
 30
850.0
 70
    64
  0
VERTEX
  5
558
  8
TEAM-NET
 10
0.0
 20
-100.0
 30
850.0
 70
    64
  0
VERTEX
  5
559
  8
TEAM-NET
 10
-155.530847
 20
-100.0
 30
836.392814
 70
    64
  0
VERTEX
  5
55A
  8
TEAM-NET
 10
-162.99192
 20
-109.977011
 30
835.740055
 70
    64
  0
VERTEX
  5
55B
  8
TEAM-NET
 10
-169.818814
 20
-120.401561
 30
835.142779
 70
    64
  0
VERTEX
  5
55C
  8
TEAM-NET
 10
-175.984966
 20
-131.233088
 30
834.603311
 70
    64
  0
VERTEX
  5
55D
  8
TEAM-NET
 10
-181.466385
 20
-142.42945
 30
834.123749
 70
    64
  0
VERTEX
  5
55E
  8
TEAM-NET
 10
-186.241744
 20
-153.947082
 30
833.705959
 70
    64
  0
VERTEX
  5
55F
  8
TEAM-NET
 10
-190.292461
 20
-165.741171
 30
833.351567
 70
    64
  0
VERTEX
  5
560
  8
TEAM-NET
 10
-193.602778
 20
-177.765828
 30
833.061952
 70
    64
  0
VERTEX
  5
561
  8
TEAM-NET
 10
-196.159812
 20
-189.974267
 30
832.83824
 70
    64
  0
VERTEX
  5
562
  8
TEAM-NET
 10
-197.953617
 20
-202.318986
 30
832.681303
 70
    64
  0
VERTEX
  5
563
  8
TEAM-NET
 10
-198.977211
 20
-214.751953
 30
832.59175
 70
    64
  0
VERTEX
  5
564
  8
TEAM-NET
 10
-199.226612
 20
-227.224795
 30
832.56993
 70
    64
  0
VERTEX
  5
565
  8
TEAM-NET
 10
-198.70085
 20
-239.688979
 30
832.615928
 70
    64
  0
VERTEX
  5
566
  8
TEAM-NET
 10
-197.401971
 20
-252.096012
 30
832.729565
 70
    64
  0
VERTEX
  5
567
  8
TEAM-NET
 10
-195.335028
 20
-264.397617
 30
832.910399
 70
    64
  0
VERTEX
  5
568
  8
TEAM-NET
 10
-192.508064
 20
-276.545932
 30
833.157727
 70
    64
  0
VERTEX
  5
569
  8
TEAM-NET
 10
-188.932078
 20
-288.493688
 30
833.470585
 70
    64
  0
VERTEX
  5
56A
  8
TEAM-NET
 10
-184.620983
 20
-300.1944
 30
833.847757
 70
    64
  0
VERTEX
  5
56B
  8
TEAM-NET
 10
-179.591553
 20
-311.60254
 30
834.287775
 70
    64
  0
VERTEX
  5
56C
  8
TEAM-NET
 10
-173.863358
 20
-322.673722
 30
834.788927
 70
    64
  0
VERTEX
  5
56D
  8
TEAM-NET
 10
-167.458684
 20
-333.36487
 30
835.349264
 70
    64
  0
VERTEX
  5
56E
  8
TEAM-NET
 10
-160.402452
 20
-343.634384
 30
835.966604
 70
    64
  0
VERTEX
  5
56F
  8
TEAM-NET
 10
-152.722117
 20
-353.442309
 30
836.638546
 70
    64
  0
VERTEX
  5
570
  8
TEAM-NET
 10
-144.44756
 20
-362.750482
 30
837.362476
 70
    64
  0
VERTEX
  5
571
  8
TEAM-NET
 10
-135.610979
 20
-371.522687
 30
838.135577
 70
    64
  0
VERTEX
  5
572
  8
TEAM-NET
 10
-126.246753
 20
-379.724793
 30
838.95484
 70
    64
  0
VERTEX
  5
573
  8
TEAM-NET
 10
-116.39132
 20
-387.324887
 30
839.817079
 70
    64
  0
VERTEX
  5
574
  8
TEAM-NET
 10
-106.083023
 20
-394.293396
 30
840.718938
 70
    64
  0
VERTEX
  5
575
  8
TEAM-NET
 10
-95.361973
 20
-400.603209
 30
841.656908
 70
    64
  0
VERTEX
  5
576
  8
TEAM-NET
 10
-84.269882
 20
-406.229774
 30
842.627341
 70
    64
  0
VERTEX
  5
577
  8
TEAM-NET
 10
-72.849909
 20
-411.151199
 30
843.626459
 70
    64
  0
VERTEX
  5
578
  8
TEAM-NET
 10
-61.146487
 20
-415.348335
 30
844.650376
 70
    64
  0
VERTEX
  5
579
  8
TEAM-NET
 10
-49.205152
 20
-418.804853
 30
845.695107
 70
    64
  0
VERTEX
  5
57A
  8
TEAM-NET
 10
-37.072367
 20
-421.507302
 30
846.756588
 70
    64
  0
VERTEX
  5
57B
  8
TEAM-NET
 10
-24.795339
 20
-423.445169
 30
847.830689
 70
    64
  0
VERTEX
  5
57C
  8
TEAM-NET
 10
-12.421835
 20
-424.610914
 30
848.91323
 70
    64
  0
VERTEX
  5
57D
  8
TEAM-NET
 10
0.0
 20
-425.0
 30
850.0
 70
    64
  0
VERTEX
  5
57E
  8
TEAM-NET
 10
0.0
 20
-100.0
 30
850.0
 70
    64
  0
VERTEX
  5
57F
  8
TEAM-NET
 10
-156.12495
 20
-100.0
 30
850.0
 70
    64
  0
VERTEX
  5
580
  8
TEAM-NET
 10
-163.614523
 20
-109.977011
 30
850.0
 70
    64
  0
VERTEX
  5
581
  8
TEAM-NET
 10
-170.467494
 20
-120.401561
 30
850.0
 70
    64
  0
VERTEX
  5
582
  8
TEAM-NET
 10
-176.6572
 20
-131.233088
 30
850.0
 70
    64
  0
VERTEX
  5
583
  8
TEAM-NET
 10
-182.159557
 20
-142.42945
 30
850.0
 70
    64
  0
VERTEX
  5
584
  8
TEAM-NET
 10
-186.953157
 20
-153.947082
 30
850.0
 70
    64
  0
VERTEX
  5
585
  8
TEAM-NET
 10
-191.019348
 20
-165.741171
 30
850.0
 70
    64
  0
VERTEX
  5
586
  8
TEAM-NET
 10
-194.342309
 20
-177.765828
 30
850.0
 70
    64
  0
VERTEX
  5
587
  8
TEAM-NET
 10
-196.909111
 20
-189.974267
 30
850.0
 70
    64
  0
VERTEX
  5
588
  8
TEAM-NET
 10
-198.709767
 20
-202.318986
 30
850.0
 70
    64
  0
VERTEX
  5
589
  8
TEAM-NET
 10
-199.737271
 20
-214.751953
 30
850.0
 70
    64
  0
VERTEX
  5
58A
  8
TEAM-NET
 10
-199.987625
 20
-227.224795
 30
850.0
 70
    64
  0
VERTEX
  5
58B
  8
TEAM-NET
 10
-199.459855
 20
-239.688979
 30
850.0
 70
    64
  0
VERTEX
  5
58C
  8
TEAM-NET
 10
-198.156015
 20
-252.096012
 30
850.0
 70
    64
  0
VERTEX
  5
58D
  8
TEAM-NET
 10
-196.081176
 20
-264.397617
 30
850.0
 70
    64
  0
VERTEX
  5
58E
  8
TEAM-NET
 10
-193.243414
 20
-276.545932
 30
850.0
 70
    64
  0
VERTEX
  5
58F
  8
TEAM-NET
 10
-189.653768
 20
-288.493688
 30
850.0
 70
    64
  0
VERTEX
  5
590
  8
TEAM-NET
 10
-185.326205
 20
-300.1944
 30
850.0
 70
    64
  0
VERTEX
  5
591
  8
TEAM-NET
 10
-180.277564
 20
-311.60254
 30
850.0
 70
    64
  0
VERTEX
  5
592
  8
TEAM-NET
 10
-174.527488
 20
-322.673722
 30
850.0
 70
    64
  0
VERTEX
  5
593
  8
TEAM-NET
 10
-168.098349
 20
-333.36487
 30
850.0
 70
    64
  0
VERTEX
  5
594
  8
TEAM-NET
 10
-161.015164
 20
-343.634384
 30
850.0
 70
    64
  0
VERTEX
  5
595
  8
TEAM-NET
 10
-153.30549
 20
-353.442309
 30
850.0
 70
    64
  0
VERTEX
  5
596
  8
TEAM-NET
 10
-144.999326
 20
-362.750482
 30
850.0
 70
    64
  0
VERTEX
  5
597
  8
TEAM-NET
 10
-136.12899
 20
-371.522687
 30
850.0
 70
    64
  0
VERTEX
  5
598
  8
TEAM-NET
 10
-126.728995
 20
-379.724793
 30
850.0
 70
    64
  0
VERTEX
  5
599
  8
TEAM-NET
 10
-116.835916
 20
-387.324887
 30
850.0
 70
    64
  0
VERTEX
  5
59A
  8
TEAM-NET
 10
-106.488243
 20
-394.293396
 30
850.0
 70
    64
  0
VERTEX
  5
59B
  8
TEAM-NET
 10
-95.72624
 20
-400.603209
 30
850.0
 70
    64
  0
VERTEX
  5
59C
  8
TEAM-NET
 10
-84.591779
 20
-406.229774
 30
850.0
 70
    64
  0
VERTEX
  5
59D
  8
TEAM-NET
 10
-73.128184
 20
-411.151199
 30
850.0
 70
    64
  0
VERTEX
  5
59E
  8
TEAM-NET
 10
-61.380056
 20
-415.348335
 30
850.0
 70
    64
  0
VERTEX
  5
59F
  8
TEAM-NET
 10
-49.393108
 20
-418.804853
 30
850.0
 70
    64
  0
VERTEX
  5
5A0
  8
TEAM-NET
 10
-37.213978
 20
-421.507302
 30
850.0
 70
    64
  0
VERTEX
  5
5A1
  8
TEAM-NET
 10
-24.890053
 20
-423.445169
 30
850.0
 70
    64
  0
VERTEX
  5
5A2
  8
TEAM-NET
 10
-12.469285
 20
-424.610914
 30
850.0
 70
    64
  0
VERTEX
  5
5A3
  8
TEAM-NET
 10
0.0
 20
-425.0
 30
850.0
 70
    64
  0
SEQEND
  5
5A5
  8
TEAM-NET
  0
CIRCLE
  5
5A6
  8
TEAM-DET1
 39
-15.0
 10
0.0
 20
-176.0
 30
696.0
 40
30.0
  0
CIRCLE
  5
5A8
  8
TEAM-KAN
 39
-15.0
 10
0.0
 20
-176.0
 30
696.0
 40
20.0
  0
LINE
  5
5AA
  8
TEAM-AXE
 10
0.0
 20
-211.0
 30
696.0
 11
0.0
 21
-141.0
 31
696.0
  0
LINE
  5
5AD
  8
TEAM-AXE
 10
35.0
 20
-176.0
 30
696.0
 11
-35.0
 21
-176.0
 31
696.0
  0
POLYLINE
  5
5AE
  8
TEAM-BODY
 66
     1
 10
0.0
 20
0.0
 30
850.0
  0
VERTEX
  5
693
  8
TEAM-BODY
 10
0.0
 20
-425.0
 30
850.0
 42
-0.629016
  0
VERTEX
  5
694
  8
TEAM-BODY
 10
-156.12495
 20
-100.0
 30
850.0
  0
VERTEX
  5
695
  8
TEAM-BODY
 10
0.0
 20
-100.0
 30
850.0
  0
SEQEND
  5
696
  8
TEAM-BODY
  0
LINE
  5
5AF
  8
TEAM-AXE
 10
20.0
 20
-50.0
 30
850.0
 11
-20.0
 21
-50.0
 31
850.0
  0
LINE
  5
5B0
  8
TEAM-AXE
 10
0.0
 20
-70.0
 30
850.0
 11
0.0
 21
-30.0
 31
850.0
  0
CIRCLE
  5
5B1
  8
TEAM-DET1
 10
0.0
 20
-50.0
 30
850.0
 40
18.0
  0
POLYLINE
  5
5B2
  8
TEAM-BODY
 66
     1
 10
0.0
 20
0.0
 30
850.0
  0
VERTEX
  5
697
  8
TEAM-BODY
 10
0.0
 20
-425.0
 30
850.0
 42
0.629016
  0
VERTEX
  5
698
  8
TEAM-BODY
 10
156.12495
 20
-100.0
 30
850.0
  0
VERTEX
  5
699
  8
TEAM-BODY
 10
0.0
 20
-100.0
 30
850.0
  0
SEQEND
  5
69A
  8
TEAM-BODY
  0
TEXT
  5
5B3
  8
TEAM-TXT
 10
-124.91523
 20
-310.146665
 30
850.0
 40
30.0
  1
team 233109
 41
0.8
 51
15.0
  7
TEAM
  0
POLYLINE
  5
5B6
  8
TEAM-NET
 66
     1
 10
0.0
 20
0.0
 30
0.0
 70
    16
 71
     2
 72
    37
  0
VERTEX
  5
5B7
  8
TEAM-NET
 10
0.0
 20
-100.0
 30
850.0
 70
    64
  0
VERTEX
  5
5B8
  8
TEAM-NET
 10
16.814181
 20
-100.0
 30
850.0
 70
    64
  0
VERTEX
  5
5B9
  8
TEAM-NET
 10
33.628362
 20
-100.0
 30
850.0
 70
    64
  0
VERTEX
  5
5BA
  8
TEAM-NET
 10
50.442543
 20
-100.0
 30
850.0
 70
    64
  0
VERTEX
  5
5BB
  8
TEAM-NET
 10
67.256725
 20
-100.0
 30
850.0
 70
    64
  0
VERTEX
  5
5BC
  8
TEAM-NET
 10
84.070906
 20
-100.0
 30
850.0
 70
    64
  0
VERTEX
  5
5BD
  8
TEAM-NET
 10
100.885087
 20
-100.0
 30
850.0
 70
    64
  0
VERTEX
  5
5BE
  8
TEAM-NET
 10
117.699268
 20
-100.0
 30
850.0
 70
    64
  0
VERTEX
  5
5BF
  8
TEAM-NET
 10
134.513449
 20
-100.0
 30
850.0
 70
    64
  0
VERTEX
  5
5C0
  8
TEAM-NET
 10
151.32763
 20
-100.0
 30
850.0
 70
    64
  0
VERTEX
  5
5C1
  8
TEAM-NET
 10
163.34924
 20
-109.600581
 30
850.0
 70
    64
  0
VERTEX
  5
5C2
  8
TEAM-NET
 10
172.46262
 20
-123.724905
 30
850.0
 70
    64
  0
VERTEX
  5
5C3
  8
TEAM-NET
 10
180.357765
 20
-138.564611
 30
850.0
 70
    64
  0
VERTEX
  5
5C4
  8
TEAM-NET
 10
186.978908
 20
-154.014876
 30
850.0
 70
    64
  0
VERTEX
  5
5C5
  8
TEAM-NET
 10
192.279278
 20
-169.966562
 30
850.0
 70
    64
  0
VERTEX
  5
5C6
  8
TEAM-NET
 10
196.221434
 20
-186.306991
 30
850.0
 70
    64
  0
VERTEX
  5
5C7
  8
TEAM-NET
 10
198.777529
 20
-202.920738
 30
850.0
 70
    64
  0
VERTEX
  5
5C8
  8
TEAM-NET
 10
199.929509
 20
-219.690447
 30
850.0
 70
    64
  0
VERTEX
  5
5C9
  8
TEAM-NET
 10
199.669236
 20
-236.497662
 30
850.0
 70
    64
  0
VERTEX
  5
5CA
  8
TEAM-NET
 10
197.998548
 20
-253.22366
 30
850.0
 70
    64
  0
VERTEX
  5
5CB
  8
TEAM-NET
 10
194.929247
 20
-269.750293
 30
850.0
 70
    64
  0
VERTEX
  5
5CC
  8
TEAM-NET
 10
190.483013
 20
-285.960821
 30
850.0
 70
    64
  0
VERTEX
  5
5CD
  8
TEAM-NET
 10
184.691254
 20
-301.740736
 30
850.0
 70
    64
  0
VERTEX
  5
5CE
  8
TEAM-NET
 10
177.594881
 20
-316.978574
 30
850.0
 70
    64
  0
VERTEX
  5
5CF
  8
TEAM-NET
 10
169.244022
 20
-331.566698
 30
850.0
 70
    64
  0
VERTEX
  5
5D0
  8
TEAM-NET
 10
159.697664
 20
-345.402061
 30
850.0
 70
    64
  0
VERTEX
  5
5D1
  8
TEAM-NET
 10
149.023241
 20
-358.386933
 30
850.0
 70
    64
  0
VERTEX
  5
5D2
  8
TEAM-NET
 10
137.296154
 20
-370.429592
 30
850.0
 70
    64
  0
VERTEX
  5
5D3
  8
TEAM-NET
 10
124.59924
 20
-381.444972
 30
850.0
 70
    64
  0
VERTEX
  5
5D4
  8
TEAM-NET
 10
111.022189
 20
-391.355263
 30
850.0
 70
    64
  0
VERTEX
  5
5D5
  8
TEAM-NET
 10
96.660903
 20
-400.090462
 30
850.0
 70
    64
  0
VERTEX
  5
5D6
  8
TEAM-NET
 10
81.616829
 20
-407.588864
 30
850.0
 70
    64
  0
VERTEX
  5
5D7
  8
TEAM-NET
 10
65.996233
 20
-413.797503
 30
850.0
 70
    64
  0
VERTEX
  5
5D8
  8
TEAM-NET
 10
49.909456
 20
-418.672523
 30
850.0
 70
    64
  0
VERTEX
  5
5D9
  8
TEAM-NET
 10
33.470131
 20
-422.179488
 30
850.0
 70
    64
  0
VERTEX
  5
5DA
  8
TEAM-NET
 10
16.794381
 20
-424.293624
 30
850.0
 70
    64
  0
VERTEX
  5
5DB
  8
TEAM-NET
 10
0.0
 20
-425.0
 30
850.0
 70
    64
  0
VERTEX
  5
5DC
  8
TEAM-NET
 10
0.0
 20
0.0
 30
850.0
 70
    64
  0
VERTEX
  5
5DD
  8
TEAM-NET
 10
19.610042
 20
-0.856193
 30
850.0
 70
    64
  0
VERTEX
  5
5DE
  8
TEAM-NET
 10
39.07084
 20
-3.418256
 30
850.0
 70
    64
  0
VERTEX
  5
5DF
  8
TEAM-NET
 10
58.234285
 20
-7.666689
 30
850.0
 70
    64
  0
VERTEX
  5
5E0
  8
TEAM-NET
 10
76.954532
 20
-13.56916
 30
850.0
 70
    64
  0
VERTEX
  5
5E1
  8
TEAM-NET
 10
95.089109
 20
-21.080748
 30
850.0
 70
    64
  0
VERTEX
  5
5E2
  8
TEAM-NET
 10
112.5
 20
-30.144284
 30
850.0
 70
    64
  0
VERTEX
  5
5E3
  8
TEAM-NET
 10
129.054698
 20
-40.69079
 30
850.0
 70
    64
  0
VERTEX
  5
5E4
  8
TEAM-NET
 10
144.627212
 20
-52.64
 30
850.0
 70
    64
  0
VERTEX
  5
5E5
  8
TEAM-NET
 10
159.099026
 20
-65.900974
 30
850.0
 70
    64
  0
VERTEX
  5
5E6
  8
TEAM-NET
 10
172.36
 20
-80.372788
 30
850.0
 70
    64
  0
VERTEX
  5
5E7
  8
TEAM-NET
 10
184.30921
 20
-95.945302
 30
850.0
 70
    64
  0
VERTEX
  5
5E8
  8
TEAM-NET
 10
194.855716
 20
-112.5
 30
850.0
 70
    64
  0
VERTEX
  5
5E9
  8
TEAM-NET
 10
203.919252
 20
-129.910891
 30
850.0
 70
    64
  0
VERTEX
  5
5EA
  8
TEAM-NET
 10
211.43084
 20
-148.045468
 30
850.0
 70
    64
  0
VERTEX
  5
5EB
  8
TEAM-NET
 10
217.333311
 20
-166.765715
 30
850.0
 70
    64
  0
VERTEX
  5
5EC
  8
TEAM-NET
 10
221.581744
 20
-185.92916
 30
850.0
 70
    64
  0
VERTEX
  5
5ED
  8
TEAM-NET
 10
224.143807
 20
-205.389958
 30
850.0
 70
    64
  0
VERTEX
  5
5EE
  8
TEAM-NET
 10
225.0
 20
-225.0
 30
850.0
 70
    64
  0
VERTEX
  5
5EF
  8
TEAM-NET
 10
224.143807
 20
-244.610042
 30
850.0
 70
    64
  0
VERTEX
  5
5F0
  8
TEAM-NET
 10
221.581744
 20
-264.07084
 30
850.0
 70
    64
  0
VERTEX
  5
5F1
  8
TEAM-NET
 10
217.333311
 20
-283.234285
 30
850.0
 70
    64
  0
VERTEX
  5
5F2
  8
TEAM-NET
 10
211.43084
 20
-301.954532
 30
850.0
 70
    64
  0
VERTEX
  5
5F3
  8
TEAM-NET
 10
203.919252
 20
-320.089109
 30
850.0
 70
    64
  0
VERTEX
  5
5F4
  8
TEAM-NET
 10
194.855716
 20
-337.5
 30
850.0
 70
    64
  0
VERTEX
  5
5F5
  8
TEAM-NET
 10
184.30921
 20
-354.054698
 30
850.0
 70
    64
  0
VERTEX
  5
5F6
  8
TEAM-NET
 10
172.36
 20
-369.627212
 30
850.0
 70
    64
  0
VERTEX
  5
5F7
  8
TEAM-NET
 10
159.099026
 20
-384.099026
 30
850.0
 70
    64
  0
VERTEX
  5
5F8
  8
TEAM-NET
 10
144.627212
 20
-397.36
 30
850.0
 70
    64
  0
VERTEX
  5
5F9
  8
TEAM-NET
 10
129.054698
 20
-409.30921
 30
850.0
 70
    64
  0
VERTEX
  5
5FA
  8
TEAM-NET
 10
112.5
 20
-419.855716
 30
850.0
 70
    64
  0
VERTEX
  5
5FB
  8
TEAM-NET
 10
95.089109
 20
-428.919252
 30
850.0
 70
    64
  0
VERTEX
  5
5FC
  8
TEAM-NET
 10
76.954532
 20
-436.43084
 30
850.0
 70
    64
  0
VERTEX
  5
5FD
  8
TEAM-NET
 10
58.234285
 20
-442.333311
 30
850.0
 70
    64
  0
VERTEX
  5
5FE
  8
TEAM-NET
 10
39.07084
 20
-446.581744
 30
850.0
 70
    64
  0
VERTEX
  5
5FF
  8
TEAM-NET
 10
19.610042
 20
-449.143807
 30
850.0
 70
    64
  0
VERTEX
  5
600
  8
TEAM-NET
 10
0.0
 20
-450.0
 30
850.0
 70
    64
  0
SEQEND
  5
601
  8
TEAM-NET
  0
POLYLINE
  5
602
  8
TEAM-NET
 66
     1
 10
0.0
 20
0.0
 30
0.0
 70
    16
 71
     2
 72
    37
  0
VERTEX
  5
603
  8
TEAM-NET
 10
0.0
 20
-100.0
 30
850.0
 70
    64
  0
VERTEX
  5
604
  8
TEAM-NET
 10
-16.814181
 20
-100.0
 30
850.0
 70
    64
  0
VERTEX
  5
605
  8
TEAM-NET
 10
-33.628362
 20
-100.0
 30
850.0
 70
    64
  0
VERTEX
  5
606
  8
TEAM-NET
 10
-50.442543
 20
-100.0
 30
850.0
 70
    64
  0
VERTEX
  5
607
  8
TEAM-NET
 10
-67.256725
 20
-100.0
 30
850.0
 70
    64
  0
VERTEX
  5
608
  8
TEAM-NET
 10
-84.070906
 20
-100.0
 30
850.0
 70
    64
  0
VERTEX
  5
609
  8
TEAM-NET
 10
-100.885087
 20
-100.0
 30
850.0
 70
    64
  0
VERTEX
  5
60A
  8
TEAM-NET
 10
-117.699268
 20
-100.0
 30
850.0
 70
    64
  0
VERTEX
  5
60B
  8
TEAM-NET
 10
-134.513449
 20
-100.0
 30
850.0
 70
    64
  0
VERTEX
  5
60C
  8
TEAM-NET
 10
-151.32763
 20
-100.0
 30
850.0
 70
    64
  0
VERTEX
  5
60D
  8
TEAM-NET
 10
-163.34924
 20
-109.600581
 30
850.0
 70
    64
  0
VERTEX
  5
60E
  8
TEAM-NET
 10
-172.46262
 20
-123.724905
 30
850.0
 70
    64
  0
VERTEX
  5
60F
  8
TEAM-NET
 10
-180.357765
 20
-138.564611
 30
850.0
 70
    64
  0
VERTEX
  5
610
  8
TEAM-NET
 10
-186.978908
 20
-154.014876
 30
850.0
 70
    64
  0
VERTEX
  5
611
  8
TEAM-NET
 10
-192.279278
 20
-169.966562
 30
850.0
 70
    64
  0
VERTEX
  5
612
  8
TEAM-NET
 10
-196.221434
 20
-186.306991
 30
850.0
 70
    64
  0
VERTEX
  5
613
  8
TEAM-NET
 10
-198.777529
 20
-202.920738
 30
850.0
 70
    64
  0
VERTEX
  5
614
  8
TEAM-NET
 10
-199.929509
 20
-219.690447
 30
850.0
 70
    64
  0
VERTEX
  5
615
  8
TEAM-NET
 10
-199.669236
 20
-236.497662
 30
850.0
 70
    64
  0
VERTEX
  5
616
  8
TEAM-NET
 10
-197.998548
 20
-253.22366
 30
850.0
 70
    64
  0
VERTEX
  5
617
  8
TEAM-NET
 10
-194.929247
 20
-269.750293
 30
850.0
 70
    64
  0
VERTEX
  5
618
  8
TEAM-NET
 10
-190.483013
 20
-285.960821
 30
850.0
 70
    64
  0
VERTEX
  5
619
  8
TEAM-NET
 10
-184.691254
 20
-301.740736
 30
850.0
 70
    64
  0
VERTEX
  5
61A
  8
TEAM-NET
 10
-177.594881
 20
-316.978574
 30
850.0
 70
    64
  0
VERTEX
  5
61B
  8
TEAM-NET
 10
-169.244022
 20
-331.566698
 30
850.0
 70
    64
  0
VERTEX
  5
61C
  8
TEAM-NET
 10
-159.697664
 20
-345.402061
 30
850.0
 70
    64
  0
VERTEX
  5
61D
  8
TEAM-NET
 10
-149.023241
 20
-358.386933
 30
850.0
 70
    64
  0
VERTEX
  5
61E
  8
TEAM-NET
 10
-137.296154
 20
-370.429592
 30
850.0
 70
    64
  0
VERTEX
  5
61F
  8
TEAM-NET
 10
-124.59924
 20
-381.444972
 30
850.0
 70
    64
  0
VERTEX
  5
620
  8
TEAM-NET
 10
-111.022189
 20
-391.355263
 30
850.0
 70
    64
  0
VERTEX
  5
621
  8
TEAM-NET
 10
-96.660903
 20
-400.090462
 30
850.0
 70
    64
  0
VERTEX
  5
622
  8
TEAM-NET
 10
-81.616829
 20
-407.588864
 30
850.0
 70
    64
  0
VERTEX
  5
623
  8
TEAM-NET
 10
-65.996233
 20
-413.797503
 30
850.0
 70
    64
  0
VERTEX
  5
624
  8
TEAM-NET
 10
-49.909456
 20
-418.672523
 30
850.0
 70
    64
  0
VERTEX
  5
625
  8
TEAM-NET
 10
-33.470131
 20
-422.179488
 30
850.0
 70
    64
  0
VERTEX
  5
626
  8
TEAM-NET
 10
-16.794381
 20
-424.293624
 30
850.0
 70
    64
  0
VERTEX
  5
627
  8
TEAM-NET
 10
0.0
 20
-425.0
 30
850.0
 70
    64
  0
VERTEX
  5
628
  8
TEAM-NET
 10
0.0
 20
0.0
 30
850.0
 70
    64
  0
VERTEX
  5
629
  8
TEAM-NET
 10
-19.610042
 20
-0.856193
 30
850.0
 70
    64
  0
VERTEX
  5
62A
  8
TEAM-NET
 10
-39.07084
 20
-3.418256
 30
850.0
 70
    64
  0
VERTEX
  5
62B
  8
TEAM-NET
 10
-58.234285
 20
-7.666689
 30
850.0
 70
    64
  0
VERTEX
  5
62C
  8
TEAM-NET
 10
-76.954532
 20
-13.56916
 30
850.0
 70
    64
  0
VERTEX
  5
62D
  8
TEAM-NET
 10
-95.089109
 20
-21.080748
 30
850.0
 70
    64
  0
VERTEX
  5
62E
  8
TEAM-NET
 10
-112.5
 20
-30.144284
 30
850.0
 70
    64
  0
VERTEX
  5
62F
  8
TEAM-NET
 10
-129.054698
 20
-40.69079
 30
850.0
 70
    64
  0
VERTEX
  5
630
  8
TEAM-NET
 10
-144.627212
 20
-52.64
 30
850.0
 70
    64
  0
VERTEX
  5
631
  8
TEAM-NET
 10
-159.099026
 20
-65.900974
 30
850.0
 70
    64
  0
VERTEX
  5
632
  8
TEAM-NET
 10
-172.36
 20
-80.372788
 30
850.0
 70
    64
  0
VERTEX
  5
633
  8
TEAM-NET
 10
-184.30921
 20
-95.945302
 30
850.0
 70
    64
  0
VERTEX
  5
634
  8
TEAM-NET
 10
-194.855716
 20
-112.5
 30
850.0
 70
    64
  0
VERTEX
  5
635
  8
TEAM-NET
 10
-203.919252
 20
-129.910891
 30
850.0
 70
    64
  0
VERTEX
  5
636
  8
TEAM-NET
 10
-211.43084
 20
-148.045468
 30
850.0
 70
    64
  0
VERTEX
  5
637
  8
TEAM-NET
 10
-217.333311
 20
-166.765715
 30
850.0
 70
    64
  0
VERTEX
  5
638
  8
TEAM-NET
 10
-221.581744
 20
-185.92916
 30
850.0
 70
    64
  0
VERTEX
  5
639
  8
TEAM-NET
 10
-224.143807
 20
-205.389958
 30
850.0
 70
    64
  0
VERTEX
  5
63A
  8
TEAM-NET
 10
-225.0
 20
-225.0
 30
850.0
 70
    64
  0
VERTEX
  5
63B
  8
TEAM-NET
 10
-224.143807
 20
-244.610042
 30
850.0
 70
    64
  0
VERTEX
  5
63C
  8
TEAM-NET
 10
-221.581744
 20
-264.07084
 30
850.0
 70
    64
  0
VERTEX
  5
63D
  8
TEAM-NET
 10
-217.333311
 20
-283.234285
 30
850.0
 70
    64
  0
VERTEX
  5
63E
  8
TEAM-NET
 10
-211.43084
 20
-301.954532
 30
850.0
 70
    64
  0
VERTEX
  5
63F
  8
TEAM-NET
 10
-203.919252
 20
-320.089109
 30
850.0
 70
    64
  0
VERTEX
  5
640
  8
TEAM-NET
 10
-194.855716
 20
-337.5
 30
850.0
 70
    64
  0
VERTEX
  5
641
  8
TEAM-NET
 10
-184.30921
 20
-354.054698
 30
850.0
 70
    64
  0
VERTEX
  5
642
  8
TEAM-NET
 10
-172.36
 20
-369.627212
 30
850.0
 70
    64
  0
VERTEX
  5
643
  8
TEAM-NET
 10
-159.099026
 20
-384.099026
 30
850.0
 70
    64
  0
VERTEX
  5
644
  8
TEAM-NET
 10
-144.627212
 20
-397.36
 30
850.0
 70
    64
  0
VERTEX
  5
645
  8
TEAM-NET
 10
-129.054698
 20
-409.30921
 30
850.0
 70
    64
  0
VERTEX
  5
646
  8
TEAM-NET
 10
-112.5
 20
-419.855716
 30
850.0
 70
    64
  0
VERTEX
  5
647
  8
TEAM-NET
 10
-95.089109
 20
-428.919252
 30
850.0
 70
    64
  0
VERTEX
  5
648
  8
TEAM-NET
 10
-76.954532
 20
-436.43084
 30
850.0
 70
    64
  0
VERTEX
  5
649
  8
TEAM-NET
 10
-58.234285
 20
-442.333311
 30
850.0
 70
    64
  0
VERTEX
  5
64A
  8
TEAM-NET
 10
-39.07084
 20
-446.581744
 30
850.0
 70
    64
  0
VERTEX
  5
64B
  8
TEAM-NET
 10
-19.610042
 20
-449.143807
 30
850.0
 70
    64
  0
VERTEX
  5
64C
  8
TEAM-NET
 10
0.0
 20
-450.0
 30
850.0
 70
    64
  0
SEQEND
  5
64D
  8
TEAM-NET
  0
ENDSEC
  0
EOF
