  0
SECTION
  2
HEADER
  9
$ACADVER
  1
AC1009
  9
$INSBASE
 10
0.0
 20
0.0
 30
0.0
  9
$EXTMIN
 10
-400.048826
 20
-400.025023
 30
-0.051878
  9
$EXTMAX
 10
400.048833
 20
10.025027
 30
850.051885
  9
$LIMMIN
 10
-400.048826
 20
-400.025023
  9
$LIMMAX
 10
400.048833
 20
10.025027
  9
$ORTHOMODE
 70
     1
  9
$REGENMODE
 70
     1
  9
$FILLMODE
 70
     1
  9
$QTEXTMODE
 70
     0
  9
$MIRRTEXT
 70
     0
  9
$DRAGMODE
 70
     2
  9
$LTSCALE
 40
25.0
  9
$OSMODE
 70
     0
  9
$ATTMODE
 70
     1
  9
$TEXTSIZE
 40
200.0
  9
$TRACEWID
 40
1.0
  9
$TEXTSTYLE
  7
STANDARD
  9
$CLAYER
  8
TEAM-MAS
  9
$CELTYPE
  6
BYLAYER
  9
$CECOLOR
 62
   256
  9
$DIMSCALE
 40
1.0
  9
$DIMASZ
 40
20.0
  9
$DIMEXO
 40
10.0
  9
$DIMDLI
 40
1.0
  9
$DIMRND
 40
0.0
  9
$DIMDLE
 40
0.0
  9
$DIMEXE
 40
1.0
  9
$DIMTP
 40
0.0
  9
$DIMTM
 40
0.0
  9
$DIMTXT
 40
35.0
  9
$DIMCEN
 40
1.0
  9
$DIMTSZ
 40
0.0
  9
$DIMTOL
 70
     0
  9
$DIMLIM
 70
     0
  9
$DIMTIH
 70
     0
  9
$DIMTOH
 70
     0
  9
$DIMSE1
 70
     0
  9
$DIMSE2
 70
     0
  9
$DIMTAD
 70
     0
  9
$DIMZIN
 70
     0
  9
$DIMBLK
  1

  9
$DIMASO
 70
     1
  9
$DIMSHO
 70
     0
  9
$DIMPOST
  1

  9
$DIMAPOST
  1

  9
$DIMALT
 70
     0
  9
$DIMALTD
 70
     2
  9
$DIMALTF
 40
25.4
  9
$DIMLFAC
 40
1.0
  9
$DIMTOFL
 70
     0
  9
$DIMTVP
 40
0.0
  9
$DIMTIX
 70
     0
  9
$DIMSOXD
 70
     0
  9
$DIMSAH
 70
     0
  9
$DIMBLK1
  1

  9
$DIMBLK2
  1

  9
$DIMSTYLE
  2
TEAM
  9
$DIMCLRD
 70
     9
  9
$DIMCLRE
 70
     9
  9
$DIMCLRT
 70
    11
  9
$DIMTFAC
 40
1.0
  9
$DIMGAP
 40
15.0
  9
$LUNITS
 70
     2
  9
$LUPREC
 70
     1
  9
$SKETCHINC
 40
1.0
  9
$FILLETRAD
 40
50.0
  9
$AUNITS
 70
     0
  9
$AUPREC
 70
     0
  9
$MENU
  1
ROPLANS
  9
$ELEVATION
 40
0.0
  9
$PELEVATION
 40
0.0
  9
$THICKNESS
 40
0.0
  9
$LIMCHECK
 70
     0
  9
$BLIPMODE
 70
     1
  9
$CHAMFERA
 40
0.0
  9
$CHAMFERB
 40
0.0
  9
$SKPOLY
 70
     0
  9
$TDCREATE
 40
2450392.957851
  9
$TDUPDATE
 40
2455505.473099
  9
$TDINDWG
 40
2.023557
  9
$TDUSRTIMER
 40
2.023557
  9
$USRTIMER
 70
     1
  9
$ANGBASE
 50
0.0
  9
$ANGDIR
 70
     0
  9
$PDMODE
 70
     0
  9
$PDSIZE
 40
0.0
  9
$PLINEWID
 40
0.0
  9
$COORDS
 70
     2
  9
$SPLFRAME
 70
     0
  9
$SPLINETYPE
 70
     6
  9
$SPLINESEGS
 70
     8
  9
$ATTDIA
 70
     0
  9
$ATTREQ
 70
     0
  9
$HANDLING
 70
     1
  9
$HANDSEED
  5
251
  9
$SURFTAB1
 70
    24
  9
$SURFTAB2
 70
    24
  9
$SURFTYPE
 70
     6
  9
$SURFU
 70
     6
  9
$SURFV
 70
     6
  9
$UCSNAME
  2

  9
$UCSORG
 10
0.0
 20
0.0
 30
0.0
  9
$UCSXDIR
 10
1.0
 20
0.0
 30
0.0
  9
$UCSYDIR
 10
0.0
 20
1.0
 30
0.0
  9
$PUCSNAME
  2

  9
$PUCSORG
 10
0.0
 20
0.0
 30
0.0
  9
$PUCSXDIR
 10
1.0
 20
0.0
 30
0.0
  9
$PUCSYDIR
 10
0.0
 20
1.0
 30
0.0
  9
$USERI1
 70
     0
  9
$USERI2
 70
     0
  9
$USERI3
 70
     0
  9
$USERI4
 70
     0
  9
$USERI5
 70
     0
  9
$USERR1
 40
0.0
  9
$USERR2
 40
0.0
  9
$USERR3
 40
0.0
  9
$USERR4
 40
0.0
  9
$USERR5
 40
0.0
  9
$WORLDVIEW
 70
     1
  9
$SHADEDGE
 70
     0
  9
$SHADEDIF
 70
    70
  9
$TILEMODE
 70
     1
  9
$MAXACTVP
 70
    16
  9
$PLIMCHECK
 70
     0
  9
$PEXTMIN
 10
-0.805942
 20
0.005011
 30
0.0
  9
$PEXTMAX
 10
20.250094
 20
11.356329
 30
0.0
  9
$PLIMMIN
 10
0.0
 20
0.0
  9
$PLIMMAX
 10
12.0
 20
9.0
  9
$UNITMODE
 70
     0
  9
$VISRETAIN
 70
     0
  9
$PLINEGEN
 70
     0
  9
$PSLTSCALE
 70
     0
  0
ENDSEC
  0
SECTION
  2
TABLES
  0
TABLE
  2
VPORT
 70
     2
  0
VPORT
  2
*ACTIVE
 70
     0
 10
0.0
 20
0.0
 11
1.0
 21
1.0
 12
0.000004
 22
-194.999998
 13
0.0
 23
0.0
 14
1.0
 24
1.0
 15
50.0
 25
50.0
 16
0.0
 26
0.0
 36
1.0
 17
0.0
 27
0.0
 37
0.0
 40
430.239236
 41
1.865779
 42
50.0
 43
0.0
 44
0.0
 50
0.0
 51
0.0
 71
     0
 72
   100
 73
     1
 74
     1
 75
     0
 76
     0
 77
     0
 78
     0
  0
ENDTAB
  0
TABLE
  2
LTYPE
 70
     2
  0
LTYPE
  2
CONTINUOUS
 70
     0
  3
Solid Line
 72
    65
 73
     0
 40
0.0
  0
LTYPE
  2
31
 70
     0
  3

 72
    65
 73
     4
 40
2.1
 49
1.5
 49
-0.3
 49
0.0
 49
-0.3
  0
ENDTAB
  0
TABLE
  2
LAYER
 70
     8
  0
LAYER
  2
0
 70
     0
 62
     7
  6
CONTINUOUS
  0
LAYER
  2
TEAM-BODY
 70
     0
 62
     2
  6
CONTINUOUS
  0
LAYER
  2
TEAM-AXE
 70
     0
 62
    10
  6
31
  0
LAYER
  2
TEAM-MAS
 70
     0
 62
     9
  6
CONTINUOUS
  0
LAYER
  2
TEAM-TXT
 70
     0
 62
    11
  6
CONTINUOUS
  0
LAYER
  2
TEAM-DET1
 70
     0
 62
     4
  6
CONTINUOUS
  0
LAYER
  2
TEAM-NET
 70
     0
 62
    15
  6
CONTINUOUS
  0
LAYER
  2
TEAM-INSP
 70
     0
 62
     5
  6
CONTINUOUS
  0
ENDTAB
  0
TABLE
  2
STYLE
 70
     2
  0
STYLE
  2
STANDARD
 70
     0
 40
0.0
 41
1.0
 50
0.0
 71
     0
 42
200.0
  3
txt
  4

  0
STYLE
  2
TEAM
 70
     0
 40
0.0
 41
0.8
 50
15.0
 71
     0
 42
7.0
  3
ROMANS.shx
  4

  0
ENDTAB
  0
TABLE
  2
VIEW
 70
     0
  0
ENDTAB
  0
TABLE
  2
UCS
 70
     0
  0
ENDTAB
  0
TABLE
  2
APPID
 70
     1
  0
APPID
  2
ACAD
 70
     0
  0
ENDTAB
  0
TABLE
  2
DIMSTYLE
 70
     1
  0
DIMSTYLE
  2
TEAM
 70
     0
  3

  4

  5

  6

  7

 40
1.0
 41
20.0
 42
10.0
 43
1.0
 44
1.0
 45
0.0
 46
0.0
 47
0.0
 48
0.0
140
35.0
141
1.0
142
0.0
143
25.4
144
1.0
145
0.0
146
1.0
147
15.0
 71
     0
 72
     0
 73
     0
 74
     0
 75
     0
 76
     0
 77
     0
 78
     0
170
     0
171
     2
172
     0
173
     0
174
     0
175
     0
176
     9
177
     9
178
    11
  0
ENDTAB
  0
ENDSEC
  0
SECTION
  2
BLOCKS
  0
BLOCK
  8
0
  2
$MODEL_SPACE
 70
     0
 10
0.0
 20
0.0
 30
0.0
  3
$MODEL_SPACE
  1

  0
ENDBLK
  5
22C
  8
0
  0
BLOCK
 67
     1
  8
0
  2
$PAPER_SPACE
 70
     0
 10
0.0
 20
0.0
 30
0.0
  3
$PAPER_SPACE
  1

  0
ENDBLK
  5
22A
 67
     1
  8
0
  0
ENDSEC
  0
SECTION
  2
ENTITIES
  0
CIRCLE
  5
20
  8
TEAM-INSP
 10
0.0
 20
0.0
 30
0.0
 40
10.0
  0
POLYLINE
  5
22
  8
TEAM-NET
 66
     1
 10
0.0
 20
0.0
 30
0.0
 70
    16
 71
     2
 72
    25
  0
VERTEX
  5
23
  8
TEAM-NET
 10
0.0
 20
-94.0
 30
725.0
 70
    64
  0
VERTEX
  5
24
  8
TEAM-NET
 10
-25.083333
 20
-94.0
 30
725.0
 70
    64
  0
VERTEX
  5
25
  8
TEAM-NET
 10
-50.166667
 20
-94.0
 30
725.0
 70
    64
  0
VERTEX
  5
26
  8
TEAM-NET
 10
-75.25
 20
-94.0
 30
725.0
 70
    64
  0
VERTEX
  5
27
  8
TEAM-NET
 10
-100.333333
 20
-94.0
 30
725.0
 70
    64
  0
VERTEX
  5
28
  8
TEAM-NET
 10
-125.416667
 20
-94.0
 30
725.0
 70
    64
  0
VERTEX
  5
29
  8
TEAM-NET
 10
-150.5
 20
-94.0
 30
725.0
 70
    64
  0
VERTEX
  5
2A
  8
TEAM-NET
 10
-175.583333
 20
-94.0
 30
725.0
 70
    64
  0
VERTEX
  5
2B
  8
TEAM-NET
 10
-200.666667
 20
-94.0
 30
725.0
 70
    64
  0
VERTEX
  5
2C
  8
TEAM-NET
 10
-225.75
 20
-94.0
 30
725.0
 70
    64
  0
VERTEX
  5
2D
  8
TEAM-NET
 10
-249.0
 20
-95.833333
 30
725.0
 70
    64
  0
VERTEX
  5
2E
  8
TEAM-NET
 10
-249.0
 20
-120.916667
 30
725.0
 70
    64
  0
VERTEX
  5
2F
  8
TEAM-NET
 10
-249.0
 20
-146.0
 30
725.0
 70
    64
  0
VERTEX
  5
30
  8
TEAM-NET
 10
-249.0
 20
-171.083333
 30
725.0
 70
    64
  0
VERTEX
  5
31
  8
TEAM-NET
 10
-249.0
 20
-196.166667
 30
725.0
 70
    64
  0
VERTEX
  5
32
  8
TEAM-NET
 10
-225.75
 20
-198.0
 30
725.0
 70
    64
  0
VERTEX
  5
33
  8
TEAM-NET
 10
-200.666667
 20
-198.0
 30
725.0
 70
    64
  0
VERTEX
  5
34
  8
TEAM-NET
 10
-175.583333
 20
-198.0
 30
725.0
 70
    64
  0
VERTEX
  5
35
  8
TEAM-NET
 10
-150.5
 20
-198.0
 30
725.0
 70
    64
  0
VERTEX
  5
36
  8
TEAM-NET
 10
-125.416667
 20
-198.0
 30
725.0
 70
    64
  0
VERTEX
  5
37
  8
TEAM-NET
 10
-100.333333
 20
-198.0
 30
725.0
 70
    64
  0
VERTEX
  5
38
  8
TEAM-NET
 10
-75.25
 20
-198.0
 30
725.0
 70
    64
  0
VERTEX
  5
39
  8
TEAM-NET
 10
-50.166667
 20
-198.0
 30
725.0
 70
    64
  0
VERTEX
  5
3A
  8
TEAM-NET
 10
-25.083333
 20
-198.0
 30
725.0
 70
    64
  0
VERTEX
  5
3B
  8
TEAM-NET
 10
0.0
 20
-198.0
 30
725.0
 70
    64
  0
VERTEX
  5
3C
  8
TEAM-NET
 10
0.0
 20
-17.0
 30
850.0
 70
    64
  0
VERTEX
  5
3D
  8
TEAM-NET
 10
-38.708333
 20
-17.0
 30
850.0
 70
    64
  0
VERTEX
  5
3E
  8
TEAM-NET
 10
-77.416667
 20
-17.0
 30
850.0
 70
    64
  0
VERTEX
  5
3F
  8
TEAM-NET
 10
-116.125
 20
-17.0
 30
850.0
 70
    64
  0
VERTEX
  5
40
  8
TEAM-NET
 10
-154.833333
 20
-17.0
 30
850.0
 70
    64
  0
VERTEX
  5
41
  8
TEAM-NET
 10
-193.541667
 20
-17.0
 30
850.0
 70
    64
  0
VERTEX
  5
42
  8
TEAM-NET
 10
-232.25
 20
-17.0
 30
850.0
 70
    64
  0
VERTEX
  5
43
  8
TEAM-NET
 10
-270.958333
 20
-17.0
 30
850.0
 70
    64
  0
VERTEX
  5
44
  8
TEAM-NET
 10
-283.0
 20
-43.666667
 30
850.0
 70
    64
  0
VERTEX
  5
45
  8
TEAM-NET
 10
-283.0
 20
-82.375
 30
850.0
 70
    64
  0
VERTEX
  5
46
  8
TEAM-NET
 10
-283.0
 20
-121.083333
 30
850.0
 70
    64
  0
VERTEX
  5
47
  8
TEAM-NET
 10
-283.0
 20
-159.791667
 30
850.0
 70
    64
  0
VERTEX
  5
48
  8
TEAM-NET
 10
-283.0
 20
-198.5
 30
850.0
 70
    64
  0
VERTEX
  5
49
  8
TEAM-NET
 10
-283.0
 20
-237.208333
 30
850.0
 70
    64
  0
VERTEX
  5
4A
  8
TEAM-NET
 10
-283.0
 20
-275.916667
 30
850.0
 70
    64
  0
VERTEX
  5
4B
  8
TEAM-NET
 10
-283.0
 20
-314.625
 30
850.0
 70
    64
  0
VERTEX
  5
4C
  8
TEAM-NET
 10
-283.0
 20
-353.333333
 30
850.0
 70
    64
  0
VERTEX
  5
4D
  8
TEAM-NET
 10
-270.958333
 20
-380.0
 30
850.0
 70
    64
  0
VERTEX
  5
4E
  8
TEAM-NET
 10
-232.25
 20
-380.0
 30
850.0
 70
    64
  0
VERTEX
  5
4F
  8
TEAM-NET
 10
-193.541667
 20
-380.0
 30
850.0
 70
    64
  0
VERTEX
  5
50
  8
TEAM-NET
 10
-154.833333
 20
-380.0
 30
850.0
 70
    64
  0
VERTEX
  5
51
  8
TEAM-NET
 10
-116.125
 20
-380.0
 30
850.0
 70
    64
  0
VERTEX
  5
52
  8
TEAM-NET
 10
-77.416667
 20
-380.0
 30
850.0
 70
    64
  0
VERTEX
  5
53
  8
TEAM-NET
 10
-38.708333
 20
-380.0
 30
850.0
 70
    64
  0
VERTEX
  5
54
  8
TEAM-NET
 10
0.0
 20
-380.0
 30
850.0
 70
    64
  0
SEQEND
  5
56
  8
TEAM-NET
  0
POLYLINE
  5
57
  8
TEAM-NET
 66
     1
 10
0.0
 20
0.0
 30
0.0
 70
    16
 71
     2
 72
    25
  0
VERTEX
  5
58
  8
TEAM-NET
 10
0.0
 20
-94.0
 30
725.0
 70
    64
  0
VERTEX
  5
59
  8
TEAM-NET
 10
25.083333
 20
-94.0
 30
725.0
 70
    64
  0
VERTEX
  5
5A
  8
TEAM-NET
 10
50.166667
 20
-94.0
 30
725.0
 70
    64
  0
VERTEX
  5
5B
  8
TEAM-NET
 10
75.25
 20
-94.0
 30
725.0
 70
    64
  0
VERTEX
  5
5C
  8
TEAM-NET
 10
100.333333
 20
-94.0
 30
725.0
 70
    64
  0
VERTEX
  5
5D
  8
TEAM-NET
 10
125.416667
 20
-94.0
 30
725.0
 70
    64
  0
VERTEX
  5
5E
  8
TEAM-NET
 10
150.5
 20
-94.0
 30
725.0
 70
    64
  0
VERTEX
  5
5F
  8
TEAM-NET
 10
175.583333
 20
-94.0
 30
725.0
 70
    64
  0
VERTEX
  5
60
  8
TEAM-NET
 10
200.666667
 20
-94.0
 30
725.0
 70
    64
  0
VERTEX
  5
61
  8
TEAM-NET
 10
225.75
 20
-94.0
 30
725.0
 70
    64
  0
VERTEX
  5
62
  8
TEAM-NET
 10
249.0
 20
-95.833333
 30
725.0
 70
    64
  0
VERTEX
  5
63
  8
TEAM-NET
 10
249.0
 20
-120.916667
 30
725.0
 70
    64
  0
VERTEX
  5
64
  8
TEAM-NET
 10
249.0
 20
-146.0
 30
725.0
 70
    64
  0
VERTEX
  5
65
  8
TEAM-NET
 10
249.0
 20
-171.083333
 30
725.0
 70
    64
  0
VERTEX
  5
66
  8
TEAM-NET
 10
249.0
 20
-196.166667
 30
725.0
 70
    64
  0
VERTEX
  5
67
  8
TEAM-NET
 10
225.75
 20
-198.0
 30
725.0
 70
    64
  0
VERTEX
  5
68
  8
TEAM-NET
 10
200.666667
 20
-198.0
 30
725.0
 70
    64
  0
VERTEX
  5
69
  8
TEAM-NET
 10
175.583333
 20
-198.0
 30
725.0
 70
    64
  0
VERTEX
  5
6A
  8
TEAM-NET
 10
150.5
 20
-198.0
 30
725.0
 70
    64
  0
VERTEX
  5
6B
  8
TEAM-NET
 10
125.416667
 20
-198.0
 30
725.0
 70
    64
  0
VERTEX
  5
6C
  8
TEAM-NET
 10
100.333333
 20
-198.0
 30
725.0
 70
    64
  0
VERTEX
  5
6D
  8
TEAM-NET
 10
75.25
 20
-198.0
 30
725.0
 70
    64
  0
VERTEX
  5
6E
  8
TEAM-NET
 10
50.166667
 20
-198.0
 30
725.0
 70
    64
  0
VERTEX
  5
6F
  8
TEAM-NET
 10
25.083333
 20
-198.0
 30
725.0
 70
    64
  0
VERTEX
  5
70
  8
TEAM-NET
 10
0.0
 20
-198.0
 30
725.0
 70
    64
  0
VERTEX
  5
71
  8
TEAM-NET
 10
0.0
 20
-17.0
 30
850.0
 70
    64
  0
VERTEX
  5
72
  8
TEAM-NET
 10
38.708333
 20
-17.0
 30
850.0
 70
    64
  0
VERTEX
  5
73
  8
TEAM-NET
 10
77.416667
 20
-17.0
 30
850.0
 70
    64
  0
VERTEX
  5
74
  8
TEAM-NET
 10
116.125
 20
-17.0
 30
850.0
 70
    64
  0
VERTEX
  5
75
  8
TEAM-NET
 10
154.833333
 20
-17.0
 30
850.0
 70
    64
  0
VERTEX
  5
76
  8
TEAM-NET
 10
193.541667
 20
-17.0
 30
850.0
 70
    64
  0
VERTEX
  5
77
  8
TEAM-NET
 10
232.25
 20
-17.0
 30
850.0
 70
    64
  0
VERTEX
  5
78
  8
TEAM-NET
 10
270.958333
 20
-17.0
 30
850.0
 70
    64
  0
VERTEX
  5
79
  8
TEAM-NET
 10
283.0
 20
-43.666667
 30
850.0
 70
    64
  0
VERTEX
  5
7A
  8
TEAM-NET
 10
283.0
 20
-82.375
 30
850.0
 70
    64
  0
VERTEX
  5
7B
  8
TEAM-NET
 10
283.0
 20
-121.083333
 30
850.0
 70
    64
  0
VERTEX
  5
7C
  8
TEAM-NET
 10
283.0
 20
-159.791667
 30
850.0
 70
    64
  0
VERTEX
  5
7D
  8
TEAM-NET
 10
283.0
 20
-198.5
 30
850.0
 70
    64
  0
VERTEX
  5
7E
  8
TEAM-NET
 10
283.0
 20
-237.208333
 30
850.0
 70
    64
  0
VERTEX
  5
7F
  8
TEAM-NET
 10
283.0
 20
-275.916667
 30
850.0
 70
    64
  0
VERTEX
  5
80
  8
TEAM-NET
 10
283.0
 20
-314.625
 30
850.0
 70
    64
  0
VERTEX
  5
81
  8
TEAM-NET
 10
283.0
 20
-353.333333
 30
850.0
 70
    64
  0
VERTEX
  5
82
  8
TEAM-NET
 10
270.958333
 20
-380.0
 30
850.0
 70
    64
  0
VERTEX
  5
83
  8
TEAM-NET
 10
232.25
 20
-380.0
 30
850.0
 70
    64
  0
VERTEX
  5
84
  8
TEAM-NET
 10
193.541667
 20
-380.0
 30
850.0
 70
    64
  0
VERTEX
  5
85
  8
TEAM-NET
 10
154.833333
 20
-380.0
 30
850.0
 70
    64
  0
VERTEX
  5
86
  8
TEAM-NET
 10
116.125
 20
-380.0
 30
850.0
 70
    64
  0
VERTEX
  5
87
  8
TEAM-NET
 10
77.416667
 20
-380.0
 30
850.0
 70
    64
  0
VERTEX
  5
88
  8
TEAM-NET
 10
38.708333
 20
-380.0
 30
850.0
 70
    64
  0
VERTEX
  5
89
  8
TEAM-NET
 10
0.0
 20
-380.0
 30
850.0
 70
    64
  0
SEQEND
  5
8A
  8
TEAM-NET
  0
POLYLINE
  5
8B
  8
TEAM-BODY
 66
     1
 10
0.0
 20
0.0
 30
725.0
  0
VERTEX
  5
232
  8
TEAM-BODY
 10
0.0
 20
-198.0
 30
725.0
  0
VERTEX
  5
233
  8
TEAM-BODY
 10
249.0
 20
-198.0
 30
725.0
  0
VERTEX
  5
234
  8
TEAM-BODY
 10
249.0
 20
-94.0
 30
725.0
  0
VERTEX
  5
235
  8
TEAM-BODY
 10
0.0
 20
-94.0
 30
725.0
  0
SEQEND
  5
236
  8
TEAM-BODY
  0
POLYLINE
  5
8D
  8
TEAM-NET
 66
     1
 10
0.0
 20
0.0
 30
0.0
 70
    16
 71
     2
 72
    37
  0
VERTEX
  5
8E
  8
TEAM-NET
 10
0.0
 20
-94.0
 30
725.0
 70
    64
  0
VERTEX
  5
8F
  8
TEAM-NET
 10
29.5
 20
-94.0
 30
725.0
 70
    64
  0
VERTEX
  5
90
  8
TEAM-NET
 10
59.0
 20
-94.0
 30
725.0
 70
    64
  0
VERTEX
  5
91
  8
TEAM-NET
 10
88.5
 20
-94.0
 30
725.0
 70
    64
  0
VERTEX
  5
92
  8
TEAM-NET
 10
118.0
 20
-94.0
 30
725.0
 70
    64
  0
VERTEX
  5
93
  8
TEAM-NET
 10
147.5
 20
-94.0
 30
725.0
 70
    64
  0
VERTEX
  5
94
  8
TEAM-NET
 10
177.0
 20
-94.0
 30
725.0
 70
    64
  0
VERTEX
  5
95
  8
TEAM-NET
 10
226.5
 20
-94.0
 30
725.0
 70
    64
  0
VERTEX
  5
96
  8
TEAM-NET
 10
256.0
 20
-94.0
 30
725.0
 70
    64
  0
VERTEX
  5
97
  8
TEAM-NET
 10
15.5
 20
-94.0
 30
725.0
 70
    64
  0
VERTEX
  5
98
  8
TEAM-NET
 10
45.0
 20
-94.0
 30
725.0
 70
    64
  0
VERTEX
  5
99
  8
TEAM-NET
 10
74.5
 20
-94.0
 30
725.0
 70
    64
  0
VERTEX
  5
9A
  8
TEAM-NET
 10
104.0
 20
-94.0
 30
725.0
 70
    64
  0
VERTEX
  5
9B
  8
TEAM-NET
 10
133.5
 20
-94.0
 30
725.0
 70
    64
  0
VERTEX
  5
9C
  8
TEAM-NET
 10
163.0
 20
-94.0
 30
725.0
 70
    64
  0
VERTEX
  5
9D
  8
TEAM-NET
 10
192.5
 20
-94.0
 30
725.0
 70
    64
  0
VERTEX
  5
9E
  8
TEAM-NET
 10
242.0
 20
-94.0
 30
725.0
 70
    64
  0
VERTEX
  5
9F
  8
TEAM-NET
 10
249.0
 20
-116.5
 30
725.0
 70
    64
  0
VERTEX
  5
A0
  8
TEAM-NET
 10
249.0
 20
-146.0
 30
725.0
 70
    64
  0
VERTEX
  5
A1
  8
TEAM-NET
 10
249.0
 20
-175.5
 30
725.0
 70
    64
  0
VERTEX
  5
A2
  8
TEAM-NET
 10
242.0
 20
-198.0
 30
725.0
 70
    64
  0
VERTEX
  5
A3
  8
TEAM-NET
 10
192.5
 20
-198.0
 30
725.0
 70
    64
  0
VERTEX
  5
A4
  8
TEAM-NET
 10
163.0
 20
-198.0
 30
725.0
 70
    64
  0
VERTEX
  5
A5
  8
TEAM-NET
 10
133.5
 20
-198.0
 30
725.0
 70
    64
  0
VERTEX
  5
A6
  8
TEAM-NET
 10
104.0
 20
-198.0
 30
725.0
 70
    64
  0
VERTEX
  5
A7
  8
TEAM-NET
 10
74.5
 20
-198.0
 30
725.0
 70
    64
  0
VERTEX
  5
A8
  8
TEAM-NET
 10
45.0
 20
-198.0
 30
725.0
 70
    64
  0
VERTEX
  5
A9
  8
TEAM-NET
 10
15.5
 20
-198.0
 30
725.0
 70
    64
  0
VERTEX
  5
AA
  8
TEAM-NET
 10
256.0
 20
-198.0
 30
725.0
 70
    64
  0
VERTEX
  5
AB
  8
TEAM-NET
 10
226.5
 20
-198.0
 30
725.0
 70
    64
  0
VERTEX
  5
AC
  8
TEAM-NET
 10
177.0
 20
-198.0
 30
725.0
 70
    64
  0
VERTEX
  5
AD
  8
TEAM-NET
 10
147.5
 20
-198.0
 30
725.0
 70
    64
  0
VERTEX
  5
AE
  8
TEAM-NET
 10
118.0
 20
-198.0
 30
725.0
 70
    64
  0
VERTEX
  5
AF
  8
TEAM-NET
 10
88.5
 20
-198.0
 30
725.0
 70
    64
  0
VERTEX
  5
B0
  8
TEAM-NET
 10
59.0
 20
-198.0
 30
725.0
 70
    64
  0
VERTEX
  5
B1
  8
TEAM-NET
 10
29.5
 20
-198.0
 30
725.0
 70
    64
  0
VERTEX
  5
B2
  8
TEAM-NET
 10
0.0
 20
-198.0
 30
725.0
 70
    64
  0
VERTEX
  5
B3
  8
TEAM-NET
 10
0.0
 20
-94.0
 30
725.0
 70
    64
  0
VERTEX
  5
B4
  8
TEAM-NET
 10
-29.5
 20
-94.0
 30
725.0
 70
    64
  0
VERTEX
  5
B5
  8
TEAM-NET
 10
-59.0
 20
-94.0
 30
725.0
 70
    64
  0
VERTEX
  5
B6
  8
TEAM-NET
 10
-88.5
 20
-94.0
 30
725.0
 70
    64
  0
VERTEX
  5
B7
  8
TEAM-NET
 10
-118.0
 20
-94.0
 30
725.0
 70
    64
  0
VERTEX
  5
B8
  8
TEAM-NET
 10
-147.5
 20
-94.0
 30
725.0
 70
    64
  0
VERTEX
  5
B9
  8
TEAM-NET
 10
-197.0
 20
-94.0
 30
725.0
 70
    64
  0
VERTEX
  5
BA
  8
TEAM-NET
 10
-226.5
 20
-94.0
 30
725.0
 70
    64
  0
VERTEX
  5
BB
  8
TEAM-NET
 10
-256.0
 20
-94.0
 30
725.0
 70
    64
  0
VERTEX
  5
BC
  8
TEAM-NET
 10
-285.5
 20
-94.0
 30
725.0
 70
    64
  0
VERTEX
  5
BD
  8
TEAM-NET
 10
-45.0
 20
-94.0
 30
725.0
 70
    64
  0
VERTEX
  5
BE
  8
TEAM-NET
 10
-74.5
 20
-94.0
 30
725.0
 70
    64
  0
VERTEX
  5
BF
  8
TEAM-NET
 10
-104.0
 20
-94.0
 30
725.0
 70
    64
  0
VERTEX
  5
C0
  8
TEAM-NET
 10
-133.5
 20
-94.0
 30
725.0
 70
    64
  0
VERTEX
  5
C1
  8
TEAM-NET
 10
-163.0
 20
-94.0
 30
725.0
 70
    64
  0
VERTEX
  5
C2
  8
TEAM-NET
 10
-212.5
 20
-94.0
 30
725.0
 70
    64
  0
VERTEX
  5
C3
  8
TEAM-NET
 10
-242.0
 20
-94.0
 30
725.0
 70
    64
  0
VERTEX
  5
C4
  8
TEAM-NET
 10
-249.0
 20
-116.5
 30
725.0
 70
    64
  0
VERTEX
  5
C5
  8
TEAM-NET
 10
-249.0
 20
-146.0
 30
725.0
 70
    64
  0
VERTEX
  5
C6
  8
TEAM-NET
 10
-249.0
 20
-175.5
 30
725.0
 70
    64
  0
VERTEX
  5
C7
  8
TEAM-NET
 10
-242.0
 20
-198.0
 30
725.0
 70
    64
  0
VERTEX
  5
C8
  8
TEAM-NET
 10
-212.5
 20
-198.0
 30
725.0
 70
    64
  0
VERTEX
  5
C9
  8
TEAM-NET
 10
-163.0
 20
-198.0
 30
725.0
 70
    64
  0
VERTEX
  5
CA
  8
TEAM-NET
 10
-133.5
 20
-198.0
 30
725.0
 70
    64
  0
VERTEX
  5
CB
  8
TEAM-NET
 10
-104.0
 20
-198.0
 30
725.0
 70
    64
  0
VERTEX
  5
CC
  8
TEAM-NET
 10
-74.5
 20
-198.0
 30
725.0
 70
    64
  0
VERTEX
  5
CD
  8
TEAM-NET
 10
-45.0
 20
-198.0
 30
725.0
 70
    64
  0
VERTEX
  5
CE
  8
TEAM-NET
 10
-285.5
 20
-198.0
 30
725.0
 70
    64
  0
VERTEX
  5
CF
  8
TEAM-NET
 10
-256.0
 20
-198.0
 30
725.0
 70
    64
  0
VERTEX
  5
D0
  8
TEAM-NET
 10
-226.5
 20
-198.0
 30
725.0
 70
    64
  0
VERTEX
  5
D1
  8
TEAM-NET
 10
-197.0
 20
-198.0
 30
725.0
 70
    64
  0
VERTEX
  5
D2
  8
TEAM-NET
 10
-147.5
 20
-198.0
 30
725.0
 70
    64
  0
VERTEX
  5
D3
  8
TEAM-NET
 10
-118.0
 20
-198.0
 30
725.0
 70
    64
  0
VERTEX
  5
D4
  8
TEAM-NET
 10
-88.5
 20
-198.0
 30
725.0
 70
    64
  0
VERTEX
  5
D5
  8
TEAM-NET
 10
-59.0
 20
-198.0
 30
725.0
 70
    64
  0
VERTEX
  5
D6
  8
TEAM-NET
 10
-29.5
 20
-198.0
 30
725.0
 70
    64
  0
VERTEX
  5
D7
  8
TEAM-NET
 10
0.0
 20
-198.0
 30
725.0
 70
    64
  0
SEQEND
  5
D8
  8
TEAM-NET
  0
CIRCLE
  5
D9
  8
TEAM-BODY
 10
0.0
 20
-145.0
 30
725.0
 40
20.0
  0
LINE
  5
DA
  8
TEAM-AXE
 10
0.0
 20
-185.0
 30
725.0
 11
0.0
 21
-105.0
 31
725.0
  0
LINE
  5
DD
  8
TEAM-AXE
 10
-40.0
 20
-145.0
 30
725.0
 11
40.0
 21
-145.0
 31
725.0
  0
CIRCLE
  5
DE
  8
TEAM-DET1
 10
0.0
 20
-145.0
 30
725.0
 40
30.0
  0
POLYLINE
  5
E0
  8
TEAM-BODY
 66
     1
 10
0.0
 20
0.0
 30
725.0
  0
VERTEX
  5
237
  8
TEAM-BODY
 10
0.0
 20
-198.0
 30
725.0
  0
VERTEX
  5
238
  8
TEAM-BODY
 10
-249.0
 20
-198.0
 30
725.0
  0
VERTEX
  5
239
  8
TEAM-BODY
 10
-249.0
 20
-94.0
 30
725.0
  0
VERTEX
  5
23A
  8
TEAM-BODY
 10
0.0
 20
-94.0
 30
725.0
  0
SEQEND
  5
23B
  8
TEAM-BODY
  0
POLYLINE
  5
E1
  8
TEAM-BODY
 66
     1
 10
0.0
 20
0.0
 30
850.0
 39
-10.0
  0
VERTEX
  5
23C
  8
TEAM-BODY
 10
0.0
 20
-400.0
 30
850.0
  0
VERTEX
  5
23D
  8
TEAM-BODY
 10
400.0
 20
-400.0
 30
850.0
  0
VERTEX
  5
23E
  8
TEAM-BODY
 10
400.0
 20
0.0
 30
850.0
  0
VERTEX
  5
23F
  8
TEAM-BODY
 10
0.0
 20
0.0
 30
850.0
  0
SEQEND
  5
240
  8
TEAM-BODY
  0
TEXT
  5
E2
  8
TEAM-TXT
 10
-108.836879
 20
-298.287499
 30
850.0
 40
30.0
  1
team 233313
 41
0.8
 51
15.0
  7
TEAM
  0
POLYLINE
  5
E5
  8
TEAM-BODY
 66
     1
 10
0.0
 20
0.0
 30
850.0
  0
VERTEX
  5
241
  8
TEAM-BODY
 10
0.0
 20
-17.0
 30
850.0
  0
VERTEX
  5
242
  8
TEAM-BODY
 10
283.0
 20
-17.0
 30
850.0
  0
VERTEX
  5
243
  8
TEAM-BODY
 10
283.0
 20
-380.0
 30
850.0
  0
VERTEX
  5
244
  8
TEAM-BODY
 10
0.0
 20
-380.0
 30
850.0
  0
SEQEND
  5
245
  8
TEAM-BODY
  0
POLYLINE
  5
E6
  8
TEAM-NET
 66
     1
 10
0.0
 20
0.0
 30
0.0
 70
    16
 71
     2
 72
    25
  0
VERTEX
  5
E7
  8
TEAM-NET
 10
0.0
 20
-17.0
 30
850.0
 70
    64
  0
VERTEX
  5
E8
  8
TEAM-NET
 10
38.708333
 20
-17.0
 30
850.0
 70
    64
  0
VERTEX
  5
E9
  8
TEAM-NET
 10
77.416667
 20
-17.0
 30
850.0
 70
    64
  0
VERTEX
  5
EA
  8
TEAM-NET
 10
116.125
 20
-17.0
 30
850.0
 70
    64
  0
VERTEX
  5
EB
  8
TEAM-NET
 10
154.833333
 20
-17.0
 30
850.0
 70
    64
  0
VERTEX
  5
EC
  8
TEAM-NET
 10
193.541667
 20
-17.0
 30
850.0
 70
    64
  0
VERTEX
  5
ED
  8
TEAM-NET
 10
232.25
 20
-17.0
 30
850.0
 70
    64
  0
VERTEX
  5
EE
  8
TEAM-NET
 10
270.958333
 20
-17.0
 30
850.0
 70
    64
  0
VERTEX
  5
EF
  8
TEAM-NET
 10
283.0
 20
-43.666667
 30
850.0
 70
    64
  0
VERTEX
  5
F0
  8
TEAM-NET
 10
283.0
 20
-82.375
 30
850.0
 70
    64
  0
VERTEX
  5
F1
  8
TEAM-NET
 10
283.0
 20
-121.083333
 30
850.0
 70
    64
  0
VERTEX
  5
F2
  8
TEAM-NET
 10
283.0
 20
-159.791667
 30
850.0
 70
    64
  0
VERTEX
  5
F3
  8
TEAM-NET
 10
283.0
 20
-198.5
 30
850.0
 70
    64
  0
VERTEX
  5
F4
  8
TEAM-NET
 10
283.0
 20
-237.208333
 30
850.0
 70
    64
  0
VERTEX
  5
F5
  8
TEAM-NET
 10
283.0
 20
-275.916667
 30
850.0
 70
    64
  0
VERTEX
  5
F6
  8
TEAM-NET
 10
283.0
 20
-314.625
 30
850.0
 70
    64
  0
VERTEX
  5
F7
  8
TEAM-NET
 10
283.0
 20
-353.333333
 30
850.0
 70
    64
  0
VERTEX
  5
F8
  8
TEAM-NET
 10
270.958333
 20
-380.0
 30
850.0
 70
    64
  0
VERTEX
  5
F9
  8
TEAM-NET
 10
232.25
 20
-380.0
 30
850.0
 70
    64
  0
VERTEX
  5
FA
  8
TEAM-NET
 10
193.541667
 20
-380.0
 30
850.0
 70
    64
  0
VERTEX
  5
FB
  8
TEAM-NET
 10
154.833333
 20
-380.0
 30
850.0
 70
    64
  0
VERTEX
  5
FC
  8
TEAM-NET
 10
116.125
 20
-380.0
 30
850.0
 70
    64
  0
VERTEX
  5
FD
  8
TEAM-NET
 10
77.416667
 20
-380.0
 30
850.0
 70
    64
  0
VERTEX
  5
FE
  8
TEAM-NET
 10
38.708333
 20
-380.0
 30
850.0
 70
    64
  0
VERTEX
  5
FF
  8
TEAM-NET
 10
0.0
 20
-380.0
 30
850.0
 70
    64
  0
VERTEX
  5
100
  8
TEAM-NET
 10
0.0
 20
0.0
 30
850.0
 70
    64
  0
VERTEX
  5
101
  8
TEAM-NET
 10
50.0
 20
0.0
 30
850.0
 70
    64
  0
VERTEX
  5
102
  8
TEAM-NET
 10
100.0
 20
0.0
 30
850.0
 70
    64
  0
VERTEX
  5
103
  8
TEAM-NET
 10
150.0
 20
0.0
 30
850.0
 70
    64
  0
VERTEX
  5
104
  8
TEAM-NET
 10
200.0
 20
0.0
 30
850.0
 70
    64
  0
VERTEX
  5
105
  8
TEAM-NET
 10
250.0
 20
0.0
 30
850.0
 70
    64
  0
VERTEX
  5
106
  8
TEAM-NET
 10
300.0
 20
0.0
 30
850.0
 70
    64
  0
VERTEX
  5
107
  8
TEAM-NET
 10
350.0
 20
0.0
 30
850.0
 70
    64
  0
VERTEX
  5
108
  8
TEAM-NET
 10
400.0
 20
0.0
 30
850.0
 70
    64
  0
VERTEX
  5
109
  8
TEAM-NET
 10
400.0
 20
-50.0
 30
850.0
 70
    64
  0
VERTEX
  5
10A
  8
TEAM-NET
 10
400.0
 20
-100.0
 30
850.0
 70
    64
  0
VERTEX
  5
10B
  8
TEAM-NET
 10
400.0
 20
-150.0
 30
850.0
 70
    64
  0
VERTEX
  5
10C
  8
TEAM-NET
 10
400.0
 20
-200.0
 30
850.0
 70
    64
  0
VERTEX
  5
10D
  8
TEAM-NET
 10
400.0
 20
-250.0
 30
850.0
 70
    64
  0
VERTEX
  5
10E
  8
TEAM-NET
 10
400.0
 20
-300.0
 30
850.0
 70
    64
  0
VERTEX
  5
10F
  8
TEAM-NET
 10
400.0
 20
-350.0
 30
850.0
 70
    64
  0
VERTEX
  5
110
  8
TEAM-NET
 10
400.0
 20
-400.0
 30
850.0
 70
    64
  0
VERTEX
  5
111
  8
TEAM-NET
 10
350.0
 20
-400.0
 30
850.0
 70
    64
  0
VERTEX
  5
112
  8
TEAM-NET
 10
300.0
 20
-400.0
 30
850.0
 70
    64
  0
VERTEX
  5
113
  8
TEAM-NET
 10
250.0
 20
-400.0
 30
850.0
 70
    64
  0
VERTEX
  5
114
  8
TEAM-NET
 10
200.0
 20
-400.0
 30
850.0
 70
    64
  0
VERTEX
  5
115
  8
TEAM-NET
 10
150.0
 20
-400.0
 30
850.0
 70
    64
  0
VERTEX
  5
116
  8
TEAM-NET
 10
100.0
 20
-400.0
 30
850.0
 70
    64
  0
VERTEX
  5
117
  8
TEAM-NET
 10
50.0
 20
-400.0
 30
850.0
 70
    64
  0
VERTEX
  5
118
  8
TEAM-NET
 10
0.0
 20
-400.0
 30
850.0
 70
    64
  0
SEQEND
  5
119
  8
TEAM-NET
  0
POLYLINE
  5
11A
  8
TEAM-BODY
 66
     1
 10
0.0
 20
0.0
 30
850.0
 39
-10.0
  0
VERTEX
  5
246
  8
TEAM-BODY
 10
0.0
 20
-400.0
 30
850.0
  0
VERTEX
  5
247
  8
TEAM-BODY
 10
-400.0
 20
-400.0
 30
850.0
  0
VERTEX
  5
248
  8
TEAM-BODY
 10
-400.0
 20
0.0
 30
850.0
  0
VERTEX
  5
249
  8
TEAM-BODY
 10
0.0
 20
0.0
 30
850.0
  0
SEQEND
  5
24A
  8
TEAM-BODY
  0
LINE
  5
11B
  8
TEAM-BODY
 10
-249.0
 20
-94.0
 30
850.0
 11
-283.0
 21
-17.0
 31
850.0
  0
ARC
  5
11C
  8
TEAM-BODY
 10
-802.109164
 20
-188.847739
 30
850.0
 40
553.18488
 50
339.784712
 51
359.052017
  0
LINE
  5
11D
  8
TEAM-BODY
 10
-265.0
 20
-57.764706
 30
850.0
 11
-265.0
 21
-321.238286
 31
850.0
  0
POLYLINE
  5
11E
  8
TEAM-BODY
 66
     1
 10
0.0
 20
0.0
 30
850.0
  0
VERTEX
  5
24B
  8
TEAM-BODY
 10
0.0
 20
-17.0
 30
850.0
  0
VERTEX
  5
24C
  8
TEAM-BODY
 10
-283.0
 20
-17.0
 30
850.0
  0
VERTEX
  5
24D
  8
TEAM-BODY
 10
-283.0
 20
-380.0
 30
850.0
  0
VERTEX
  5
24E
  8
TEAM-BODY
 10
0.0
 20
-380.0
 30
850.0
  0
SEQEND
  5
24F
  8
TEAM-BODY
  0
POLYLINE
  5
11F
  8
TEAM-NET
 66
     1
 10
0.0
 20
0.0
 30
0.0
 70
    16
 71
     2
 72
    25
  0
VERTEX
  5
120
  8
TEAM-NET
 10
0.0
 20
-17.0
 30
850.0
 70
    64
  0
VERTEX
  5
121
  8
TEAM-NET
 10
-38.708333
 20
-17.0
 30
850.0
 70
    64
  0
VERTEX
  5
122
  8
TEAM-NET
 10
-77.416667
 20
-17.0
 30
850.0
 70
    64
  0
VERTEX
  5
123
  8
TEAM-NET
 10
-116.125
 20
-17.0
 30
850.0
 70
    64
  0
VERTEX
  5
124
  8
TEAM-NET
 10
-154.833333
 20
-17.0
 30
850.0
 70
    64
  0
VERTEX
  5
125
  8
TEAM-NET
 10
-193.541667
 20
-17.0
 30
850.0
 70
    64
  0
VERTEX
  5
126
  8
TEAM-NET
 10
-232.25
 20
-17.0
 30
850.0
 70
    64
  0
VERTEX
  5
127
  8
TEAM-NET
 10
-270.958333
 20
-17.0
 30
850.0
 70
    64
  0
VERTEX
  5
128
  8
TEAM-NET
 10
-283.0
 20
-43.666667
 30
850.0
 70
    64
  0
VERTEX
  5
129
  8
TEAM-NET
 10
-283.0
 20
-82.375
 30
850.0
 70
    64
  0
VERTEX
  5
12A
  8
TEAM-NET
 10
-283.0
 20
-121.083333
 30
850.0
 70
    64
  0
VERTEX
  5
12B
  8
TEAM-NET
 10
-283.0
 20
-159.791667
 30
850.0
 70
    64
  0
VERTEX
  5
12C
  8
TEAM-NET
 10
-283.0
 20
-198.5
 30
850.0
 70
    64
  0
VERTEX
  5
12D
  8
TEAM-NET
 10
-283.0
 20
-237.208333
 30
850.0
 70
    64
  0
VERTEX
  5
12E
  8
TEAM-NET
 10
-283.0
 20
-275.916667
 30
850.0
 70
    64
  0
VERTEX
  5
12F
  8
TEAM-NET
 10
-283.0
 20
-314.625
 30
850.0
 70
    64
  0
VERTEX
  5
130
  8
TEAM-NET
 10
-283.0
 20
-353.333333
 30
850.0
 70
    64
  0
VERTEX
  5
131
  8
TEAM-NET
 10
-270.958333
 20
-380.0
 30
850.0
 70
    64
  0
VERTEX
  5
132
  8
TEAM-NET
 10
-232.25
 20
-380.0
 30
850.0
 70
    64
  0
VERTEX
  5
133
  8
TEAM-NET
 10
-193.541667
 20
-380.0
 30
850.0
 70
    64
  0
VERTEX
  5
134
  8
TEAM-NET
 10
-154.833333
 20
-380.0
 30
850.0
 70
    64
  0
VERTEX
  5
135
  8
TEAM-NET
 10
-116.125
 20
-380.0
 30
850.0
 70
    64
  0
VERTEX
  5
136
  8
TEAM-NET
 10
-77.416667
 20
-380.0
 30
850.0
 70
    64
  0
VERTEX
  5
137
  8
TEAM-NET
 10
-38.708333
 20
-380.0
 30
850.0
 70
    64
  0
VERTEX
  5
138
  8
TEAM-NET
 10
0.0
 20
-380.0
 30
850.0
 70
    64
  0
VERTEX
  5
139
  8
TEAM-NET
 10
0.0
 20
0.0
 30
850.0
 70
    64
  0
VERTEX
  5
13A
  8
TEAM-NET
 10
-50.0
 20
0.0
 30
850.0
 70
    64
  0
VERTEX
  5
13B
  8
TEAM-NET
 10
-100.0
 20
0.0
 30
850.0
 70
    64
  0
VERTEX
  5
13C
  8
TEAM-NET
 10
-150.0
 20
0.0
 30
850.0
 70
    64
  0
VERTEX
  5
13D
  8
TEAM-NET
 10
-200.0
 20
0.0
 30
850.0
 70
    64
  0
VERTEX
  5
13E
  8
TEAM-NET
 10
-250.0
 20
0.0
 30
850.0
 70
    64
  0
VERTEX
  5
13F
  8
TEAM-NET
 10
-300.0
 20
0.0
 30
850.0
 70
    64
  0
VERTEX
  5
140
  8
TEAM-NET
 10
-350.0
 20
0.0
 30
850.0
 70
    64
  0
VERTEX
  5
141
  8
TEAM-NET
 10
-400.0
 20
0.0
 30
850.0
 70
    64
  0
VERTEX
  5
142
  8
TEAM-NET
 10
-400.0
 20
-50.0
 30
850.0
 70
    64
  0
VERTEX
  5
143
  8
TEAM-NET
 10
-400.0
 20
-100.0
 30
850.0
 70
    64
  0
VERTEX
  5
144
  8
TEAM-NET
 10
-400.0
 20
-150.0
 30
850.0
 70
    64
  0
VERTEX
  5
145
  8
TEAM-NET
 10
-400.0
 20
-200.0
 30
850.0
 70
    64
  0
VERTEX
  5
146
  8
TEAM-NET
 10
-400.0
 20
-250.0
 30
850.0
 70
    64
  0
VERTEX
  5
147
  8
TEAM-NET
 10
-400.0
 20
-300.0
 30
850.0
 70
    64
  0
VERTEX
  5
148
  8
TEAM-NET
 10
-400.0
 20
-350.0
 30
850.0
 70
    64
  0
VERTEX
  5
149
  8
TEAM-NET
 10
-400.0
 20
-400.0
 30
850.0
 70
    64
  0
VERTEX
  5
14A
  8
TEAM-NET
 10
-350.0
 20
-400.0
 30
850.0
 70
    64
  0
VERTEX
  5
14B
  8
TEAM-NET
 10
-300.0
 20
-400.0
 30
850.0
 70
    64
  0
VERTEX
  5
14C
  8
TEAM-NET
 10
-250.0
 20
-400.0
 30
850.0
 70
    64
  0
VERTEX
  5
14D
  8
TEAM-NET
 10
-200.0
 20
-400.0
 30
850.0
 70
    64
  0
VERTEX
  5
14E
  8
TEAM-NET
 10
-150.0
 20
-400.0
 30
850.0
 70
    64
  0
VERTEX
  5
14F
  8
TEAM-NET
 10
-100.0
 20
-400.0
 30
850.0
 70
    64
  0
VERTEX
  5
150
  8
TEAM-NET
 10
-50.0
 20
-400.0
 30
850.0
 70
    64
  0
VERTEX
  5
151
  8
TEAM-NET
 10
0.0
 20
-400.0
 30
850.0
 70
    64
  0
SEQEND
  5
152
  8
TEAM-NET
  0
LINE
  5
153
  8
TEAM-BODY
 10
249.0
 20
-94.0
 30
850.0
 11
283.0
 21
-17.0
 31
850.0
  0
LINE
  5
154
  8
TEAM-BODY
 10
265.0
 20
-57.764706
 30
850.0
 11
265.0
 21
-321.238286
 31
850.0
  0
ARC
  5
155
  8
TEAM-BODY
 10
802.109164
 20
-188.847739
 30
850.0
 40
553.18488
 50
180.947983
 51
200.215288
  0
ENDSEC
  0
EOF
