  0
SECTION
  2
HEADER
  9
$ACADVER
  1
AC1009
  9
$INSBASE
 10
0.0
 20
0.0
 30
0.0
  9
$EXTMIN
 10
-216.242444
 20
-426.226842
 30
-0.051878
  9
$EXTMAX
 10
216.242448
 20
10.026437
 30
850.051885
  9
$LIMMIN
 10
-216.242444
 20
-426.226842
  9
$LIMMAX
 10
216.242448
 20
10.026437
  9
$ORTHOMODE
 70
     1
  9
$REGENMODE
 70
     1
  9
$FILLMODE
 70
     1
  9
$QTEXTMODE
 70
     0
  9
$MIRRTEXT
 70
     0
  9
$DRAGMODE
 70
     2
  9
$LTSCALE
 40
25.0
  9
$OSMODE
 70
     0
  9
$ATTMODE
 70
     1
  9
$TEXTSIZE
 40
200.0
  9
$TRACEWID
 40
1.0
  9
$TEXTSTYLE
  7
STANDARD
  9
$CLAYER
  8
TEAM-MAS
  9
$CELTYPE
  6
BYLAYER
  9
$CECOLOR
 62
   256
  9
$DIMSCALE
 40
1.0
  9
$DIMASZ
 40
20.0
  9
$DIMEXO
 40
10.0
  9
$DIMDLI
 40
1.0
  9
$DIMRND
 40
0.0
  9
$DIMDLE
 40
0.0
  9
$DIMEXE
 40
1.0
  9
$DIMTP
 40
0.0
  9
$DIMTM
 40
0.0
  9
$DIMTXT
 40
35.0
  9
$DIMCEN
 40
1.0
  9
$DIMTSZ
 40
0.0
  9
$DIMTOL
 70
     0
  9
$DIMLIM
 70
     0
  9
$DIMTIH
 70
     0
  9
$DIMTOH
 70
     0
  9
$DIMSE1
 70
     0
  9
$DIMSE2
 70
     0
  9
$DIMTAD
 70
     0
  9
$DIMZIN
 70
     0
  9
$DIMBLK
  1

  9
$DIMASO
 70
     1
  9
$DIMSHO
 70
     0
  9
$DIMPOST
  1

  9
$DIMAPOST
  1

  9
$DIMALT
 70
     0
  9
$DIMALTD
 70
     2
  9
$DIMALTF
 40
25.4
  9
$DIMLFAC
 40
1.0
  9
$DIMTOFL
 70
     0
  9
$DIMTVP
 40
0.0
  9
$DIMTIX
 70
     0
  9
$DIMSOXD
 70
     0
  9
$DIMSAH
 70
     0
  9
$DIMBLK1
  1

  9
$DIMBLK2
  1

  9
$DIMSTYLE
  2
TEAM
  9
$DIMCLRD
 70
     9
  9
$DIMCLRE
 70
     9
  9
$DIMCLRT
 70
    11
  9
$DIMTFAC
 40
1.0
  9
$DIMGAP
 40
15.0
  9
$LUNITS
 70
     2
  9
$LUPREC
 70
     1
  9
$SKETCHINC
 40
1.0
  9
$FILLETRAD
 40
50.0
  9
$AUNITS
 70
     0
  9
$AUPREC
 70
     0
  9
$MENU
  1
ROPLANS
  9
$ELEVATION
 40
0.0
  9
$PELEVATION
 40
0.0
  9
$THICKNESS
 40
0.0
  9
$LIMCHECK
 70
     0
  9
$BLIPMODE
 70
     1
  9
$CHAMFERA
 40
0.0
  9
$CHAMFERB
 40
0.0
  9
$SKPOLY
 70
     0
  9
$TDCREATE
 40
2450392.957851
  9
$TDUPDATE
 40
2455505.473099
  9
$TDINDWG
 40
2.023557
  9
$TDUSRTIMER
 40
2.023557
  9
$USRTIMER
 70
     1
  9
$ANGBASE
 50
0.0
  9
$ANGDIR
 70
     0
  9
$PDMODE
 70
     0
  9
$PDSIZE
 40
0.0
  9
$PLINEWID
 40
0.0
  9
$COORDS
 70
     2
  9
$SPLFRAME
 70
     0
  9
$SPLINETYPE
 70
     6
  9
$SPLINESEGS
 70
     8
  9
$ATTDIA
 70
     0
  9
$ATTREQ
 70
     0
  9
$HANDLING
 70
     1
  9
$HANDSEED
  5
28D
  9
$SURFTAB1
 70
    24
  9
$SURFTAB2
 70
    24
  9
$SURFTYPE
 70
     6
  9
$SURFU
 70
     6
  9
$SURFV
 70
     6
  9
$UCSNAME
  2

  9
$UCSORG
 10
0.0
 20
0.0
 30
0.0
  9
$UCSXDIR
 10
1.0
 20
0.0
 30
0.0
  9
$UCSYDIR
 10
0.0
 20
1.0
 30
0.0
  9
$PUCSNAME
  2

  9
$PUCSORG
 10
0.0
 20
0.0
 30
0.0
  9
$PUCSXDIR
 10
1.0
 20
0.0
 30
0.0
  9
$PUCSYDIR
 10
0.0
 20
1.0
 30
0.0
  9
$USERI1
 70
     0
  9
$USERI2
 70
     0
  9
$USERI3
 70
     0
  9
$USERI4
 70
     0
  9
$USERI5
 70
     0
  9
$USERR1
 40
0.0
  9
$USERR2
 40
0.0
  9
$USERR3
 40
0.0
  9
$USERR4
 40
0.0
  9
$USERR5
 40
0.0
  9
$WORLDVIEW
 70
     1
  9
$SHADEDGE
 70
     0
  9
$SHADEDIF
 70
    70
  9
$TILEMODE
 70
     1
  9
$MAXACTVP
 70
    16
  9
$PLIMCHECK
 70
     0
  9
$PEXTMIN
 10
-0.805942
 20
0.005011
 30
0.0
  9
$PEXTMAX
 10
20.250094
 20
11.356329
 30
0.0
  9
$PLIMMIN
 10
0.0
 20
0.0
  9
$PLIMMAX
 10
12.0
 20
9.0
  9
$UNITMODE
 70
     0
  9
$VISRETAIN
 70
     0
  9
$PLINEGEN
 70
     0
  9
$PSLTSCALE
 70
     0
  0
ENDSEC
  0
SECTION
  2
TABLES
  0
TABLE
  2
VPORT
 70
     2
  0
VPORT
  2
*ACTIVE
 70
     0
 10
0.0
 20
0.0
 11
1.0
 21
1.0
 12
0.000002
 22
-208.100202
 13
0.0
 23
0.0
 14
1.0
 24
1.0
 15
50.0
 25
50.0
 16
0.0
 26
0.0
 36
1.0
 17
0.0
 27
0.0
 37
0.0
 40
438.932419
 41
1.865779
 42
50.0
 43
0.0
 44
0.0
 50
0.0
 51
0.0
 71
     0
 72
   100
 73
     1
 74
     1
 75
     0
 76
     0
 77
     0
 78
     0
  0
ENDTAB
  0
TABLE
  2
LTYPE
 70
     3
  0
LTYPE
  2
CONTINUOUS
 70
     0
  3
Solid Line
 72
    65
 73
     0
 40
0.0
  0
LTYPE
  2
31
 70
     0
  3

 72
    65
 73
     4
 40
2.1
 49
1.5
 49
-0.3
 49
0.0
 49
-0.3
  0
LTYPE
  2
22
 70
     0
  3

 72
    65
 73
     2
 40
1.4
 49
1.2
 49
-0.2
  0
ENDTAB
  0
TABLE
  2
LAYER
 70
    10
  0
LAYER
  2
0
 70
     0
 62
     7
  6
CONTINUOUS
  0
LAYER
  2
TEAM-BODY
 70
     0
 62
     2
  6
CONTINUOUS
  0
LAYER
  2
TEAM-AXE
 70
     0
 62
    10
  6
31
  0
LAYER
  2
TEAM-MAS
 70
     0
 62
     9
  6
CONTINUOUS
  0
LAYER
  2
TEAM-TXT
 70
     0
 62
    11
  6
CONTINUOUS
  0
LAYER
  2
TEAM-DET1
 70
     0
 62
     4
  6
CONTINUOUS
  0
LAYER
  2
TEAM-HIDE
 70
     0
 62
     8
  6
22
  0
LAYER
  2
TEAM-DET3
 70
     0
 62
    14
  6
CONTINUOUS
  0
LAYER
  2
TEAM-NET
 70
     0
 62
    15
  6
CONTINUOUS
  0
LAYER
  2
TEAM-INSP
 70
     0
 62
     5
  6
CONTINUOUS
  0
ENDTAB
  0
TABLE
  2
STYLE
 70
     2
  0
STYLE
  2
STANDARD
 70
     0
 40
0.0
 41
1.0
 50
0.0
 71
     0
 42
200.0
  3
txt
  4

  0
STYLE
  2
TEAM
 70
     0
 40
0.0
 41
0.8
 50
15.0
 71
     0
 42
7.0
  3
ROMANS.shx
  4

  0
ENDTAB
  0
TABLE
  2
VIEW
 70
     0
  0
ENDTAB
  0
TABLE
  2
UCS
 70
     0
  0
ENDTAB
  0
TABLE
  2
APPID
 70
     3
  0
APPID
  2
ACAD
 70
     0
  0
APPID
  2
GENIUS_GENODEF_13
 70
     0
  0
APPID
  2
GENIUS_GENOBJ-N-FIL_13
 70
     0
  0
ENDTAB
  0
TABLE
  2
DIMSTYLE
 70
     1
  0
DIMSTYLE
  2
TEAM
 70
     0
  3

  4

  5

  6

  7

 40
1.0
 41
20.0
 42
10.0
 43
1.0
 44
1.0
 45
0.0
 46
0.0
 47
0.0
 48
0.0
140
35.0
141
1.0
142
0.0
143
25.4
144
1.0
145
0.0
146
1.0
147
15.0
 71
     0
 72
     0
 73
     0
 74
     0
 75
     0
 76
     0
 77
     0
 78
     0
170
     0
171
     2
172
     0
173
     0
174
     0
175
     0
176
     9
177
     9
178
    11
  0
ENDTAB
  0
ENDSEC
  0
SECTION
  2
BLOCKS
  0
BLOCK
  8
0
  2
$MODEL_SPACE
 70
     0
 10
0.0
 20
0.0
 30
0.0
  3
$MODEL_SPACE
  1

  0
ENDBLK
  5
248
  8
0
  0
BLOCK
 67
     1
  8
0
  2
$PAPER_SPACE
 70
     0
 10
0.0
 20
0.0
 30
0.0
  3
$PAPER_SPACE
  1

  0
ENDBLK
  5
246
 67
     1
  8
0
  0
ENDSEC
  0
SECTION
  2
ENTITIES
  0
CIRCLE
  5
20
  8
TEAM-INSP
 10
0.0
 20
0.0
 30
0.0
 40
10.0
  0
POLYLINE
  5
22
  8
TEAM-NET
 66
     1
 10
0.0
 20
0.0
 30
0.0
 70
    16
 71
     2
 72
    25
  0
VERTEX
  5
23
  8
TEAM-NET
 10
0.0
 20
-322.68
 30
685.0
 70
    64
  0
VERTEX
  5
24
  8
TEAM-NET
 10
-18.241651
 20
-322.68
 30
685.0
 70
    64
  0
VERTEX
  5
25
  8
TEAM-NET
 10
-36.483303
 20
-322.68
 30
685.0
 70
    64
  0
VERTEX
  5
26
  8
TEAM-NET
 10
-54.724954
 20
-322.68
 30
685.0
 70
    64
  0
VERTEX
  5
27
  8
TEAM-NET
 10
-72.966605
 20
-322.68
 30
685.0
 70
    64
  0
VERTEX
  5
28
  8
TEAM-NET
 10
-91.043803
 20
-320.861
 30
685.0
 70
    64
  0
VERTEX
  5
29
  8
TEAM-NET
 10
-107.354901
 20
-312.921773
 30
685.0
 70
    64
  0
VERTEX
  5
2A
  8
TEAM-NET
 10
-119.759794
 20
-299.685388
 30
685.0
 70
    64
  0
VERTEX
  5
2B
  8
TEAM-NET
 10
-126.625584
 20
-282.894194
 30
685.0
 70
    64
  0
VERTEX
  5
2C
  8
TEAM-NET
 10
-127.68
 20
-264.724954
 30
685.0
 70
    64
  0
VERTEX
  5
2D
  8
TEAM-NET
 10
-127.68
 20
-246.483303
 30
685.0
 70
    64
  0
VERTEX
  5
2E
  8
TEAM-NET
 10
-127.68
 20
-228.241651
 30
685.0
 70
    64
  0
VERTEX
  5
2F
  8
TEAM-NET
 10
-127.68
 20
-210.0
 30
685.0
 70
    64
  0
VERTEX
  5
30
  8
TEAM-NET
 10
-127.68
 20
-191.758349
 30
685.0
 70
    64
  0
VERTEX
  5
31
  8
TEAM-NET
 10
-127.68
 20
-173.516697
 30
685.0
 70
    64
  0
VERTEX
  5
32
  8
TEAM-NET
 10
-127.68
 20
-155.275046
 30
685.0
 70
    64
  0
VERTEX
  5
33
  8
TEAM-NET
 10
-126.625584
 20
-137.105806
 30
685.0
 70
    64
  0
VERTEX
  5
34
  8
TEAM-NET
 10
-119.759794
 20
-120.314612
 30
685.0
 70
    64
  0
VERTEX
  5
35
  8
TEAM-NET
 10
-107.354901
 20
-107.078227
 30
685.0
 70
    64
  0
VERTEX
  5
36
  8
TEAM-NET
 10
-91.043803
 20
-99.139
 30
685.0
 70
    64
  0
VERTEX
  5
37
  8
TEAM-NET
 10
-72.966605
 20
-97.32
 30
685.0
 70
    64
  0
VERTEX
  5
38
  8
TEAM-NET
 10
-54.724954
 20
-97.32
 30
685.0
 70
    64
  0
VERTEX
  5
39
  8
TEAM-NET
 10
-36.483303
 20
-97.32
 30
685.0
 70
    64
  0
VERTEX
  5
3A
  8
TEAM-NET
 10
-18.241651
 20
-97.32
 30
685.0
 70
    64
  0
VERTEX
  5
3B
  8
TEAM-NET
 10
0.0
 20
-97.32
 30
685.0
 70
    64
  0
VERTEX
  5
3C
  8
TEAM-NET
 10
0.0
 20
-420.0
 30
850.0
 70
    64
  0
VERTEX
  5
3D
  8
TEAM-NET
 10
-33.926991
 20
-420.0
 30
850.0
 70
    64
  0
VERTEX
  5
3E
  8
TEAM-NET
 10
-67.853982
 20
-420.0
 30
850.0
 70
    64
  0
VERTEX
  5
3F
  8
TEAM-NET
 10
-101.780972
 20
-420.0
 30
850.0
 70
    64
  0
VERTEX
  5
40
  8
TEAM-NET
 10
-135.707963
 20
-420.0
 30
850.0
 70
    64
  0
VERTEX
  5
41
  8
TEAM-NET
 10
-169.634954
 20
-420.0
 30
850.0
 70
    64
  0
VERTEX
  5
42
  8
TEAM-NET
 10
-201.213203
 20
-411.213203
 30
850.0
 70
    64
  0
VERTEX
  5
43
  8
TEAM-NET
 10
-210.0
 20
-379.634954
 30
850.0
 70
    64
  0
VERTEX
  5
44
  8
TEAM-NET
 10
-210.0
 20
-345.707963
 30
850.0
 70
    64
  0
VERTEX
  5
45
  8
TEAM-NET
 10
-210.0
 20
-311.780972
 30
850.0
 70
    64
  0
VERTEX
  5
46
  8
TEAM-NET
 10
-210.0
 20
-277.853982
 30
850.0
 70
    64
  0
VERTEX
  5
47
  8
TEAM-NET
 10
-210.0
 20
-243.926991
 30
850.0
 70
    64
  0
VERTEX
  5
48
  8
TEAM-NET
 10
-210.0
 20
-210.0
 30
850.0
 70
    64
  0
VERTEX
  5
49
  8
TEAM-NET
 10
-210.0
 20
-176.073009
 30
850.0
 70
    64
  0
VERTEX
  5
4A
  8
TEAM-NET
 10
-210.0
 20
-142.146018
 30
850.0
 70
    64
  0
VERTEX
  5
4B
  8
TEAM-NET
 10
-210.0
 20
-108.219028
 30
850.0
 70
    64
  0
VERTEX
  5
4C
  8
TEAM-NET
 10
-210.0
 20
-74.292037
 30
850.0
 70
    64
  0
VERTEX
  5
4D
  8
TEAM-NET
 10
-210.0
 20
-40.365046
 30
850.0
 70
    64
  0
VERTEX
  5
4E
  8
TEAM-NET
 10
-201.213203
 20
-8.786797
 30
850.0
 70
    64
  0
VERTEX
  5
4F
  8
TEAM-NET
 10
-169.634954
 20
0.0
 30
850.0
 70
    64
  0
VERTEX
  5
50
  8
TEAM-NET
 10
-135.707963
 20
0.0
 30
850.0
 70
    64
  0
VERTEX
  5
51
  8
TEAM-NET
 10
-101.780972
 20
0.0
 30
850.0
 70
    64
  0
VERTEX
  5
52
  8
TEAM-NET
 10
-67.853982
 20
0.0
 30
850.0
 70
    64
  0
VERTEX
  5
53
  8
TEAM-NET
 10
-33.926991
 20
0.0
 30
850.0
 70
    64
  0
VERTEX
  5
54
  8
TEAM-NET
 10
0.0
 20
0.0
 30
850.0
 70
    64
  0
SEQEND
  5
56
  8
TEAM-NET
  0
POLYLINE
  5
57
  8
TEAM-NET
 66
     1
 10
0.0
 20
0.0
 30
0.0
 70
    16
 71
     2
 72
    25
  0
VERTEX
  5
58
  8
TEAM-NET
 10
0.0
 20
-420.0
 30
850.0
 70
    64
  0
VERTEX
  5
59
  8
TEAM-NET
 10
33.926991
 20
-420.0
 30
850.0
 70
    64
  0
VERTEX
  5
5A
  8
TEAM-NET
 10
67.853982
 20
-420.0
 30
850.0
 70
    64
  0
VERTEX
  5
5B
  8
TEAM-NET
 10
101.780972
 20
-420.0
 30
850.0
 70
    64
  0
VERTEX
  5
5C
  8
TEAM-NET
 10
135.707963
 20
-420.0
 30
850.0
 70
    64
  0
VERTEX
  5
5D
  8
TEAM-NET
 10
169.634954
 20
-420.0
 30
850.0
 70
    64
  0
VERTEX
  5
5E
  8
TEAM-NET
 10
201.213203
 20
-411.213203
 30
850.0
 70
    64
  0
VERTEX
  5
5F
  8
TEAM-NET
 10
210.0
 20
-379.634954
 30
850.0
 70
    64
  0
VERTEX
  5
60
  8
TEAM-NET
 10
210.0
 20
-345.707963
 30
850.0
 70
    64
  0
VERTEX
  5
61
  8
TEAM-NET
 10
210.0
 20
-311.780972
 30
850.0
 70
    64
  0
VERTEX
  5
62
  8
TEAM-NET
 10
210.0
 20
-277.853982
 30
850.0
 70
    64
  0
VERTEX
  5
63
  8
TEAM-NET
 10
210.0
 20
-243.926991
 30
850.0
 70
    64
  0
VERTEX
  5
64
  8
TEAM-NET
 10
210.0
 20
-210.0
 30
850.0
 70
    64
  0
VERTEX
  5
65
  8
TEAM-NET
 10
210.0
 20
-176.073009
 30
850.0
 70
    64
  0
VERTEX
  5
66
  8
TEAM-NET
 10
210.0
 20
-142.146018
 30
850.0
 70
    64
  0
VERTEX
  5
67
  8
TEAM-NET
 10
210.0
 20
-108.219028
 30
850.0
 70
    64
  0
VERTEX
  5
68
  8
TEAM-NET
 10
210.0
 20
-74.292037
 30
850.0
 70
    64
  0
VERTEX
  5
69
  8
TEAM-NET
 10
210.0
 20
-40.365046
 30
850.0
 70
    64
  0
VERTEX
  5
6A
  8
TEAM-NET
 10
201.213203
 20
-8.786797
 30
850.0
 70
    64
  0
VERTEX
  5
6B
  8
TEAM-NET
 10
169.634954
 20
0.0
 30
850.0
 70
    64
  0
VERTEX
  5
6C
  8
TEAM-NET
 10
135.707963
 20
0.0
 30
850.0
 70
    64
  0
VERTEX
  5
6D
  8
TEAM-NET
 10
101.780972
 20
0.0
 30
850.0
 70
    64
  0
VERTEX
  5
6E
  8
TEAM-NET
 10
67.853982
 20
0.0
 30
850.0
 70
    64
  0
VERTEX
  5
6F
  8
TEAM-NET
 10
33.926991
 20
0.0
 30
850.0
 70
    64
  0
VERTEX
  5
70
  8
TEAM-NET
 10
0.0
 20
0.0
 30
850.0
 70
    64
  0
VERTEX
  5
71
  8
TEAM-NET
 10
0.0
 20
-322.68
 30
685.0
 70
    64
  0
VERTEX
  5
72
  8
TEAM-NET
 10
18.241651
 20
-322.68
 30
685.0
 70
    64
  0
VERTEX
  5
73
  8
TEAM-NET
 10
36.483303
 20
-322.68
 30
685.0
 70
    64
  0
VERTEX
  5
74
  8
TEAM-NET
 10
54.724954
 20
-322.68
 30
685.0
 70
    64
  0
VERTEX
  5
75
  8
TEAM-NET
 10
72.966605
 20
-322.68
 30
685.0
 70
    64
  0
VERTEX
  5
76
  8
TEAM-NET
 10
91.043803
 20
-320.861
 30
685.0
 70
    64
  0
VERTEX
  5
77
  8
TEAM-NET
 10
107.354901
 20
-312.921773
 30
685.0
 70
    64
  0
VERTEX
  5
78
  8
TEAM-NET
 10
119.759794
 20
-299.685388
 30
685.0
 70
    64
  0
VERTEX
  5
79
  8
TEAM-NET
 10
126.625584
 20
-282.894194
 30
685.0
 70
    64
  0
VERTEX
  5
7A
  8
TEAM-NET
 10
127.68
 20
-264.724954
 30
685.0
 70
    64
  0
VERTEX
  5
7B
  8
TEAM-NET
 10
127.68
 20
-246.483303
 30
685.0
 70
    64
  0
VERTEX
  5
7C
  8
TEAM-NET
 10
127.68
 20
-228.241651
 30
685.0
 70
    64
  0
VERTEX
  5
7D
  8
TEAM-NET
 10
127.68
 20
-210.0
 30
685.0
 70
    64
  0
VERTEX
  5
7E
  8
TEAM-NET
 10
127.68
 20
-191.758349
 30
685.0
 70
    64
  0
VERTEX
  5
7F
  8
TEAM-NET
 10
127.68
 20
-173.516697
 30
685.0
 70
    64
  0
VERTEX
  5
80
  8
TEAM-NET
 10
127.68
 20
-155.275046
 30
685.0
 70
    64
  0
VERTEX
  5
81
  8
TEAM-NET
 10
126.625584
 20
-137.105806
 30
685.0
 70
    64
  0
VERTEX
  5
82
  8
TEAM-NET
 10
119.759794
 20
-120.314612
 30
685.0
 70
    64
  0
VERTEX
  5
83
  8
TEAM-NET
 10
107.354901
 20
-107.078227
 30
685.0
 70
    64
  0
VERTEX
  5
84
  8
TEAM-NET
 10
91.043803
 20
-99.139
 30
685.0
 70
    64
  0
VERTEX
  5
85
  8
TEAM-NET
 10
72.966605
 20
-97.32
 30
685.0
 70
    64
  0
VERTEX
  5
86
  8
TEAM-NET
 10
54.724954
 20
-97.32
 30
685.0
 70
    64
  0
VERTEX
  5
87
  8
TEAM-NET
 10
36.483303
 20
-97.32
 30
685.0
 70
    64
  0
VERTEX
  5
88
  8
TEAM-NET
 10
18.241651
 20
-97.32
 30
685.0
 70
    64
  0
VERTEX
  5
89
  8
TEAM-NET
 10
0.0
 20
-97.32
 30
685.0
 70
    64
  0
SEQEND
  5
8A
  8
TEAM-NET
  0
POLYLINE
  5
8B
  8
TEAM-DET3
 66
     1
 10
0.0
 20
0.0
 30
685.0
  0
VERTEX
  5
24E
  8
TEAM-DET3
 10
0.0
 20
-322.68
 30
685.0
  0
VERTEX
  5
24F
  8
TEAM-DET3
 10
77.68
 20
-322.68
 30
685.0
 42
0.414214
  0
VERTEX
  5
250
  8
TEAM-DET3
 10
127.68
 20
-272.68
 30
685.0
  0
VERTEX
  5
251
  8
TEAM-DET3
 10
127.68
 20
-147.32
 30
685.0
 42
0.414214
  0
VERTEX
  5
252
  8
TEAM-DET3
 10
77.68
 20
-97.32
 30
685.0
  0
VERTEX
  5
253
  8
TEAM-DET3
 10
0.0
 20
-97.32
 30
685.0
  0
SEQEND
  5
254
  8
TEAM-DET3
  0
POLYLINE
  5
8D
  8
TEAM-DET3
 66
     1
 10
0.0
 20
0.0
 30
685.0
  0
VERTEX
  5
255
  8
TEAM-DET3
 10
0.0
 20
-322.68
 30
685.0
  0
VERTEX
  5
256
  8
TEAM-DET3
 10
-77.68
 20
-322.68
 30
685.0
 42
-0.414214
  0
VERTEX
  5
257
  8
TEAM-DET3
 10
-127.68
 20
-272.68
 30
685.0
  0
VERTEX
  5
258
  8
TEAM-DET3
 10
-127.68
 20
-147.32
 30
685.0
 42
-0.414214
  0
VERTEX
  5
259
  8
TEAM-DET3
 10
-77.68
 20
-97.32
 30
685.0
  0
VERTEX
  5
25A
  8
TEAM-DET3
 10
0.0
 20
-97.32
 30
685.0
  0
SEQEND
  5
25B
  8
TEAM-DET3
  0
LINE
  5
8E
  8
TEAM-HIDE
 10
54.721302
 20
-210.0
 30
685.0
 11
67.897013
 21
-210.0
 31
685.0
  0
LINE
  5
91
  8
TEAM-AXE
 10
47.721554
 20
-210.0
 30
685.0
 11
-48.905523
 21
-210.0
 31
685.0
  0
LINE
  5
94
  8
TEAM-AXE
 10
0.0
 20
-266.132227
 30
685.0
 11
0.0
 21
-158.629842
 31
685.0
  0
LINE
  5
95
  8
TEAM-AXE
 10
-65.023534
 20
-148.357702
 30
685.0
 11
-97.744536
 21
-148.357702
 31
685.0
  0
LINE
  5
96
  8
TEAM-AXE
 10
-81.159918
 20
-167.610254
 30
685.0
 11
-81.159918
 21
-130.949472
 31
685.0
  0
LINE
  5
97
  8
TEAM-AXE
 10
65.023534
 20
-148.357702
 30
685.0
 11
97.744536
 21
-148.357702
 31
685.0
  0
LINE
  5
98
  8
TEAM-AXE
 10
81.159918
 20
-167.610254
 30
685.0
 11
81.159918
 21
-130.949472
 31
685.0
  0
CIRCLE
  5
99
  8
TEAM-DET1
 10
0.0
 20
-210.0
 30
685.0
 40
37.5
  0
CIRCLE
  5
9B
  8
TEAM-BODY
 10
0.0
 20
-210.0
 30
685.0
 40
26.0
  0
CIRCLE
  5
9D
  8
TEAM-HIDE
 10
-81.159918
 20
-148.357702
 30
685.0
 40
8.969058
  0
CIRCLE
  5
9E
  8
TEAM-HIDE
 10
81.159918
 20
-148.357702
 30
685.0
 40
8.969058
  0
LINE
  5
9F
  8
TEAM-HIDE
 10
-54.721302
 20
-210.0
 30
685.0
 11
-67.897013
 21
-210.0
 31
685.0
  0
ARC
  5
A0
  8
TEAM-HIDE
 10
-77.713648
 20
-147.32
 30
685.0
 40
36.979998
 50
90.0
 51
180.0
1001
GENIUS_GENOBJ-N-FIL_13
1002
{
1000
OWNER
1000
GEN
1002
}
1001
GENIUS_GENODEF_13
1002
{
1000
HIER
1070
     0
1002
}
1002
{
1000
MANEDIT
1070
     0
1002
}
1002
{
1000
NOSEL
1070
     0
1002
}
1002
{
1000
BEHIND
1070
     0
1002
}
1002
{
1000
OTHER
1070
     0
1002
}
1002
{
1000
REACTOR
1002
}
  0
LINE
  5
A3
  8
TEAM-HIDE
 10
-114.693647
 20
-272.268159
 30
685.0
 11
-114.693647
 21
-147.32
 31
685.0
  0
ARC
  5
A4
  8
TEAM-HIDE
 10
77.68
 20
-147.32
 30
685.0
 40
36.979998
 50
0.0
 51
90.0
1001
GENIUS_GENOBJ-N-FIL_13
1002
{
1000
OWNER
1000
GEN
1002
}
1001
GENIUS_GENODEF_13
1002
{
1000
HIER
1070
     0
1002
}
1002
{
1000
MANEDIT
1070
     0
1002
}
1002
{
1000
NOSEL
1070
     0
1002
}
1002
{
1000
BEHIND
1070
     0
1002
}
1002
{
1000
OTHER
1070
     0
1002
}
1002
{
1000
REACTOR
1002
}
  0
LINE
  5
A5
  8
TEAM-HIDE
 10
-77.713648
 20
-110.340002
 30
685.0
 11
77.68
 21
-110.340002
 31
685.0
  0
ARC
  5
A6
  8
TEAM-HIDE
 10
77.68
 20
-272.268159
 30
685.0
 40
36.979998
 50
270.0
 51
0.0
1001
GENIUS_GENOBJ-N-FIL_13
1002
{
1000
OWNER
1000
GEN
1002
}
1001
GENIUS_GENODEF_13
1002
{
1000
HIER
1070
     0
1002
}
1002
{
1000
MANEDIT
1070
     0
1002
}
1002
{
1000
NOSEL
1070
     0
1002
}
1002
{
1000
BEHIND
1070
     0
1002
}
1002
{
1000
OTHER
1070
     0
1002
}
1002
{
1000
REACTOR
1002
}
  0
LINE
  5
A7
  8
TEAM-HIDE
 10
114.659998
 20
-147.32
 30
685.0
 11
114.659998
 21
-272.268159
 31
685.0
  0
ARC
  5
A8
  8
TEAM-HIDE
 10
0.0
 20
-210.0
 30
685.0
 40
54.721302
 50
180.0
 51
0.0
  0
ARC
  5
A9
  8
TEAM-HIDE
 10
0.0
 20
-210.0
 30
685.0
 40
67.897013
 50
180.0
 51
0.0
  0
ARC
  5
AA
  8
TEAM-HIDE
 10
-77.713648
 20
-272.268159
 30
685.0
 40
36.979998
 50
180.0
 51
270.0
1001
GENIUS_GENOBJ-N-FIL_13
1002
{
1000
OWNER
1000
GEN
1002
}
1001
GENIUS_GENODEF_13
1002
{
1000
HIER
1070
     0
1002
}
1002
{
1000
MANEDIT
1070
     0
1002
}
1002
{
1000
NOSEL
1070
     0
1002
}
1002
{
1000
BEHIND
1070
     0
1002
}
1002
{
1000
OTHER
1070
     0
1002
}
1002
{
1000
REACTOR
1002
}
  0
LINE
  5
AB
  8
TEAM-HIDE
 10
77.68
 20
-309.248157
 30
685.0
 11
-77.713648
 21
-309.248157
 31
685.0
  0
LINE
  5
AC
  8
0
 10
-81.159918
 20
-148.357702
 30
685.0
 11
-81.159918
 21
-148.357702
 31
685.0
  0
LINE
  5
AD
  8
0
 10
-81.159918
 20
-148.357702
 30
685.0
 11
-81.159918
 21
-148.357702
 31
685.0
  0
POLYLINE
  5
AE
  8
TEAM-NET
 66
     1
 10
0.0
 20
0.0
 30
0.0
 70
    16
 71
     2
 72
    25
  0
VERTEX
  5
AF
  8
TEAM-NET
 10
0.0
 20
-97.32
 30
685.0
 70
    64
  0
VERTEX
  5
B0
  8
TEAM-NET
 10
18.241651
 20
-97.32
 30
685.0
 70
    64
  0
VERTEX
  5
B1
  8
TEAM-NET
 10
36.483303
 20
-97.32
 30
685.0
 70
    64
  0
VERTEX
  5
B2
  8
TEAM-NET
 10
54.724954
 20
-97.32
 30
685.0
 70
    64
  0
VERTEX
  5
B3
  8
TEAM-NET
 10
72.966605
 20
-97.32
 30
685.0
 70
    64
  0
VERTEX
  5
B4
  8
TEAM-NET
 10
91.043803
 20
-99.139
 30
685.0
 70
    64
  0
VERTEX
  5
B5
  8
TEAM-NET
 10
107.354901
 20
-107.078227
 30
685.0
 70
    64
  0
VERTEX
  5
B6
  8
TEAM-NET
 10
119.759794
 20
-120.314612
 30
685.0
 70
    64
  0
VERTEX
  5
B7
  8
TEAM-NET
 10
126.625584
 20
-137.105806
 30
685.0
 70
    64
  0
VERTEX
  5
B8
  8
TEAM-NET
 10
127.68
 20
-155.275046
 30
685.0
 70
    64
  0
VERTEX
  5
B9
  8
TEAM-NET
 10
127.68
 20
-173.516697
 30
685.0
 70
    64
  0
VERTEX
  5
BA
  8
TEAM-NET
 10
127.68
 20
-191.758349
 30
685.0
 70
    64
  0
VERTEX
  5
BB
  8
TEAM-NET
 10
127.68
 20
-210.0
 30
685.0
 70
    64
  0
VERTEX
  5
BC
  8
TEAM-NET
 10
127.68
 20
-228.241651
 30
685.0
 70
    64
  0
VERTEX
  5
BD
  8
TEAM-NET
 10
127.68
 20
-246.483303
 30
685.0
 70
    64
  0
VERTEX
  5
BE
  8
TEAM-NET
 10
127.68
 20
-264.724954
 30
685.0
 70
    64
  0
VERTEX
  5
BF
  8
TEAM-NET
 10
126.625584
 20
-282.894194
 30
685.0
 70
    64
  0
VERTEX
  5
C0
  8
TEAM-NET
 10
119.759794
 20
-299.685388
 30
685.0
 70
    64
  0
VERTEX
  5
C1
  8
TEAM-NET
 10
107.354901
 20
-312.921773
 30
685.0
 70
    64
  0
VERTEX
  5
C2
  8
TEAM-NET
 10
91.043803
 20
-320.861
 30
685.0
 70
    64
  0
VERTEX
  5
C3
  8
TEAM-NET
 10
72.966605
 20
-322.68
 30
685.0
 70
    64
  0
VERTEX
  5
C4
  8
TEAM-NET
 10
54.724954
 20
-322.68
 30
685.0
 70
    64
  0
VERTEX
  5
C5
  8
TEAM-NET
 10
36.483303
 20
-322.68
 30
685.0
 70
    64
  0
VERTEX
  5
C6
  8
TEAM-NET
 10
18.241651
 20
-322.68
 30
685.0
 70
    64
  0
VERTEX
  5
C7
  8
TEAM-NET
 10
0.0
 20
-322.68
 30
685.0
 70
    64
  0
VERTEX
  5
C8
  8
TEAM-NET
 10
0.0
 20
-97.32
 30
685.0
 70
    64
  0
VERTEX
  5
C9
  8
TEAM-NET
 10
-18.241651
 20
-97.32
 30
685.0
 70
    64
  0
VERTEX
  5
CA
  8
TEAM-NET
 10
-36.483303
 20
-97.32
 30
685.0
 70
    64
  0
VERTEX
  5
CB
  8
TEAM-NET
 10
-54.724954
 20
-97.32
 30
685.0
 70
    64
  0
VERTEX
  5
CC
  8
TEAM-NET
 10
-72.966605
 20
-97.32
 30
685.0
 70
    64
  0
VERTEX
  5
CD
  8
TEAM-NET
 10
-91.043803
 20
-99.139
 30
685.0
 70
    64
  0
VERTEX
  5
CE
  8
TEAM-NET
 10
-107.354901
 20
-107.078227
 30
685.0
 70
    64
  0
VERTEX
  5
CF
  8
TEAM-NET
 10
-119.759794
 20
-120.314612
 30
685.0
 70
    64
  0
VERTEX
  5
D0
  8
TEAM-NET
 10
-126.625584
 20
-137.105806
 30
685.0
 70
    64
  0
VERTEX
  5
D1
  8
TEAM-NET
 10
-127.68
 20
-155.275046
 30
685.0
 70
    64
  0
VERTEX
  5
D2
  8
TEAM-NET
 10
-127.68
 20
-173.516697
 30
685.0
 70
    64
  0
VERTEX
  5
D3
  8
TEAM-NET
 10
-127.68
 20
-191.758349
 30
685.0
 70
    64
  0
VERTEX
  5
D4
  8
TEAM-NET
 10
-127.68
 20
-210.0
 30
685.0
 70
    64
  0
VERTEX
  5
D5
  8
TEAM-NET
 10
-127.68
 20
-228.241651
 30
685.0
 70
    64
  0
VERTEX
  5
D6
  8
TEAM-NET
 10
-127.68
 20
-246.483303
 30
685.0
 70
    64
  0
VERTEX
  5
D7
  8
TEAM-NET
 10
-127.68
 20
-264.724954
 30
685.0
 70
    64
  0
VERTEX
  5
D8
  8
TEAM-NET
 10
-126.625584
 20
-282.894194
 30
685.0
 70
    64
  0
VERTEX
  5
D9
  8
TEAM-NET
 10
-119.759794
 20
-299.685388
 30
685.0
 70
    64
  0
VERTEX
  5
DA
  8
TEAM-NET
 10
-107.354901
 20
-312.921773
 30
685.0
 70
    64
  0
VERTEX
  5
DB
  8
TEAM-NET
 10
-91.043803
 20
-320.861
 30
685.0
 70
    64
  0
VERTEX
  5
DC
  8
TEAM-NET
 10
-72.966605
 20
-322.68
 30
685.0
 70
    64
  0
VERTEX
  5
DD
  8
TEAM-NET
 10
-54.724954
 20
-322.68
 30
685.0
 70
    64
  0
VERTEX
  5
DE
  8
TEAM-NET
 10
-36.483303
 20
-322.68
 30
685.0
 70
    64
  0
VERTEX
  5
DF
  8
TEAM-NET
 10
-18.241651
 20
-322.68
 30
685.0
 70
    64
  0
VERTEX
  5
E0
  8
TEAM-NET
 10
0.0
 20
-322.68
 30
685.0
 70
    64
  0
SEQEND
  5
E1
  8
TEAM-NET
  0
TEXT
  5
E2
  8
TEAM-TXT
 10
-73.265763
 20
-397.386693
 30
850.0
 40
30.0
  1
team 234058
 41
0.8
 51
15.0
  7
TEAM
  0
POLYLINE
  5
E5
  8
TEAM-DET1
 66
     1
 10
0.0
 20
0.0
 30
-850.0
 70
   129
210
0.0
220
0.0
230
-1.0
  0
VERTEX
  5
25C
  8
TEAM-DET1
 10
-15.067331
 20
-24.089505
 30
-850.0
  0
VERTEX
  5
25D
  8
TEAM-DET1
 10
-14.795045
 20
-25.437521
 30
-850.0
  0
VERTEX
  5
25E
  8
TEAM-DET1
 10
-13.988027
 20
-26.736816
 30
-850.0
  0
VERTEX
  5
25F
  8
TEAM-DET1
 10
-12.675446
 20
-27.94043
 30
-850.0
  0
VERTEX
  5
260
  8
TEAM-DET1
 10
-10.90474
 20
-29.004862
 30
-850.0
  0
VERTEX
  5
261
  8
TEAM-DET1
 10
-8.73991
 20
-29.89164
 30
-850.0
  0
VERTEX
  5
262
  8
TEAM-DET1
 10
-6.259196
 20
-30.568714
 30
-850.0
  0
VERTEX
  5
263
  8
TEAM-DET1
 10
-3.552258
 20
-31.011612
 30
-850.0
  0
VERTEX
  5
264
  8
TEAM-DET1
 10
-0.716932
 20
-31.204327
 30
-850.0
  0
VERTEX
  5
265
  8
TEAM-DET1
 10
2.144305
 20
-31.139894
 30
-850.0
  0
VERTEX
  5
266
  8
TEAM-DET1
 10
4.928041
 20
-30.820642
 30
-850.0
  0
VERTEX
  5
267
  8
TEAM-DET1
 10
7.533666
 20
-30.258109
 30
-850.0
  0
VERTEX
  5
268
  8
TEAM-DET1
 10
9.867004
 20
-29.472626
 30
-850.0
  0
VERTEX
  5
269
  8
TEAM-DET1
 10
11.843722
 20
-28.492583
 30
-850.0
  0
VERTEX
  5
26A
  8
TEAM-DET1
 10
13.392378
 20
-27.353402
 30
-850.0
  0
VERTEX
  5
26B
  8
TEAM-DET1
 10
14.456998
 20
-26.096255
 30
-850.0
  0
VERTEX
  5
26C
  8
TEAM-DET1
 10
14.999105
 20
-24.766579
 30
-850.0
  0
VERTEX
  5
26D
  8
TEAM-DET1
 10
14.999105
 20
-23.412431
 30
-850.0
  0
VERTEX
  5
26E
  8
TEAM-DET1
 10
14.456998
 20
-22.082755
 30
-850.0
  0
VERTEX
  5
26F
  8
TEAM-DET1
 10
13.392378
 20
-20.825608
 30
-850.0
  0
VERTEX
  5
270
  8
TEAM-DET1
 10
11.843722
 20
-19.686427
 30
-850.0
  0
VERTEX
  5
271
  8
TEAM-DET1
 10
9.867004
 20
-18.706384
 30
-850.0
  0
VERTEX
  5
272
  8
TEAM-DET1
 10
7.533666
 20
-17.920902
 30
-850.0
  0
VERTEX
  5
273
  8
TEAM-DET1
 10
4.928041
 20
-17.358369
 30
-850.0
  0
VERTEX
  5
274
  8
TEAM-DET1
 10
2.144305
 20
-17.039116
 30
-850.0
  0
VERTEX
  5
275
  8
TEAM-DET1
 10
-0.716932
 20
-16.974683
 30
-850.0
  0
VERTEX
  5
276
  8
TEAM-DET1
 10
-3.552258
 20
-17.167399
 30
-850.0
  0
VERTEX
  5
277
  8
TEAM-DET1
 10
-6.259196
 20
-17.610297
 30
-850.0
  0
VERTEX
  5
278
  8
TEAM-DET1
 10
-8.73991
 20
-18.28737
 30
-850.0
  0
VERTEX
  5
279
  8
TEAM-DET1
 10
-10.90474
 20
-19.174148
 30
-850.0
  0
VERTEX
  5
27A
  8
TEAM-DET1
 10
-12.675446
 20
-20.23858
 30
-850.0
  0
VERTEX
  5
27B
  8
TEAM-DET1
 10
-13.988027
 20
-21.442194
 30
-850.0
  0
VERTEX
  5
27C
  8
TEAM-DET1
 10
-14.795045
 20
-22.741489
 30
-850.0
  0
SEQEND
  5
27D
  8
TEAM-DET1
  0
POLYLINE
  5
E6
  8
TEAM-BODY
 66
     1
 10
0.0
 20
0.0
 30
850.0
  0
VERTEX
  5
27E
  8
TEAM-BODY
 10
0.0
 20
0.0
 30
850.0
  0
VERTEX
  5
27F
  8
TEAM-BODY
 10
-180.0
 20
0.0
 30
850.0
 42
0.414214
  0
VERTEX
  5
280
  8
TEAM-BODY
 10
-210.0
 20
-30.0
 30
850.0
  0
VERTEX
  5
281
  8
TEAM-BODY
 10
-210.0
 20
-390.0
 30
850.0
 42
0.414214
  0
VERTEX
  5
282
  8
TEAM-BODY
 10
-180.0
 20
-420.0
 30
850.0
  0
VERTEX
  5
283
  8
TEAM-BODY
 10
0.0
 20
-420.0
 30
850.0
  0
SEQEND
  5
284
  8
TEAM-BODY
  0
POLYLINE
  5
E7
  8
TEAM-BODY
 66
     1
 10
0.0
 20
0.0
 30
850.0
  0
VERTEX
  5
285
  8
TEAM-BODY
 10
0.0
 20
0.0
 30
850.0
  0
VERTEX
  5
286
  8
TEAM-BODY
 10
180.0
 20
0.0
 30
850.0
 42
-0.414214
  0
VERTEX
  5
287
  8
TEAM-BODY
 10
210.0
 20
-30.0
 30
850.0
  0
VERTEX
  5
288
  8
TEAM-BODY
 10
210.0
 20
-390.0
 30
850.0
 42
-0.414214
  0
VERTEX
  5
289
  8
TEAM-BODY
 10
180.0
 20
-420.0
 30
850.0
  0
VERTEX
  5
28A
  8
TEAM-BODY
 10
0.0
 20
-420.0
 30
850.0
  0
SEQEND
  5
28B
  8
TEAM-BODY
  0
ENDSEC
  0
EOF
