  0
SECTION
  2
HEADER
  9
$ACADVER
  1
AC1009
  9
$INSBASE
 10
0.0
 20
0.0
 30
0.0
  9
$EXTMIN
 10
-204.267409
 20
-423.228551
 30
-10.06622
  9
$EXTMAX
 10
204.267413
 20
10.02543
 30
1075.06627
  9
$LIMMIN
 10
-204.267409
 20
-423.228551
  9
$LIMMAX
 10
204.267413
 20
10.02543
  9
$ORTHOMODE
 70
     0
  9
$REGENMODE
 70
     1
  9
$FILLMODE
 70
     1
  9
$QTEXTMODE
 70
     0
  9
$MIRRTEXT
 70
     0
  9
$DRAGMODE
 70
     2
  9
$LTSCALE
 40
25.0
  9
$OSMODE
 70
     0
  9
$ATTMODE
 70
     1
  9
$TEXTSIZE
 40
200.0
  9
$TRACEWID
 40
1.0
  9
$TEXTSTYLE
  7
STANDARD
  9
$CLAYER
  8
0
  9
$CELTYPE
  6
BYLAYER
  9
$CECOLOR
 62
   256
  9
$DIMSCALE
 40
0.0
  9
$DIMASZ
 40
20.0
  9
$DIMEXO
 40
10.0
  9
$DIMDLI
 40
1.0
  9
$DIMRND
 40
0.0
  9
$DIMDLE
 40
0.0
  9
$DIMEXE
 40
1.0
  9
$DIMTP
 40
0.0
  9
$DIMTM
 40
0.0
  9
$DIMTXT
 40
35.0
  9
$DIMCEN
 40
1.0
  9
$DIMTSZ
 40
0.0
  9
$DIMTOL
 70
     0
  9
$DIMLIM
 70
     0
  9
$DIMTIH
 70
     0
  9
$DIMTOH
 70
     0
  9
$DIMSE1
 70
     0
  9
$DIMSE2
 70
     0
  9
$DIMTAD
 70
     0
  9
$DIMZIN
 70
     0
  9
$DIMBLK
  1

  9
$DIMASO
 70
     1
  9
$DIMSHO
 70
     0
  9
$DIMPOST
  1

  9
$DIMAPOST
  1

  9
$DIMALT
 70
     0
  9
$DIMALTD
 70
     2
  9
$DIMALTF
 40
25.4
  9
$DIMLFAC
 40
1.0
  9
$DIMTOFL
 70
     0
  9
$DIMTVP
 40
0.0
  9
$DIMTIX
 70
     0
  9
$DIMSOXD
 70
     0
  9
$DIMSAH
 70
     0
  9
$DIMBLK1
  1

  9
$DIMBLK2
  1

  9
$DIMSTYLE
  2
TEAM
  9
$DIMCLRD
 70
     9
  9
$DIMCLRE
 70
     9
  9
$DIMCLRT
 70
    11
  9
$DIMTFAC
 40
1.0
  9
$DIMGAP
 40
15.0
  9
$LUNITS
 70
     2
  9
$LUPREC
 70
     1
  9
$SKETCHINC
 40
1.0
  9
$FILLETRAD
 40
50.0
  9
$AUNITS
 70
     0
  9
$AUPREC
 70
     0
  9
$MENU
  1
ROPLANS
  9
$ELEVATION
 40
0.0
  9
$PELEVATION
 40
0.0
  9
$THICKNESS
 40
0.0
  9
$LIMCHECK
 70
     0
  9
$BLIPMODE
 70
     1
  9
$CHAMFERA
 40
0.0
  9
$CHAMFERB
 40
0.0
  9
$SKPOLY
 70
     0
  9
$TDCREATE
 40
2450392.957851
  9
$TDUPDATE
 40
2455526.943597
  9
$TDINDWG
 40
1.970577
  9
$TDUSRTIMER
 40
1.970577
  9
$USRTIMER
 70
     1
  9
$ANGBASE
 50
0.0
  9
$ANGDIR
 70
     0
  9
$PDMODE
 70
     0
  9
$PDSIZE
 40
0.0
  9
$PLINEWID
 40
0.0
  9
$COORDS
 70
     2
  9
$SPLFRAME
 70
     0
  9
$SPLINETYPE
 70
     6
  9
$SPLINESEGS
 70
     8
  9
$ATTDIA
 70
     0
  9
$ATTREQ
 70
     0
  9
$HANDLING
 70
     1
  9
$HANDSEED
  5
3CE
  9
$SURFTAB1
 70
    24
  9
$SURFTAB2
 70
    24
  9
$SURFTYPE
 70
     6
  9
$SURFU
 70
     6
  9
$SURFV
 70
     6
  9
$UCSNAME
  2

  9
$UCSORG
 10
0.0
 20
0.0
 30
0.0
  9
$UCSXDIR
 10
1.0
 20
0.0
 30
0.0
  9
$UCSYDIR
 10
0.0
 20
1.0
 30
0.0
  9
$PUCSNAME
  2

  9
$PUCSORG
 10
0.0
 20
0.0
 30
0.0
  9
$PUCSXDIR
 10
1.0
 20
0.0
 30
0.0
  9
$PUCSYDIR
 10
0.0
 20
1.0
 30
0.0
  9
$USERI1
 70
     0
  9
$USERI2
 70
     0
  9
$USERI3
 70
     0
  9
$USERI4
 70
     0
  9
$USERI5
 70
     0
  9
$USERR1
 40
0.0
  9
$USERR2
 40
0.0
  9
$USERR3
 40
0.0
  9
$USERR4
 40
0.0
  9
$USERR5
 40
0.0
  9
$WORLDVIEW
 70
     1
  9
$SHADEDGE
 70
     0
  9
$SHADEDIF
 70
    70
  9
$TILEMODE
 70
     1
  9
$MAXACTVP
 70
    16
  9
$PLIMCHECK
 70
     0
  9
$PEXTMIN
 10
-0.805942
 20
0.005011
 30
0.0
  9
$PEXTMAX
 10
20.392854
 20
13.725274
 30
0.0
  9
$PLIMMIN
 10
0.0
 20
0.0
  9
$PLIMMAX
 10
12.0
 20
9.0
  9
$UNITMODE
 70
     0
  9
$VISRETAIN
 70
     0
  9
$PLINEGEN
 70
     0
  9
$PSLTSCALE
 70
     0
  0
ENDSEC
  0
SECTION
  2
TABLES
  0
TABLE
  2
VPORT
 70
     2
  0
VPORT
  2
*ACTIVE
 70
     0
 10
0.0
 20
0.0
 11
1.0
 21
1.0
 12
0.000002
 22
-206.601561
 13
0.0
 23
0.0
 14
1.0
 24
1.0
 15
50.0
 25
50.0
 16
0.0
 26
0.0
 36
1.0
 17
0.0
 27
0.0
 37
0.0
 40
435.914702
 41
1.865779
 42
50.0
 43
0.0
 44
0.0
 50
0.0
 51
0.0
 71
     0
 72
   100
 73
     1
 74
     1
 75
     0
 76
     0
 77
     0
 78
     0
  0
ENDTAB
  0
TABLE
  2
LTYPE
 70
     3
  0
LTYPE
  2
CONTINUOUS
 70
     0
  3
Solid Line
 72
    65
 73
     0
 40
0.0
  0
LTYPE
  2
31
 70
     0
  3

 72
    65
 73
     4
 40
2.1
 49
1.5
 49
-0.3
 49
0.0
 49
-0.3
  0
LTYPE
  2
22
 70
     0
  3

 72
    65
 73
     2
 40
1.4
 49
1.2
 49
-0.2
  0
ENDTAB
  0
TABLE
  2
LAYER
 70
    10
  0
LAYER
  2
0
 70
     0
 62
     7
  6
CONTINUOUS
  0
LAYER
  2
TEAM-BODY
 70
     0
 62
     2
  6
CONTINUOUS
  0
LAYER
  2
TEAM-AXE
 70
     0
 62
    10
  6
31
  0
LAYER
  2
TEAM-TXT
 70
     0
 62
    11
  6
CONTINUOUS
  0
LAYER
  2
TEAM-DET2
 70
     0
 62
     5
  6
CONTINUOUS
  0
LAYER
  2
TEAM-COLD
 70
     0
 62
     3
  6
CONTINUOUS
  0
LAYER
  2
TEAM-HIDE
 70
     0
 62
     8
  6
22
  0
LAYER
  2
TEAM-KAN
 70
     0
 62
     6
  6
CONTINUOUS
  0
LAYER
  2
TEAM-NET
 70
     0
 62
    15
  6
CONTINUOUS
  0
LAYER
  2
TEAM-INSP
 70
     0
 62
     5
  6
CONTINUOUS
  0
ENDTAB
  0
TABLE
  2
STYLE
 70
     2
  0
STYLE
  2
STANDARD
 70
     0
 40
0.0
 41
1.0
 50
0.0
 71
     0
 42
200.0
  3
txt
  4

  0
STYLE
  2
TEAM
 70
     0
 40
0.0
 41
0.8
 50
15.0
 71
     0
 42
7.0
  3
ROMANS.shx
  4

  0
ENDTAB
  0
TABLE
  2
VIEW
 70
     0
  0
ENDTAB
  0
TABLE
  2
UCS
 70
     0
  0
ENDTAB
  0
TABLE
  2
APPID
 70
     1
  0
APPID
  2
ACAD
 70
     0
  0
ENDTAB
  0
TABLE
  2
DIMSTYLE
 70
     1
  0
DIMSTYLE
  2
TEAM
 70
     0
  3

  4

  5

  6

  7

 40
0.0
 41
20.0
 42
10.0
 43
1.0
 44
1.0
 45
0.0
 46
0.0
 47
0.0
 48
0.0
140
35.0
141
1.0
142
0.0
143
25.4
144
1.0
145
0.0
146
1.0
147
15.0
 71
     0
 72
     0
 73
     0
 74
     0
 75
     0
 76
     0
 77
     0
 78
     0
170
     0
171
     2
172
     0
173
     0
174
     0
175
     0
176
     9
177
     9
178
    11
  0
ENDTAB
  0
ENDSEC
  0
SECTION
  2
BLOCKS
  0
BLOCK
  8
0
  2
$MODEL_SPACE
 70
     0
 10
0.0
 20
0.0
 30
0.0
  3
$MODEL_SPACE
  1

  0
ENDBLK
  5
3B5
  8
0
  0
BLOCK
 67
     1
  8
0
  2
$PAPER_SPACE
 70
     0
 10
0.0
 20
0.0
 30
0.0
  3
$PAPER_SPACE
  1

  0
ENDBLK
  5
3B3
 67
     1
  8
0
  0
ENDSEC
  0
SECTION
  2
ENTITIES
  0
POLYLINE
  5
1F
  8
TEAM-BODY
 66
     1
 10
0.0
 20
0.0
 30
0.0
210
0.0
220
-1.0
230
0.0
  0
VERTEX
  5
3BB
  8
TEAM-BODY
 10
-192.634457
 20
713.400962
 30
0.0
 42
0.067729
  0
VERTEX
  5
3BC
  8
TEAM-BODY
 10
-100.0
 20
370.0
 30
0.0
 42
0.000563
  0
VERTEX
  5
3BD
  8
TEAM-BODY
 10
0.0
 20
370.0
 30
0.0
 42
0.274961
  0
SEQEND
  5
3BE
  8
TEAM-BODY
  0
POLYLINE
  5
21
  8
TEAM-NET
 66
     1
 10
0.0
 20
0.0
 30
0.0
 70
    16
 71
     2
 72
    25
  0
VERTEX
  5
22
  8
TEAM-NET
 10
0.0
 20
0.0
 30
370.0
 70
    64
  0
VERTEX
  5
23
  8
TEAM-NET
 10
0.0
 20
-21.443437
 30
370.000899
 70
    64
  0
VERTEX
  5
24
  8
TEAM-NET
 10
0.0
 20
-42.886874
 30
370.001798
 70
    64
  0
VERTEX
  5
25
  8
TEAM-NET
 10
0.0
 20
-64.33031
 30
370.002696
 70
    64
  0
VERTEX
  5
26
  8
TEAM-NET
 10
0.0
 20
-85.773747
 30
370.003595
 70
    64
  0
VERTEX
  5
27
  8
TEAM-NET
 10
0.0
 20
-107.217184
 30
370.004494
 70
    64
  0
VERTEX
  5
28
  8
TEAM-NET
 10
0.0
 20
-128.660621
 30
370.005393
 70
    64
  0
VERTEX
  5
29
  8
TEAM-NET
 10
0.0
 20
-150.104058
 30
370.006291
 70
    64
  0
VERTEX
  5
2A
  8
TEAM-NET
 10
0.0
 20
-171.547494
 30
370.00719
 70
    64
  0
VERTEX
  5
2B
  8
TEAM-NET
 10
0.0
 20
-192.990931
 30
370.008089
 70
    64
  0
VERTEX
  5
2C
  8
TEAM-NET
 10
0.0
 20
-213.588012
 30
374.873636
 70
    64
  0
VERTEX
  5
2D
  8
TEAM-NET
 10
0.0
 20
-233.266904
 30
383.378763
 70
    64
  0
VERTEX
  5
2E
  8
TEAM-NET
 10
0.0
 20
-252.236806
 30
393.365691
 70
    64
  0
VERTEX
  5
2F
  8
TEAM-NET
 10
0.0
 20
-270.386343
 30
404.775785
 70
    64
  0
VERTEX
  5
30
  8
TEAM-NET
 10
0.0
 20
-287.608955
 30
417.542053
 70
    64
  0
VERTEX
  5
31
  8
TEAM-NET
 10
0.0
 20
-303.803522
 30
431.589541
 70
    64
  0
VERTEX
  5
32
  8
TEAM-NET
 10
0.0
 20
-318.874963
 30
446.835774
 70
    64
  0
VERTEX
  5
33
  8
TEAM-NET
 10
0.0
 20
-332.73479
 30
463.191235
 70
    64
  0
VERTEX
  5
34
  8
TEAM-NET
 10
0.0
 20
-345.301629
 30
480.5599
 70
    64
  0
VERTEX
  5
35
  8
TEAM-NET
 10
0.0
 20
-356.501696
 30
498.839792
 70
    64
  0
VERTEX
  5
36
  8
TEAM-NET
 10
0.0
 20
-366.269233
 30
517.923585
 70
    64
  0
VERTEX
  5
37
  8
TEAM-NET
 10
0.0
 20
-374.546892
 30
537.699234
 70
    64
  0
VERTEX
  5
38
  8
TEAM-NET
 10
0.0
 20
-381.286074
 30
558.050631
 70
    64
  0
VERTEX
  5
39
  8
TEAM-NET
 10
0.0
 20
-386.447211
 30
578.858289
 70
    64
  0
VERTEX
  5
3A
  8
TEAM-NET
 10
0.0
 20
-390.0
 30
600.000039
 70
    64
  0
VERTEX
  5
3B
  8
TEAM-NET
 10
0.0
 20
0.0
 30
370.0
 70
    64
  0
VERTEX
  5
3C
  8
TEAM-NET
 10
-19.03177
 20
0.0
 30
369.982646
 70
    64
  0
VERTEX
  5
3D
  8
TEAM-NET
 10
-38.063545
 20
0.0
 30
369.97345
 70
    64
  0
VERTEX
  5
3E
  8
TEAM-NET
 10
-57.095323
 20
0.0
 30
369.972413
 70
    64
  0
VERTEX
  5
3F
  8
TEAM-NET
 10
-76.1271
 20
0.0
 30
369.979533
 70
    64
  0
VERTEX
  5
40
  8
TEAM-NET
 10
-95.158871
 20
0.0
 30
369.994812
 70
    64
  0
VERTEX
  5
41
  8
TEAM-NET
 10
-105.439121
 20
0.0
 30
383.10681
 70
    64
  0
VERTEX
  5
42
  8
TEAM-NET
 10
-112.511798
 20
0.0
 30
400.775413
 70
    64
  0
VERTEX
  5
43
  8
TEAM-NET
 10
-119.328785
 20
0.0
 30
418.544233
 70
    64
  0
VERTEX
  5
44
  8
TEAM-NET
 10
-125.888663
 20
0.0
 30
436.409571
 70
    64
  0
VERTEX
  5
45
  8
TEAM-NET
 10
-132.190065
 20
0.0
 30
454.367706
 70
    64
  0
VERTEX
  5
46
  8
TEAM-NET
 10
-138.231679
 20
0.0
 30
472.414899
 70
    64
  0
VERTEX
  5
47
  8
TEAM-NET
 10
-144.012247
 20
0.0
 30
490.547393
 70
    64
  0
VERTEX
  5
48
  8
TEAM-NET
 10
-149.530566
 20
0.0
 30
508.761411
 70
    64
  0
VERTEX
  5
49
  8
TEAM-NET
 10
-154.785486
 20
0.0
 30
527.05316
 70
    64
  0
VERTEX
  5
4A
  8
TEAM-NET
 10
-159.775913
 20
0.0
 30
545.418833
 70
    64
  0
VERTEX
  5
4B
  8
TEAM-NET
 10
-164.500808
 20
0.0
 30
563.854604
 70
    64
  0
VERTEX
  5
4C
  8
TEAM-NET
 10
-168.959188
 20
0.0
 30
582.356634
 70
    64
  0
VERTEX
  5
4D
  8
TEAM-NET
 10
-173.150123
 20
0.0
 30
600.921072
 70
    64
  0
VERTEX
  5
4E
  8
TEAM-NET
 10
-177.072742
 20
0.0
 30
619.544051
 70
    64
  0
VERTEX
  5
4F
  8
TEAM-NET
 10
-180.726226
 20
0.0
 30
638.221694
 70
    64
  0
VERTEX
  5
50
  8
TEAM-NET
 10
-184.109817
 20
0.0
 30
656.950111
 70
    64
  0
VERTEX
  5
51
  8
TEAM-NET
 10
-187.222808
 20
0.0
 30
675.725402
 70
    64
  0
VERTEX
  5
52
  8
TEAM-NET
 10
-190.064552
 20
0.0
 30
694.543659
 70
    64
  0
VERTEX
  5
53
  8
TEAM-NET
 10
-192.634457
 20
0.0
 30
713.400962
 70
    64
  0
SEQEND
  5
55
  8
TEAM-NET
  0
POLYLINE
  5
56
  8
TEAM-NET
 66
     1
 10
0.0
 20
0.0
 30
0.0
 70
    16
 71
     2
 72
    25
  0
VERTEX
  5
57
  8
TEAM-NET
 10
0.0
 20
0.0
 30
370.0
 70
    64
  0
VERTEX
  5
58
  8
TEAM-NET
 10
19.031708
 20
0.0
 30
369.94602
 70
    64
  0
VERTEX
  5
59
  8
TEAM-NET
 10
38.06347
 20
0.0
 30
369.917416
 70
    64
  0
VERTEX
  5
5A
  8
TEAM-NET
 10
57.095254
 20
0.0
 30
369.914189
 70
    64
  0
VERTEX
  5
5B
  8
TEAM-NET
 10
76.127026
 20
0.0
 30
369.936337
 70
    64
  0
VERTEX
  5
5C
  8
TEAM-NET
 10
95.15875
 20
0.0
 30
369.983862
 70
    64
  0
VERTEX
  5
5D
  8
TEAM-NET
 10
105.439069
 20
0.0
 30
383.106683
 70
    64
  0
VERTEX
  5
5E
  8
TEAM-NET
 10
112.511751
 20
0.0
 30
400.775292
 70
    64
  0
VERTEX
  5
5F
  8
TEAM-NET
 10
119.328742
 20
0.0
 30
418.544119
 70
    64
  0
VERTEX
  5
60
  8
TEAM-NET
 10
125.888624
 20
0.0
 30
436.409463
 70
    64
  0
VERTEX
  5
61
  8
TEAM-NET
 10
132.19003
 20
0.0
 30
454.367605
 70
    64
  0
VERTEX
  5
62
  8
TEAM-NET
 10
138.231648
 20
0.0
 30
472.414805
 70
    64
  0
VERTEX
  5
63
  8
TEAM-NET
 10
144.01222
 20
0.0
 30
490.547305
 70
    64
  0
VERTEX
  5
64
  8
TEAM-NET
 10
149.530542
 20
0.0
 30
508.76133
 70
    64
  0
VERTEX
  5
65
  8
TEAM-NET
 10
154.785465
 20
0.0
 30
527.053087
 70
    64
  0
VERTEX
  5
66
  8
TEAM-NET
 10
159.775896
 20
0.0
 30
545.418766
 70
    64
  0
VERTEX
  5
67
  8
TEAM-NET
 10
164.500794
 20
0.0
 30
563.854544
 70
    64
  0
VERTEX
  5
68
  8
TEAM-NET
 10
168.959176
 20
0.0
 30
582.356582
 70
    64
  0
VERTEX
  5
69
  8
TEAM-NET
 10
173.150113
 20
0.0
 30
600.921027
 70
    64
  0
VERTEX
  5
6A
  8
TEAM-NET
 10
177.072734
 20
0.0
 30
619.544014
 70
    64
  0
VERTEX
  5
6B
  8
TEAM-NET
 10
180.726221
 20
0.0
 30
638.221664
 70
    64
  0
VERTEX
  5
6C
  8
TEAM-NET
 10
184.109813
 20
0.0
 30
656.950088
 70
    64
  0
VERTEX
  5
6D
  8
TEAM-NET
 10
187.222806
 20
0.0
 30
675.725387
 70
    64
  0
VERTEX
  5
6E
  8
TEAM-NET
 10
190.064551
 20
0.0
 30
694.543651
 70
    64
  0
VERTEX
  5
6F
  8
TEAM-NET
 10
192.634457
 20
0.0
 30
713.400962
 70
    64
  0
VERTEX
  5
70
  8
TEAM-NET
 10
0.0
 20
0.0
 30
370.0
 70
    64
  0
VERTEX
  5
71
  8
TEAM-NET
 10
-19.03177
 20
0.0
 30
369.982646
 70
    64
  0
VERTEX
  5
72
  8
TEAM-NET
 10
-38.063545
 20
0.0
 30
369.97345
 70
    64
  0
VERTEX
  5
73
  8
TEAM-NET
 10
-57.095323
 20
0.0
 30
369.972413
 70
    64
  0
VERTEX
  5
74
  8
TEAM-NET
 10
-76.1271
 20
0.0
 30
369.979533
 70
    64
  0
VERTEX
  5
75
  8
TEAM-NET
 10
-95.158871
 20
0.0
 30
369.994812
 70
    64
  0
VERTEX
  5
76
  8
TEAM-NET
 10
-105.439121
 20
0.0
 30
383.10681
 70
    64
  0
VERTEX
  5
77
  8
TEAM-NET
 10
-112.511798
 20
0.0
 30
400.775413
 70
    64
  0
VERTEX
  5
78
  8
TEAM-NET
 10
-119.328785
 20
0.0
 30
418.544233
 70
    64
  0
VERTEX
  5
79
  8
TEAM-NET
 10
-125.888663
 20
0.0
 30
436.409571
 70
    64
  0
VERTEX
  5
7A
  8
TEAM-NET
 10
-132.190065
 20
0.0
 30
454.367706
 70
    64
  0
VERTEX
  5
7B
  8
TEAM-NET
 10
-138.231679
 20
0.0
 30
472.414899
 70
    64
  0
VERTEX
  5
7C
  8
TEAM-NET
 10
-144.012247
 20
0.0
 30
490.547393
 70
    64
  0
VERTEX
  5
7D
  8
TEAM-NET
 10
-149.530566
 20
0.0
 30
508.761411
 70
    64
  0
VERTEX
  5
7E
  8
TEAM-NET
 10
-154.785486
 20
0.0
 30
527.05316
 70
    64
  0
VERTEX
  5
7F
  8
TEAM-NET
 10
-159.775913
 20
0.0
 30
545.418833
 70
    64
  0
VERTEX
  5
80
  8
TEAM-NET
 10
-164.500808
 20
0.0
 30
563.854604
 70
    64
  0
VERTEX
  5
81
  8
TEAM-NET
 10
-168.959188
 20
0.0
 30
582.356634
 70
    64
  0
VERTEX
  5
82
  8
TEAM-NET
 10
-173.150123
 20
0.0
 30
600.921072
 70
    64
  0
VERTEX
  5
83
  8
TEAM-NET
 10
-177.072742
 20
0.0
 30
619.544051
 70
    64
  0
VERTEX
  5
84
  8
TEAM-NET
 10
-180.726226
 20
0.0
 30
638.221694
 70
    64
  0
VERTEX
  5
85
  8
TEAM-NET
 10
-184.109817
 20
0.0
 30
656.950111
 70
    64
  0
VERTEX
  5
86
  8
TEAM-NET
 10
-187.222808
 20
0.0
 30
675.725402
 70
    64
  0
VERTEX
  5
87
  8
TEAM-NET
 10
-190.064552
 20
0.0
 30
694.543659
 70
    64
  0
VERTEX
  5
88
  8
TEAM-NET
 10
-192.634457
 20
0.0
 30
713.400962
 70
    64
  0
SEQEND
  5
89
  8
TEAM-NET
  0
LINE
  5
8A
  8
TEAM-AXE
 10
0.0
 20
0.0
 30
319.991657
 11
0.0
 21
0.0
 31
1070.000039
210
-1.0
220
0.0
230
0.0
  0
POLYLINE
  5
8D
  8
TEAM-BODY
 66
     1
 10
0.0
 20
0.0
 30
0.0
210
0.0
220
-1.0
230
0.0
  0
VERTEX
  5
3BF
  8
TEAM-BODY
 10
0.0
 20
370.0
 30
0.0
 42
0.001751
  0
VERTEX
  5
3C0
  8
TEAM-BODY
 10
100.0
 20
370.0
 30
0.0
 42
0.067729
  0
VERTEX
  5
3C1
  8
TEAM-BODY
 10
192.634457
 20
713.400962
 30
0.0
 42
0.32954
  0
SEQEND
  5
3C2
  8
TEAM-BODY
  0
POLYLINE
  5
8E
  8
TEAM-BODY
 66
     1
 10
0.0
 20
0.0
 30
0.0
210
-1.0
220
0.0
230
0.0
  0
VERTEX
  5
3C3
  8
TEAM-BODY
 10
0.0
 20
370.0
 30
0.0
  0
VERTEX
  5
3C4
  8
TEAM-BODY
 10
200.0
 20
370.008383
 30
0.0
 42
0.288797
  0
VERTEX
  5
3C5
  8
TEAM-BODY
 10
390.0
 20
600.000039
 30
0.0
 42
0.158218
  0
SEQEND
  5
3C6
  8
TEAM-BODY
  0
POLYLINE
  5
8F
  8
TEAM-NET
 66
     1
 10
0.0
 20
0.0
 30
0.0
 70
    16
 71
     2
 72
    25
  0
VERTEX
  5
90
  8
TEAM-NET
 10
0.0
 20
0.0
 30
370.0
 70
    64
  0
VERTEX
  5
91
  8
TEAM-NET
 10
0.0
 20
-21.443437
 30
370.000899
 70
    64
  0
VERTEX
  5
92
  8
TEAM-NET
 10
0.0
 20
-42.886874
 30
370.001798
 70
    64
  0
VERTEX
  5
93
  8
TEAM-NET
 10
0.0
 20
-64.33031
 30
370.002696
 70
    64
  0
VERTEX
  5
94
  8
TEAM-NET
 10
0.0
 20
-85.773747
 30
370.003595
 70
    64
  0
VERTEX
  5
95
  8
TEAM-NET
 10
0.0
 20
-107.217184
 30
370.004494
 70
    64
  0
VERTEX
  5
96
  8
TEAM-NET
 10
0.0
 20
-128.660621
 30
370.005393
 70
    64
  0
VERTEX
  5
97
  8
TEAM-NET
 10
0.0
 20
-150.104058
 30
370.006291
 70
    64
  0
VERTEX
  5
98
  8
TEAM-NET
 10
0.0
 20
-171.547494
 30
370.00719
 70
    64
  0
VERTEX
  5
99
  8
TEAM-NET
 10
0.0
 20
-192.990931
 30
370.008089
 70
    64
  0
VERTEX
  5
9A
  8
TEAM-NET
 10
0.0
 20
-213.588012
 30
374.873636
 70
    64
  0
VERTEX
  5
9B
  8
TEAM-NET
 10
0.0
 20
-233.266904
 30
383.378763
 70
    64
  0
VERTEX
  5
9C
  8
TEAM-NET
 10
0.0
 20
-252.236806
 30
393.365691
 70
    64
  0
VERTEX
  5
9D
  8
TEAM-NET
 10
0.0
 20
-270.386343
 30
404.775785
 70
    64
  0
VERTEX
  5
9E
  8
TEAM-NET
 10
0.0
 20
-287.608955
 30
417.542053
 70
    64
  0
VERTEX
  5
9F
  8
TEAM-NET
 10
0.0
 20
-303.803522
 30
431.589541
 70
    64
  0
VERTEX
  5
A0
  8
TEAM-NET
 10
0.0
 20
-318.874963
 30
446.835774
 70
    64
  0
VERTEX
  5
A1
  8
TEAM-NET
 10
0.0
 20
-332.73479
 30
463.191235
 70
    64
  0
VERTEX
  5
A2
  8
TEAM-NET
 10
0.0
 20
-345.301629
 30
480.5599
 70
    64
  0
VERTEX
  5
A3
  8
TEAM-NET
 10
0.0
 20
-356.501696
 30
498.839792
 70
    64
  0
VERTEX
  5
A4
  8
TEAM-NET
 10
0.0
 20
-366.269233
 30
517.923585
 70
    64
  0
VERTEX
  5
A5
  8
TEAM-NET
 10
0.0
 20
-374.546892
 30
537.699234
 70
    64
  0
VERTEX
  5
A6
  8
TEAM-NET
 10
0.0
 20
-381.286074
 30
558.050631
 70
    64
  0
VERTEX
  5
A7
  8
TEAM-NET
 10
0.0
 20
-386.447211
 30
578.858289
 70
    64
  0
VERTEX
  5
A8
  8
TEAM-NET
 10
0.0
 20
-390.0
 30
600.000039
 70
    64
  0
VERTEX
  5
A9
  8
TEAM-NET
 10
0.0
 20
0.0
 30
370.0
 70
    64
  0
VERTEX
  5
AA
  8
TEAM-NET
 10
19.031708
 20
0.0
 30
369.94602
 70
    64
  0
VERTEX
  5
AB
  8
TEAM-NET
 10
38.06347
 20
0.0
 30
369.917416
 70
    64
  0
VERTEX
  5
AC
  8
TEAM-NET
 10
57.095254
 20
0.0
 30
369.914189
 70
    64
  0
VERTEX
  5
AD
  8
TEAM-NET
 10
76.127026
 20
0.0
 30
369.936337
 70
    64
  0
VERTEX
  5
AE
  8
TEAM-NET
 10
95.15875
 20
0.0
 30
369.983862
 70
    64
  0
VERTEX
  5
AF
  8
TEAM-NET
 10
105.439069
 20
0.0
 30
383.106683
 70
    64
  0
VERTEX
  5
B0
  8
TEAM-NET
 10
112.511751
 20
0.0
 30
400.775292
 70
    64
  0
VERTEX
  5
B1
  8
TEAM-NET
 10
119.328742
 20
0.0
 30
418.544119
 70
    64
  0
VERTEX
  5
B2
  8
TEAM-NET
 10
125.888624
 20
0.0
 30
436.409463
 70
    64
  0
VERTEX
  5
B3
  8
TEAM-NET
 10
132.19003
 20
0.0
 30
454.367605
 70
    64
  0
VERTEX
  5
B4
  8
TEAM-NET
 10
138.231648
 20
0.0
 30
472.414805
 70
    64
  0
VERTEX
  5
B5
  8
TEAM-NET
 10
144.01222
 20
0.0
 30
490.547305
 70
    64
  0
VERTEX
  5
B6
  8
TEAM-NET
 10
149.530542
 20
0.0
 30
508.76133
 70
    64
  0
VERTEX
  5
B7
  8
TEAM-NET
 10
154.785465
 20
0.0
 30
527.053087
 70
    64
  0
VERTEX
  5
B8
  8
TEAM-NET
 10
159.775896
 20
0.0
 30
545.418766
 70
    64
  0
VERTEX
  5
B9
  8
TEAM-NET
 10
164.500794
 20
0.0
 30
563.854544
 70
    64
  0
VERTEX
  5
BA
  8
TEAM-NET
 10
168.959176
 20
0.0
 30
582.356582
 70
    64
  0
VERTEX
  5
BB
  8
TEAM-NET
 10
173.150113
 20
0.0
 30
600.921027
 70
    64
  0
VERTEX
  5
BC
  8
TEAM-NET
 10
177.072734
 20
0.0
 30
619.544014
 70
    64
  0
VERTEX
  5
BD
  8
TEAM-NET
 10
180.726221
 20
0.0
 30
638.221664
 70
    64
  0
VERTEX
  5
BE
  8
TEAM-NET
 10
184.109813
 20
0.0
 30
656.950088
 70
    64
  0
VERTEX
  5
BF
  8
TEAM-NET
 10
187.222806
 20
0.0
 30
675.725387
 70
    64
  0
VERTEX
  5
C0
  8
TEAM-NET
 10
190.064551
 20
0.0
 30
694.543651
 70
    64
  0
VERTEX
  5
C1
  8
TEAM-NET
 10
192.634457
 20
0.0
 30
713.400962
 70
    64
  0
SEQEND
  5
C2
  8
TEAM-NET
  0
POLYLINE
  5
C3
  8
TEAM-DET2
 66
     1
 10
0.0
 20
0.0
 30
0.0
 70
     1
 40
10.0
 41
10.0
210
-1.0
220
0.0
230
0.0
  0
VERTEX
  5
3C7
  8
TEAM-DET2
 10
-5.0
 20
0.0
 30
0.0
 42
1.0
  0
VERTEX
  5
3C8
  8
TEAM-DET2
 10
5.0
 20
0.0
 30
0.0
 42
1.0
  0
SEQEND
  5
3C9
  8
TEAM-DET2
  0
POLYLINE
  5
C5
  8
TEAM-DET2
 66
     1
 10
0.0
 20
0.0
 30
0.0
 70
     1
 40
10.0
 41
10.0
210
0.0
220
-1.0
230
0.0
  0
VERTEX
  5
3CA
  8
TEAM-DET2
 10
-5.0
 20
0.0
 30
0.0
 42
1.0
  0
VERTEX
  5
3CB
  8
TEAM-DET2
 10
5.0
 20
0.0
 30
0.0
 42
1.0
  0
SEQEND
  5
3CC
  8
TEAM-DET2
  0
CIRCLE
  5
C6
  8
TEAM-INSP
 10
0.0
 20
0.0
 30
0.0
 40
10.0
  0
CIRCLE
  5
C8
  8
TEAM-KAN
 10
0.0
 20
400.0
 30
0.0
 40
19.999998
210
0.0
220
-1.0
230
0.0
  0
LINE
  5
CA
  8
TEAM-HIDE
 10
0.0
 20
-130.0
 30
350.000039
 11
0.0
 21
-140.0
 31
350.000039
210
-1.0
220
0.0
230
0.0
  0
LINE
  5
CD
  8
TEAM-AXE
 10
-30.138383
 20
0.0
 30
400.0
 11
30.138383
 21
0.0
 31
400.0
210
0.0
220
-1.0
230
0.0
  0
POLYLINE
  5
CE
  8
TEAM-BODY
 66
     1
 10
0.0
 20
0.0
 30
0.0
 70
     4
210
0.0
220
-1.0
230
0.0
 75
     6
  0
VERTEX
  5
CF
  8
TEAM-BODY
 10
-192.634457
 20
713.400962
 30
0.0
 70
    16
  0
VERTEX
  5
D0
  8
TEAM-BODY
 10
-192.634457
 20
713.400962
 30
0.0
 70
     8
  0
VERTEX
  5
D1
  8
TEAM-BODY
 10
-180.037471
 20
827.047358
 30
0.0
 70
     8
  0
VERTEX
  5
D2
  8
TEAM-BODY
 10
-167.330201
 20
913.595325
 30
0.0
 70
     8
  0
VERTEX
  5
D3
  8
TEAM-BODY
 10
-152.927458
 20
976.726719
 30
0.0
 70
     8
  0
VERTEX
  5
D4
  8
TEAM-BODY
 10
-135.244052
 20
1020.123396
 30
0.0
 70
     8
  0
VERTEX
  5
D5
  8
TEAM-BODY
 10
-112.694792
 20
1047.467211
 30
0.0
 70
     8
  0
VERTEX
  5
D6
  8
TEAM-BODY
 10
-83.694491
 20
1062.440019
 30
0.0
 70
     8
  0
VERTEX
  5
D7
  8
TEAM-BODY
 10
-46.657956
 20
1068.723677
 30
0.0
 70
     8
  0
VERTEX
  5
D8
  8
TEAM-BODY
 10
0.0
 20
1070.000039
 30
0.0
 70
     8
  0
VERTEX
  5
D9
  8
TEAM-BODY
 10
-157.780481
 20
1055.862016
 30
0.0
 70
    16
  0
VERTEX
  5
DA
  8
TEAM-BODY
 10
-138.658838
 20
1070.000039
 30
0.0
 70
    16
  0
VERTEX
  5
DB
  8
TEAM-BODY
 10
0.0
 20
1070.000039
 30
0.0
 70
    16
  0
SEQEND
  5
DC
  8
TEAM-BODY
  0
POLYLINE
  5
DD
  8
TEAM-BODY
 66
     1
 10
0.0
 20
0.0
 30
252.372602
 70
     4
210
0.0
220
-0.986777
230
0.162085
 75
     6
  0
VERTEX
  5
DE
  8
TEAM-BODY
 10
-192.634457
 20
686.285458
 30
252.372602
 70
    16
  0
VERTEX
  5
DF
  8
TEAM-BODY
 10
-192.634457
 20
686.285458
 30
252.372602
 70
     8
  0
VERTEX
  5
E0
  8
TEAM-BODY
 10
-180.037471
 20
799.931854
 30
252.372602
 70
     8
  0
VERTEX
  5
E1
  8
TEAM-BODY
 10
-167.330201
 20
886.479821
 30
252.372602
 70
     8
  0
VERTEX
  5
E2
  8
TEAM-BODY
 10
-152.927458
 20
949.611215
 30
252.372602
 70
     8
  0
VERTEX
  5
E3
  8
TEAM-BODY
 10
-135.244052
 20
993.007892
 30
252.372602
 70
     8
  0
VERTEX
  5
E4
  8
TEAM-BODY
 10
-112.694792
 20
1020.351707
 30
252.372602
 70
     8
  0
VERTEX
  5
E5
  8
TEAM-BODY
 10
-83.694491
 20
1035.324515
 30
252.372602
 70
     8
  0
VERTEX
  5
E6
  8
TEAM-BODY
 10
-46.657956
 20
1041.608173
 30
252.372602
 70
     8
  0
VERTEX
  5
E7
  8
TEAM-BODY
 10
0.0
 20
1042.884535
 30
252.372602
 70
     8
  0
VERTEX
  5
E8
  8
TEAM-BODY
 10
-157.780481
 20
1028.746512
 30
252.372602
 70
    16
  0
VERTEX
  5
E9
  8
TEAM-BODY
 10
-138.658838
 20
1042.884535
 30
252.372602
 70
    16
  0
VERTEX
  5
EA
  8
TEAM-BODY
 10
0.0
 20
1042.884535
 30
252.372602
 70
    16
  0
SEQEND
  5
EB
  8
TEAM-BODY
  0
POLYLINE
  5
EC
  8
TEAM-BODY
 66
     1
 10
0.0
 20
0.0
 30
252.372602
 70
     4
210
0.0
220
-0.986777
230
0.162085
 75
     6
  0
VERTEX
  5
ED
  8
TEAM-BODY
 10
0.0
 20
1022.884535
 30
252.372602
 70
    16
  0
VERTEX
  5
EE
  8
TEAM-BODY
 10
0.0
 20
1022.884535
 30
252.372602
 70
     8
  0
VERTEX
  5
EF
  8
TEAM-BODY
 10
-41.725542
 20
1021.624779
 30
252.372602
 70
     8
  0
VERTEX
  5
F0
  8
TEAM-BODY
 10
-74.993753
 20
1015.520214
 30
252.372602
 70
     8
  0
VERTEX
  5
F1
  8
TEAM-BODY
 10
-101.145616
 20
1001.082891
 30
252.372602
 70
     8
  0
VERTEX
  5
F2
  8
TEAM-BODY
 10
-121.522112
 20
974.824865
 30
252.372602
 70
     8
  0
VERTEX
  5
F3
  8
TEAM-BODY
 10
-137.464223
 20
933.258189
 30
252.372602
 70
     8
  0
VERTEX
  5
F4
  8
TEAM-BODY
 10
-150.312932
 20
872.894915
 30
252.372602
 70
     8
  0
VERTEX
  5
F5
  8
TEAM-BODY
 10
-161.409221
 20
790.247098
 30
252.372602
 70
     8
  0
VERTEX
  5
F6
  8
TEAM-BODY
 10
-172.094071
 20
681.826789
 30
252.372602
 70
     8
  0
VERTEX
  5
F7
  8
TEAM-BODY
 10
-123.736537
 20
1022.884535
 30
252.372602
 70
    16
  0
VERTEX
  5
F8
  8
TEAM-BODY
 10
-142.957737
 20
1008.411331
 30
252.372602
 70
    16
  0
VERTEX
  5
F9
  8
TEAM-BODY
 10
-172.094071
 20
681.826789
 30
252.372602
 70
    16
  0
SEQEND
  5
FA
  8
TEAM-BODY
  0
POLYLINE
  5
FB
  8
TEAM-NET
 66
     1
 10
0.0
 20
0.0
 30
0.0
 70
    16
 71
     2
 72
    25
  0
VERTEX
  5
FC
  8
TEAM-NET
 10
-192.634457
 20
-137.799193
 30
718.116315
 70
    64
  0
VERTEX
  5
FD
  8
TEAM-NET
 10
-190.496473
 20
-134.672861
 30
737.149546
 70
    64
  0
VERTEX
  5
FE
  8
TEAM-NET
 10
-188.358488
 20
-131.546529
 30
756.182776
 70
    64
  0
VERTEX
  5
FF
  8
TEAM-NET
 10
-186.220504
 20
-128.420197
 30
775.216007
 70
    64
  0
VERTEX
  5
100
  8
TEAM-NET
 10
-184.08252
 20
-125.293865
 30
794.249237
 70
    64
  0
VERTEX
  5
101
  8
TEAM-NET
 10
-181.944535
 20
-122.167533
 30
813.282468
 70
    64
  0
VERTEX
  5
102
  8
TEAM-NET
 10
-179.732986
 20
-119.042737
 30
832.306349
 70
    64
  0
VERTEX
  5
103
  8
TEAM-NET
 10
-176.913893
 20
-115.930623
 30
851.253018
 70
    64
  0
VERTEX
  5
104
  8
TEAM-NET
 10
-174.094801
 20
-112.818509
 30
870.199686
 70
    64
  0
VERTEX
  5
105
  8
TEAM-NET
 10
-171.275709
 20
-109.706395
 30
889.146355
 70
    64
  0
VERTEX
  5
106
  8
TEAM-NET
 10
-168.456617
 20
-106.594282
 30
908.093024
 70
    64
  0
VERTEX
  5
107
  8
TEAM-NET
 10
-164.738457
 20
-103.509445
 30
926.873629
 70
    64
  0
VERTEX
  5
108
  8
TEAM-NET
 10
-160.422
 20
-100.44276
 30
945.543723
 70
    64
  0
VERTEX
  5
109
  8
TEAM-NET
 10
-156.105544
 20
-97.376076
 30
964.213818
 70
    64
  0
VERTEX
  5
10A
  8
TEAM-NET
 10
-150.996139
 20
-94.349941
 30
982.637042
 70
    64
  0
VERTEX
  5
10B
  8
TEAM-NET
 10
-143.672996
 20
-91.437014
 30
1000.371055
 70
    64
  0
VERTEX
  5
10C
  8
TEAM-NET
 10
-136.349853
 20
-88.524087
 30
1018.105068
 70
    64
  0
VERTEX
  5
10D
  8
TEAM-NET
 10
-124.761587
 20
-86.023926
 30
1033.326145
 70
    64
  0
VERTEX
  5
10E
  8
TEAM-NET
 10
-112.303664
 20
-83.619492
 30
1047.964434
 70
    64
  0
VERTEX
  5
10F
  8
TEAM-NET
 10
-95.059916
 20
-82.176466
 30
1056.749628
 70
    64
  0
VERTEX
  5
110
  8
TEAM-NET
 10
-77.172132
 20
-81.046001
 30
1063.631944
 70
    64
  0
VERTEX
  5
111
  8
TEAM-NET
 10
-58.039138
 20
-80.519855
 30
1066.835144
 70
    64
  0
VERTEX
  5
112
  8
TEAM-NET
 10
-38.798308
 20
-80.172029
 30
1068.952718
 70
    64
  0
VERTEX
  5
113
  8
TEAM-NET
 10
-19.399154
 20
-80.086015
 30
1069.476379
 70
    64
  0
VERTEX
  5
114
  8
TEAM-NET
 10
0.0
 20
-80.0
 30
1070.000039
 70
    64
  0
VERTEX
  5
115
  8
TEAM-NET
 10
-192.634457
 20
0.0
 30
713.400962
 70
    64
  0
VERTEX
  5
116
  8
TEAM-NET
 10
-190.496473
 20
0.0
 30
732.689244
 70
    64
  0
VERTEX
  5
117
  8
TEAM-NET
 10
-188.358488
 20
0.0
 30
751.977526
 70
    64
  0
VERTEX
  5
118
  8
TEAM-NET
 10
-186.220504
 20
0.0
 30
771.265807
 70
    64
  0
VERTEX
  5
119
  8
TEAM-NET
 10
-184.08252
 20
0.0
 30
790.554089
 70
    64
  0
VERTEX
  5
11A
  8
TEAM-NET
 10
-181.944535
 20
0.0
 30
809.842371
 70
    64
  0
VERTEX
  5
11B
  8
TEAM-NET
 10
-179.732986
 20
0.0
 30
829.121178
 70
    64
  0
VERTEX
  5
11C
  8
TEAM-NET
 10
-176.913893
 20
0.0
 30
848.321738
 70
    64
  0
VERTEX
  5
11D
  8
TEAM-NET
 10
-174.094801
 20
0.0
 30
867.522298
 70
    64
  0
VERTEX
  5
11E
  8
TEAM-NET
 10
-171.275709
 20
0.0
 30
886.722859
 70
    64
  0
VERTEX
  5
11F
  8
TEAM-NET
 10
-168.456617
 20
0.0
 30
905.923419
 70
    64
  0
VERTEX
  5
120
  8
TEAM-NET
 10
-164.738457
 20
0.0
 30
924.955689
 70
    64
  0
VERTEX
  5
121
  8
TEAM-NET
 10
-160.422
 20
0.0
 30
943.875969
 70
    64
  0
VERTEX
  5
122
  8
TEAM-NET
 10
-156.105544
 20
0.0
 30
962.796249
 70
    64
  0
VERTEX
  5
123
  8
TEAM-NET
 10
-150.996139
 20
0.0
 30
981.46635
 70
    64
  0
VERTEX
  5
124
  8
TEAM-NET
 10
-143.672996
 20
0.0
 30
999.438005
 70
    64
  0
VERTEX
  5
125
  8
TEAM-NET
 10
-136.349853
 20
0.0
 30
1017.409659
 70
    64
  0
VERTEX
  5
126
  8
TEAM-NET
 10
-124.761587
 20
0.0
 30
1032.834703
 70
    64
  0
VERTEX
  5
127
  8
TEAM-NET
 10
-112.303664
 20
0.0
 30
1047.66915
 70
    64
  0
VERTEX
  5
128
  8
TEAM-NET
 10
-95.059916
 20
0.0
 30
1056.572069
 70
    64
  0
VERTEX
  5
129
  8
TEAM-NET
 10
-77.172132
 20
0.0
 30
1063.54661
 70
    64
  0
VERTEX
  5
12A
  8
TEAM-NET
 10
-58.039138
 20
0.0
 30
1066.792734
 70
    64
  0
VERTEX
  5
12B
  8
TEAM-NET
 10
-38.798308
 20
0.0
 30
1068.938683
 70
    64
  0
VERTEX
  5
12C
  8
TEAM-NET
 10
-19.399154
 20
0.0
 30
1069.469361
 70
    64
  0
VERTEX
  5
12D
  8
TEAM-NET
 10
0.0
 20
0.0
 30
1070.000039
 70
    64
  0
SEQEND
  5
12E
  8
TEAM-NET
  0
POLYLINE
  5
12F
  8
TEAM-NET
 66
     1
 10
0.0
 20
0.0
 30
0.0
 70
    16
 71
     2
 72
    25
  0
VERTEX
  5
130
  8
TEAM-NET
 10
-172.094071
 20
-138.521874
 30
713.716604
 70
    64
  0
VERTEX
  5
131
  8
TEAM-NET
 10
-170.307277
 20
-135.583155
 30
731.607645
 70
    64
  0
VERTEX
  5
132
  8
TEAM-NET
 10
-168.520483
 20
-132.644435
 30
749.498686
 70
    64
  0
VERTEX
  5
133
  8
TEAM-NET
 10
-166.73369
 20
-129.705715
 30
767.389726
 70
    64
  0
VERTEX
  5
134
  8
TEAM-NET
 10
-164.946896
 20
-126.766995
 30
785.280767
 70
    64
  0
VERTEX
  5
135
  8
TEAM-NET
 10
-163.160102
 20
-123.828275
 30
803.171808
 70
    64
  0
VERTEX
  5
136
  8
TEAM-NET
 10
-161.360495
 20
-120.889796
 30
821.061378
 70
    64
  0
VERTEX
  5
137
  8
TEAM-NET
 10
-158.936217
 20
-117.9631
 30
838.879217
 70
    64
  0
VERTEX
  5
138
  8
TEAM-NET
 10
-156.511939
 20
-115.036404
 30
856.697055
 70
    64
  0
VERTEX
  5
139
  8
TEAM-NET
 10
-154.087661
 20
-112.109708
 30
874.514894
 70
    64
  0
VERTEX
  5
13A
  8
TEAM-NET
 10
-151.663383
 20
-109.183012
 30
892.332733
 70
    64
  0
VERTEX
  5
13B
  8
TEAM-NET
 10
-148.632845
 20
-106.273345
 30
910.046897
 70
    64
  0
VERTEX
  5
13C
  8
TEAM-NET
 10
-144.83987
 20
-103.385095
 30
927.630679
 70
    64
  0
VERTEX
  5
13D
  8
TEAM-NET
 10
-141.046894
 20
-100.496844
 30
945.214461
 70
    64
  0
VERTEX
  5
13E
  8
TEAM-NET
 10
-137.102493
 20
-97.615863
 30
962.753983
 70
    64
  0
VERTEX
  5
13F
  8
TEAM-NET
 10
-130.578461
 20
-94.858734
 30
979.539491
 70
    64
  0
VERTEX
  5
140
  8
TEAM-NET
 10
-124.054429
 20
-92.101605
 30
996.325
 70
    64
  0
VERTEX
  5
141
  8
TEAM-NET
 10
-114.688205
 20
-89.604028
 30
1011.530347
 70
    64
  0
VERTEX
  5
142
  8
TEAM-NET
 10
-103.518914
 20
-87.271108
 30
1025.733251
 70
    64
  0
VERTEX
  5
143
  8
TEAM-NET
 10
-88.585079
 20
-85.651484
 30
1035.593587
 70
    64
  0
VERTEX
  5
144
  8
TEAM-NET
 10
-72.344253
 20
-84.356532
 30
1043.477302
 70
    64
  0
VERTEX
  5
145
  8
TEAM-NET
 10
-54.424816
 20
-83.823576
 30
1046.721958
 70
    64
  0
VERTEX
  5
146
  8
TEAM-NET
 10
-36.420641
 20
-83.419918
 30
1049.179449
 70
    64
  0
VERTEX
  5
147
  8
TEAM-NET
 10
-18.210321
 20
-83.330804
 30
1049.721975
 70
    64
  0
VERTEX
  5
148
  8
TEAM-NET
 10
0.0
 20
-83.241691
 30
1050.264502
 70
    64
  0
VERTEX
  5
149
  8
TEAM-NET
 10
-192.634457
 20
-137.799193
 30
718.116315
 70
    64
  0
VERTEX
  5
14A
  8
TEAM-NET
 10
-190.496473
 20
-134.672861
 30
737.149546
 70
    64
  0
VERTEX
  5
14B
  8
TEAM-NET
 10
-188.358488
 20
-131.546529
 30
756.182776
 70
    64
  0
VERTEX
  5
14C
  8
TEAM-NET
 10
-186.220504
 20
-128.420197
 30
775.216007
 70
    64
  0
VERTEX
  5
14D
  8
TEAM-NET
 10
-184.08252
 20
-125.293865
 30
794.249237
 70
    64
  0
VERTEX
  5
14E
  8
TEAM-NET
 10
-181.944535
 20
-122.167533
 30
813.282468
 70
    64
  0
VERTEX
  5
14F
  8
TEAM-NET
 10
-179.732986
 20
-119.042737
 30
832.306349
 70
    64
  0
VERTEX
  5
150
  8
TEAM-NET
 10
-176.913893
 20
-115.930623
 30
851.253018
 70
    64
  0
VERTEX
  5
151
  8
TEAM-NET
 10
-174.094801
 20
-112.818509
 30
870.199686
 70
    64
  0
VERTEX
  5
152
  8
TEAM-NET
 10
-171.275709
 20
-109.706395
 30
889.146355
 70
    64
  0
VERTEX
  5
153
  8
TEAM-NET
 10
-168.456617
 20
-106.594282
 30
908.093024
 70
    64
  0
VERTEX
  5
154
  8
TEAM-NET
 10
-164.738457
 20
-103.509445
 30
926.873629
 70
    64
  0
VERTEX
  5
155
  8
TEAM-NET
 10
-160.422
 20
-100.44276
 30
945.543723
 70
    64
  0
VERTEX
  5
156
  8
TEAM-NET
 10
-156.105544
 20
-97.376076
 30
964.213818
 70
    64
  0
VERTEX
  5
157
  8
TEAM-NET
 10
-150.996139
 20
-94.349941
 30
982.637042
 70
    64
  0
VERTEX
  5
158
  8
TEAM-NET
 10
-143.672996
 20
-91.437014
 30
1000.371055
 70
    64
  0
VERTEX
  5
159
  8
TEAM-NET
 10
-136.349853
 20
-88.524087
 30
1018.105068
 70
    64
  0
VERTEX
  5
15A
  8
TEAM-NET
 10
-124.761587
 20
-86.023926
 30
1033.326145
 70
    64
  0
VERTEX
  5
15B
  8
TEAM-NET
 10
-112.303664
 20
-83.619492
 30
1047.964434
 70
    64
  0
VERTEX
  5
15C
  8
TEAM-NET
 10
-95.059916
 20
-82.176466
 30
1056.749628
 70
    64
  0
VERTEX
  5
15D
  8
TEAM-NET
 10
-77.172132
 20
-81.046001
 30
1063.631944
 70
    64
  0
VERTEX
  5
15E
  8
TEAM-NET
 10
-58.039138
 20
-80.519855
 30
1066.835144
 70
    64
  0
VERTEX
  5
15F
  8
TEAM-NET
 10
-38.798308
 20
-80.172029
 30
1068.952718
 70
    64
  0
VERTEX
  5
160
  8
TEAM-NET
 10
-19.399154
 20
-80.086015
 30
1069.476379
 70
    64
  0
VERTEX
  5
161
  8
TEAM-NET
 10
0.0
 20
-80.0
 30
1070.000039
 70
    64
  0
SEQEND
  5
162
  8
TEAM-NET
  0
POLYLINE
  5
163
  8
TEAM-NET
 66
     1
 10
0.0
 20
0.0
 30
0.0
 70
    16
 71
     2
 72
    25
  0
VERTEX
  5
164
  8
TEAM-NET
 10
-192.634457
 20
0.0
 30
713.400962
 70
    64
  0
VERTEX
  5
165
  8
TEAM-NET
 10
-190.496473
 20
0.0
 30
732.689244
 70
    64
  0
VERTEX
  5
166
  8
TEAM-NET
 10
-188.358488
 20
0.0
 30
751.977526
 70
    64
  0
VERTEX
  5
167
  8
TEAM-NET
 10
-186.220504
 20
0.0
 30
771.265807
 70
    64
  0
VERTEX
  5
168
  8
TEAM-NET
 10
-184.08252
 20
0.0
 30
790.554089
 70
    64
  0
VERTEX
  5
169
  8
TEAM-NET
 10
-181.944535
 20
0.0
 30
809.842371
 70
    64
  0
VERTEX
  5
16A
  8
TEAM-NET
 10
-179.732986
 20
0.0
 30
829.121178
 70
    64
  0
VERTEX
  5
16B
  8
TEAM-NET
 10
-176.913893
 20
0.0
 30
848.321738
 70
    64
  0
VERTEX
  5
16C
  8
TEAM-NET
 10
-174.094801
 20
0.0
 30
867.522298
 70
    64
  0
VERTEX
  5
16D
  8
TEAM-NET
 10
-171.275709
 20
0.0
 30
886.722859
 70
    64
  0
VERTEX
  5
16E
  8
TEAM-NET
 10
-168.456617
 20
0.0
 30
905.923419
 70
    64
  0
VERTEX
  5
16F
  8
TEAM-NET
 10
-164.738457
 20
0.0
 30
924.955689
 70
    64
  0
VERTEX
  5
170
  8
TEAM-NET
 10
-160.422
 20
0.0
 30
943.875969
 70
    64
  0
VERTEX
  5
171
  8
TEAM-NET
 10
-156.105544
 20
0.0
 30
962.796249
 70
    64
  0
VERTEX
  5
172
  8
TEAM-NET
 10
-150.996139
 20
0.0
 30
981.46635
 70
    64
  0
VERTEX
  5
173
  8
TEAM-NET
 10
-143.672996
 20
0.0
 30
999.438005
 70
    64
  0
VERTEX
  5
174
  8
TEAM-NET
 10
-136.349853
 20
0.0
 30
1017.409659
 70
    64
  0
VERTEX
  5
175
  8
TEAM-NET
 10
-124.761587
 20
0.0
 30
1032.834703
 70
    64
  0
VERTEX
  5
176
  8
TEAM-NET
 10
-112.303664
 20
0.0
 30
1047.66915
 70
    64
  0
VERTEX
  5
177
  8
TEAM-NET
 10
-95.059916
 20
0.0
 30
1056.572069
 70
    64
  0
VERTEX
  5
178
  8
TEAM-NET
 10
-77.172132
 20
0.0
 30
1063.54661
 70
    64
  0
VERTEX
  5
179
  8
TEAM-NET
 10
-58.039138
 20
0.0
 30
1066.792734
 70
    64
  0
VERTEX
  5
17A
  8
TEAM-NET
 10
-38.798308
 20
0.0
 30
1068.938683
 70
    64
  0
VERTEX
  5
17B
  8
TEAM-NET
 10
-19.399154
 20
0.0
 30
1069.469361
 70
    64
  0
VERTEX
  5
17C
  8
TEAM-NET
 10
0.0
 20
0.0
 30
1070.000039
 70
    64
  0
VERTEX
  5
17D
  8
TEAM-NET
 10
192.634457
 20
0.0
 30
713.400962
 70
    64
  0
VERTEX
  5
17E
  8
TEAM-NET
 10
190.496473
 20
0.0
 30
732.689244
 70
    64
  0
VERTEX
  5
17F
  8
TEAM-NET
 10
188.358488
 20
0.0
 30
751.977526
 70
    64
  0
VERTEX
  5
180
  8
TEAM-NET
 10
186.220504
 20
0.0
 30
771.265807
 70
    64
  0
VERTEX
  5
181
  8
TEAM-NET
 10
184.08252
 20
0.0
 30
790.554089
 70
    64
  0
VERTEX
  5
182
  8
TEAM-NET
 10
181.944535
 20
0.0
 30
809.842371
 70
    64
  0
VERTEX
  5
183
  8
TEAM-NET
 10
179.732986
 20
0.0
 30
829.121178
 70
    64
  0
VERTEX
  5
184
  8
TEAM-NET
 10
176.913893
 20
0.0
 30
848.321738
 70
    64
  0
VERTEX
  5
185
  8
TEAM-NET
 10
174.094801
 20
0.0
 30
867.522298
 70
    64
  0
VERTEX
  5
186
  8
TEAM-NET
 10
171.275709
 20
0.0
 30
886.722859
 70
    64
  0
VERTEX
  5
187
  8
TEAM-NET
 10
168.456617
 20
0.0
 30
905.923419
 70
    64
  0
VERTEX
  5
188
  8
TEAM-NET
 10
164.738457
 20
0.0
 30
924.955689
 70
    64
  0
VERTEX
  5
189
  8
TEAM-NET
 10
160.422
 20
0.0
 30
943.875969
 70
    64
  0
VERTEX
  5
18A
  8
TEAM-NET
 10
156.105544
 20
0.0
 30
962.796249
 70
    64
  0
VERTEX
  5
18B
  8
TEAM-NET
 10
150.996139
 20
0.0
 30
981.46635
 70
    64
  0
VERTEX
  5
18C
  8
TEAM-NET
 10
143.672996
 20
0.0
 30
999.438005
 70
    64
  0
VERTEX
  5
18D
  8
TEAM-NET
 10
136.349853
 20
0.0
 30
1017.409659
 70
    64
  0
VERTEX
  5
18E
  8
TEAM-NET
 10
124.761587
 20
0.0
 30
1032.834703
 70
    64
  0
VERTEX
  5
18F
  8
TEAM-NET
 10
112.303664
 20
0.0
 30
1047.66915
 70
    64
  0
VERTEX
  5
190
  8
TEAM-NET
 10
95.059916
 20
0.0
 30
1056.572069
 70
    64
  0
VERTEX
  5
191
  8
TEAM-NET
 10
77.172132
 20
0.0
 30
1063.54661
 70
    64
  0
VERTEX
  5
192
  8
TEAM-NET
 10
58.039138
 20
0.0
 30
1066.792734
 70
    64
  0
VERTEX
  5
193
  8
TEAM-NET
 10
38.798308
 20
0.0
 30
1068.938683
 70
    64
  0
VERTEX
  5
194
  8
TEAM-NET
 10
19.399154
 20
0.0
 30
1069.469361
 70
    64
  0
VERTEX
  5
195
  8
TEAM-NET
 10
0.0
 20
0.0
 30
1070.000039
 70
    64
  0
SEQEND
  5
196
  8
TEAM-NET
  0
POLYLINE
  5
197
  8
TEAM-BODY
 66
     1
 10
0.0
 20
0.0
 30
0.0
 70
     4
210
0.0
220
-1.0
230
0.0
 75
     6
  0
VERTEX
  5
198
  8
TEAM-BODY
 10
192.634457
 20
713.400962
 30
0.0
 70
    16
  0
VERTEX
  5
199
  8
TEAM-BODY
 10
192.634457
 20
713.400962
 30
0.0
 70
     8
  0
VERTEX
  5
19A
  8
TEAM-BODY
 10
180.037471
 20
827.047358
 30
0.0
 70
     8
  0
VERTEX
  5
19B
  8
TEAM-BODY
 10
167.330201
 20
913.595325
 30
0.0
 70
     8
  0
VERTEX
  5
19C
  8
TEAM-BODY
 10
152.927458
 20
976.726719
 30
0.0
 70
     8
  0
VERTEX
  5
19D
  8
TEAM-BODY
 10
135.244052
 20
1020.123396
 30
0.0
 70
     8
  0
VERTEX
  5
19E
  8
TEAM-BODY
 10
112.694792
 20
1047.467211
 30
0.0
 70
     8
  0
VERTEX
  5
19F
  8
TEAM-BODY
 10
83.694491
 20
1062.440019
 30
0.0
 70
     8
  0
VERTEX
  5
1A0
  8
TEAM-BODY
 10
46.657956
 20
1068.723677
 30
0.0
 70
     8
  0
VERTEX
  5
1A1
  8
TEAM-BODY
 10
0.0
 20
1070.000039
 30
0.0
 70
     8
  0
VERTEX
  5
1A2
  8
TEAM-BODY
 10
157.780481
 20
1055.862016
 30
0.0
 70
    16
  0
VERTEX
  5
1A3
  8
TEAM-BODY
 10
138.658838
 20
1070.000039
 30
0.0
 70
    16
  0
VERTEX
  5
1A4
  8
TEAM-BODY
 10
0.0
 20
1070.000039
 30
0.0
 70
    16
  0
SEQEND
  5
1A5
  8
TEAM-BODY
  0
POLYLINE
  5
1A6
  8
TEAM-BODY
 66
     1
 10
0.0
 20
0.0
 30
252.372602
 70
     4
210
0.0
220
-0.986777
230
0.162085
 75
     6
  0
VERTEX
  5
1A7
  8
TEAM-BODY
 10
192.634457
 20
686.285458
 30
252.372602
 70
    16
  0
VERTEX
  5
1A8
  8
TEAM-BODY
 10
192.634457
 20
686.285458
 30
252.372602
 70
     8
  0
VERTEX
  5
1A9
  8
TEAM-BODY
 10
180.037471
 20
799.931854
 30
252.372602
 70
     8
  0
VERTEX
  5
1AA
  8
TEAM-BODY
 10
167.330201
 20
886.479821
 30
252.372602
 70
     8
  0
VERTEX
  5
1AB
  8
TEAM-BODY
 10
152.927458
 20
949.611215
 30
252.372602
 70
     8
  0
VERTEX
  5
1AC
  8
TEAM-BODY
 10
135.244052
 20
993.007892
 30
252.372602
 70
     8
  0
VERTEX
  5
1AD
  8
TEAM-BODY
 10
112.694792
 20
1020.351707
 30
252.372602
 70
     8
  0
VERTEX
  5
1AE
  8
TEAM-BODY
 10
83.694491
 20
1035.324515
 30
252.372602
 70
     8
  0
VERTEX
  5
1AF
  8
TEAM-BODY
 10
46.657956
 20
1041.608173
 30
252.372602
 70
     8
  0
VERTEX
  5
1B0
  8
TEAM-BODY
 10
0.0
 20
1042.884535
 30
252.372602
 70
     8
  0
VERTEX
  5
1B1
  8
TEAM-BODY
 10
157.780481
 20
1028.746512
 30
252.372602
 70
    16
  0
VERTEX
  5
1B2
  8
TEAM-BODY
 10
138.658838
 20
1042.884535
 30
252.372602
 70
    16
  0
VERTEX
  5
1B3
  8
TEAM-BODY
 10
0.0
 20
1042.884535
 30
252.372602
 70
    16
  0
SEQEND
  5
1B4
  8
TEAM-BODY
  0
POLYLINE
  5
1B5
  8
TEAM-BODY
 66
     1
 10
0.0
 20
0.0
 30
252.372602
 70
     4
210
0.0
220
-0.986777
230
0.162085
 75
     6
  0
VERTEX
  5
1B6
  8
TEAM-BODY
 10
172.094071
 20
681.826789
 30
252.372602
 70
    16
  0
VERTEX
  5
1B7
  8
TEAM-BODY
 10
172.094071
 20
681.826789
 30
252.372602
 70
     8
  0
VERTEX
  5
1B8
  8
TEAM-BODY
 10
161.409221
 20
790.247098
 30
252.372602
 70
     8
  0
VERTEX
  5
1B9
  8
TEAM-BODY
 10
150.312932
 20
872.894915
 30
252.372602
 70
     8
  0
VERTEX
  5
1BA
  8
TEAM-BODY
 10
137.464223
 20
933.258189
 30
252.372602
 70
     8
  0
VERTEX
  5
1BB
  8
TEAM-BODY
 10
121.522112
 20
974.824865
 30
252.372602
 70
     8
  0
VERTEX
  5
1BC
  8
TEAM-BODY
 10
101.145616
 20
1001.082891
 30
252.372602
 70
     8
  0
VERTEX
  5
1BD
  8
TEAM-BODY
 10
74.993753
 20
1015.520214
 30
252.372602
 70
     8
  0
VERTEX
  5
1BE
  8
TEAM-BODY
 10
41.725542
 20
1021.624779
 30
252.372602
 70
     8
  0
VERTEX
  5
1BF
  8
TEAM-BODY
 10
0.0
 20
1022.884535
 30
252.372602
 70
     8
  0
VERTEX
  5
1C0
  8
TEAM-BODY
 10
142.957737
 20
1008.411331
 30
252.372602
 70
    16
  0
VERTEX
  5
1C1
  8
TEAM-BODY
 10
123.736537
 20
1022.884535
 30
252.372602
 70
    16
  0
VERTEX
  5
1C2
  8
TEAM-BODY
 10
0.0
 20
1022.884535
 30
252.372602
 70
    16
  0
SEQEND
  5
1C3
  8
TEAM-BODY
  0
POLYLINE
  5
1C4
  8
TEAM-NET
 66
     1
 10
0.0
 20
0.0
 30
0.0
 70
    16
 71
     2
 72
    25
  0
VERTEX
  5
1C5
  8
TEAM-NET
 10
192.634457
 20
-137.799193
 30
718.116315
 70
    64
  0
VERTEX
  5
1C6
  8
TEAM-NET
 10
190.496473
 20
-134.672861
 30
737.149546
 70
    64
  0
VERTEX
  5
1C7
  8
TEAM-NET
 10
188.358488
 20
-131.546529
 30
756.182776
 70
    64
  0
VERTEX
  5
1C8
  8
TEAM-NET
 10
186.220504
 20
-128.420197
 30
775.216007
 70
    64
  0
VERTEX
  5
1C9
  8
TEAM-NET
 10
184.08252
 20
-125.293865
 30
794.249237
 70
    64
  0
VERTEX
  5
1CA
  8
TEAM-NET
 10
181.944535
 20
-122.167533
 30
813.282468
 70
    64
  0
VERTEX
  5
1CB
  8
TEAM-NET
 10
179.732986
 20
-119.042737
 30
832.306349
 70
    64
  0
VERTEX
  5
1CC
  8
TEAM-NET
 10
176.913893
 20
-115.930623
 30
851.253018
 70
    64
  0
VERTEX
  5
1CD
  8
TEAM-NET
 10
174.094801
 20
-112.818509
 30
870.199686
 70
    64
  0
VERTEX
  5
1CE
  8
TEAM-NET
 10
171.275709
 20
-109.706395
 30
889.146355
 70
    64
  0
VERTEX
  5
1CF
  8
TEAM-NET
 10
168.456617
 20
-106.594282
 30
908.093024
 70
    64
  0
VERTEX
  5
1D0
  8
TEAM-NET
 10
164.738457
 20
-103.509445
 30
926.873629
 70
    64
  0
VERTEX
  5
1D1
  8
TEAM-NET
 10
160.422
 20
-100.44276
 30
945.543723
 70
    64
  0
VERTEX
  5
1D2
  8
TEAM-NET
 10
156.105544
 20
-97.376076
 30
964.213818
 70
    64
  0
VERTEX
  5
1D3
  8
TEAM-NET
 10
150.996139
 20
-94.349941
 30
982.637042
 70
    64
  0
VERTEX
  5
1D4
  8
TEAM-NET
 10
143.672996
 20
-91.437014
 30
1000.371055
 70
    64
  0
VERTEX
  5
1D5
  8
TEAM-NET
 10
136.349853
 20
-88.524087
 30
1018.105068
 70
    64
  0
VERTEX
  5
1D6
  8
TEAM-NET
 10
124.761587
 20
-86.023926
 30
1033.326145
 70
    64
  0
VERTEX
  5
1D7
  8
TEAM-NET
 10
112.303664
 20
-83.619492
 30
1047.964434
 70
    64
  0
VERTEX
  5
1D8
  8
TEAM-NET
 10
95.059916
 20
-82.176466
 30
1056.749628
 70
    64
  0
VERTEX
  5
1D9
  8
TEAM-NET
 10
77.172132
 20
-81.046001
 30
1063.631944
 70
    64
  0
VERTEX
  5
1DA
  8
TEAM-NET
 10
58.039138
 20
-80.519855
 30
1066.835144
 70
    64
  0
VERTEX
  5
1DB
  8
TEAM-NET
 10
38.798308
 20
-80.172029
 30
1068.952718
 70
    64
  0
VERTEX
  5
1DC
  8
TEAM-NET
 10
19.399154
 20
-80.086015
 30
1069.476379
 70
    64
  0
VERTEX
  5
1DD
  8
TEAM-NET
 10
0.0
 20
-80.0
 30
1070.000039
 70
    64
  0
VERTEX
  5
1DE
  8
TEAM-NET
 10
192.634457
 20
0.0
 30
713.400962
 70
    64
  0
VERTEX
  5
1DF
  8
TEAM-NET
 10
190.496473
 20
0.0
 30
732.689244
 70
    64
  0
VERTEX
  5
1E0
  8
TEAM-NET
 10
188.358488
 20
0.0
 30
751.977526
 70
    64
  0
VERTEX
  5
1E1
  8
TEAM-NET
 10
186.220504
 20
0.0
 30
771.265807
 70
    64
  0
VERTEX
  5
1E2
  8
TEAM-NET
 10
184.08252
 20
0.0
 30
790.554089
 70
    64
  0
VERTEX
  5
1E3
  8
TEAM-NET
 10
181.944535
 20
0.0
 30
809.842371
 70
    64
  0
VERTEX
  5
1E4
  8
TEAM-NET
 10
179.732986
 20
0.0
 30
829.121178
 70
    64
  0
VERTEX
  5
1E5
  8
TEAM-NET
 10
176.913893
 20
0.0
 30
848.321738
 70
    64
  0
VERTEX
  5
1E6
  8
TEAM-NET
 10
174.094801
 20
0.0
 30
867.522298
 70
    64
  0
VERTEX
  5
1E7
  8
TEAM-NET
 10
171.275709
 20
0.0
 30
886.722859
 70
    64
  0
VERTEX
  5
1E8
  8
TEAM-NET
 10
168.456617
 20
0.0
 30
905.923419
 70
    64
  0
VERTEX
  5
1E9
  8
TEAM-NET
 10
164.738457
 20
0.0
 30
924.955689
 70
    64
  0
VERTEX
  5
1EA
  8
TEAM-NET
 10
160.422
 20
0.0
 30
943.875969
 70
    64
  0
VERTEX
  5
1EB
  8
TEAM-NET
 10
156.105544
 20
0.0
 30
962.796249
 70
    64
  0
VERTEX
  5
1EC
  8
TEAM-NET
 10
150.996139
 20
0.0
 30
981.46635
 70
    64
  0
VERTEX
  5
1ED
  8
TEAM-NET
 10
143.672996
 20
0.0
 30
999.438005
 70
    64
  0
VERTEX
  5
1EE
  8
TEAM-NET
 10
136.349853
 20
0.0
 30
1017.409659
 70
    64
  0
VERTEX
  5
1EF
  8
TEAM-NET
 10
124.761587
 20
0.0
 30
1032.834703
 70
    64
  0
VERTEX
  5
1F0
  8
TEAM-NET
 10
112.303664
 20
0.0
 30
1047.66915
 70
    64
  0
VERTEX
  5
1F1
  8
TEAM-NET
 10
95.059916
 20
0.0
 30
1056.572069
 70
    64
  0
VERTEX
  5
1F2
  8
TEAM-NET
 10
77.172132
 20
0.0
 30
1063.54661
 70
    64
  0
VERTEX
  5
1F3
  8
TEAM-NET
 10
58.039138
 20
0.0
 30
1066.792734
 70
    64
  0
VERTEX
  5
1F4
  8
TEAM-NET
 10
38.798308
 20
0.0
 30
1068.938683
 70
    64
  0
VERTEX
  5
1F5
  8
TEAM-NET
 10
19.399154
 20
0.0
 30
1069.469361
 70
    64
  0
VERTEX
  5
1F6
  8
TEAM-NET
 10
0.0
 20
0.0
 30
1070.000039
 70
    64
  0
SEQEND
  5
1F7
  8
TEAM-NET
  0
POLYLINE
  5
1F8
  8
TEAM-NET
 66
     1
 10
0.0
 20
0.0
 30
0.0
 70
    16
 71
     2
 72
    25
  0
VERTEX
  5
1F9
  8
TEAM-NET
 10
172.094071
 20
-138.521874
 30
713.716604
 70
    64
  0
VERTEX
  5
1FA
  8
TEAM-NET
 10
170.307277
 20
-135.583155
 30
731.607645
 70
    64
  0
VERTEX
  5
1FB
  8
TEAM-NET
 10
168.520483
 20
-132.644435
 30
749.498686
 70
    64
  0
VERTEX
  5
1FC
  8
TEAM-NET
 10
166.73369
 20
-129.705715
 30
767.389726
 70
    64
  0
VERTEX
  5
1FD
  8
TEAM-NET
 10
164.946896
 20
-126.766995
 30
785.280767
 70
    64
  0
VERTEX
  5
1FE
  8
TEAM-NET
 10
163.160102
 20
-123.828275
 30
803.171808
 70
    64
  0
VERTEX
  5
1FF
  8
TEAM-NET
 10
161.360495
 20
-120.889796
 30
821.061378
 70
    64
  0
VERTEX
  5
200
  8
TEAM-NET
 10
158.936217
 20
-117.9631
 30
838.879217
 70
    64
  0
VERTEX
  5
201
  8
TEAM-NET
 10
156.511939
 20
-115.036404
 30
856.697055
 70
    64
  0
VERTEX
  5
202
  8
TEAM-NET
 10
154.087661
 20
-112.109708
 30
874.514894
 70
    64
  0
VERTEX
  5
203
  8
TEAM-NET
 10
151.663383
 20
-109.183012
 30
892.332733
 70
    64
  0
VERTEX
  5
204
  8
TEAM-NET
 10
148.632845
 20
-106.273345
 30
910.046897
 70
    64
  0
VERTEX
  5
205
  8
TEAM-NET
 10
144.83987
 20
-103.385095
 30
927.630679
 70
    64
  0
VERTEX
  5
206
  8
TEAM-NET
 10
141.046894
 20
-100.496844
 30
945.214461
 70
    64
  0
VERTEX
  5
207
  8
TEAM-NET
 10
137.102493
 20
-97.615863
 30
962.753983
 70
    64
  0
VERTEX
  5
208
  8
TEAM-NET
 10
130.578461
 20
-94.858734
 30
979.539491
 70
    64
  0
VERTEX
  5
209
  8
TEAM-NET
 10
124.054429
 20
-92.101605
 30
996.325
 70
    64
  0
VERTEX
  5
20A
  8
TEAM-NET
 10
114.688205
 20
-89.604028
 30
1011.530347
 70
    64
  0
VERTEX
  5
20B
  8
TEAM-NET
 10
103.518914
 20
-87.271108
 30
1025.733251
 70
    64
  0
VERTEX
  5
20C
  8
TEAM-NET
 10
88.585079
 20
-85.651484
 30
1035.593587
 70
    64
  0
VERTEX
  5
20D
  8
TEAM-NET
 10
72.344253
 20
-84.356532
 30
1043.477302
 70
    64
  0
VERTEX
  5
20E
  8
TEAM-NET
 10
54.424816
 20
-83.823576
 30
1046.721958
 70
    64
  0
VERTEX
  5
20F
  8
TEAM-NET
 10
36.420641
 20
-83.419918
 30
1049.179449
 70
    64
  0
VERTEX
  5
210
  8
TEAM-NET
 10
18.210321
 20
-83.330804
 30
1049.721975
 70
    64
  0
VERTEX
  5
211
  8
TEAM-NET
 10
0.0
 20
-83.241691
 30
1050.264502
 70
    64
  0
VERTEX
  5
212
  8
TEAM-NET
 10
192.634457
 20
-137.799193
 30
718.116315
 70
    64
  0
VERTEX
  5
213
  8
TEAM-NET
 10
190.496473
 20
-134.672861
 30
737.149546
 70
    64
  0
VERTEX
  5
214
  8
TEAM-NET
 10
188.358488
 20
-131.546529
 30
756.182776
 70
    64
  0
VERTEX
  5
215
  8
TEAM-NET
 10
186.220504
 20
-128.420197
 30
775.216007
 70
    64
  0
VERTEX
  5
216
  8
TEAM-NET
 10
184.08252
 20
-125.293865
 30
794.249237
 70
    64
  0
VERTEX
  5
217
  8
TEAM-NET
 10
181.944535
 20
-122.167533
 30
813.282468
 70
    64
  0
VERTEX
  5
218
  8
TEAM-NET
 10
179.732986
 20
-119.042737
 30
832.306349
 70
    64
  0
VERTEX
  5
219
  8
TEAM-NET
 10
176.913893
 20
-115.930623
 30
851.253018
 70
    64
  0
VERTEX
  5
21A
  8
TEAM-NET
 10
174.094801
 20
-112.818509
 30
870.199686
 70
    64
  0
VERTEX
  5
21B
  8
TEAM-NET
 10
171.275709
 20
-109.706395
 30
889.146355
 70
    64
  0
VERTEX
  5
21C
  8
TEAM-NET
 10
168.456617
 20
-106.594282
 30
908.093024
 70
    64
  0
VERTEX
  5
21D
  8
TEAM-NET
 10
164.738457
 20
-103.509445
 30
926.873629
 70
    64
  0
VERTEX
  5
21E
  8
TEAM-NET
 10
160.422
 20
-100.44276
 30
945.543723
 70
    64
  0
VERTEX
  5
21F
  8
TEAM-NET
 10
156.105544
 20
-97.376076
 30
964.213818
 70
    64
  0
VERTEX
  5
220
  8
TEAM-NET
 10
150.996139
 20
-94.349941
 30
982.637042
 70
    64
  0
VERTEX
  5
221
  8
TEAM-NET
 10
143.672996
 20
-91.437014
 30
1000.371055
 70
    64
  0
VERTEX
  5
222
  8
TEAM-NET
 10
136.349853
 20
-88.524087
 30
1018.105068
 70
    64
  0
VERTEX
  5
223
  8
TEAM-NET
 10
124.761587
 20
-86.023926
 30
1033.326145
 70
    64
  0
VERTEX
  5
224
  8
TEAM-NET
 10
112.303664
 20
-83.619492
 30
1047.964434
 70
    64
  0
VERTEX
  5
225
  8
TEAM-NET
 10
95.059916
 20
-82.176466
 30
1056.749628
 70
    64
  0
VERTEX
  5
226
  8
TEAM-NET
 10
77.172132
 20
-81.046001
 30
1063.631944
 70
    64
  0
VERTEX
  5
227
  8
TEAM-NET
 10
58.039138
 20
-80.519855
 30
1066.835144
 70
    64
  0
VERTEX
  5
228
  8
TEAM-NET
 10
38.798308
 20
-80.172029
 30
1068.952718
 70
    64
  0
VERTEX
  5
229
  8
TEAM-NET
 10
19.399154
 20
-80.086015
 30
1069.476379
 70
    64
  0
VERTEX
  5
22A
  8
TEAM-NET
 10
0.0
 20
-80.0
 30
1070.000039
 70
    64
  0
SEQEND
  5
22B
  8
TEAM-NET
  0
LINE
  5
22C
  8
TEAM-BODY
 10
0.0
 20
0.0
 30
588.453034
 11
-192.634457
 21
0.0
 31
713.400962
210
0.0
220
-1.0
230
0.0
  0
LINE
  5
22D
  8
TEAM-BODY
 10
0.0
 20
-80.0
 30
588.453034
 11
-192.634457
 21
-137.799193
 31
718.116315
210
0.0
220
-1.0
230
0.0
  0
LINE
  5
22E
  8
TEAM-BODY
 10
-192.634457
 20
-137.799193
 30
718.116315
 11
0.0
 21
-390.0
 31
600.000039
210
0.0
220
-1.0
230
0.0
  0
POLYLINE
  5
22F
  8
TEAM-NET
 66
     1
 10
0.0
 20
0.0
 30
0.0
 70
    16
 71
     2
 72
    25
  0
VERTEX
  5
230
  8
TEAM-NET
 10
-192.634457
 20
-137.799193
 30
718.116315
 70
    64
  0
VERTEX
  5
231
  8
TEAM-NET
 10
-184.608022
 20
-135.390894
 30
712.713679
 70
    64
  0
VERTEX
  5
232
  8
TEAM-NET
 10
-176.581586
 20
-132.982594
 30
707.311042
 70
    64
  0
VERTEX
  5
233
  8
TEAM-NET
 10
-168.55515
 20
-130.574294
 30
701.908405
 70
    64
  0
VERTEX
  5
234
  8
TEAM-NET
 10
-160.528714
 20
-128.165994
 30
696.505768
 70
    64
  0
VERTEX
  5
235
  8
TEAM-NET
 10
-152.502279
 20
-125.757695
 30
691.103132
 70
    64
  0
VERTEX
  5
236
  8
TEAM-NET
 10
-144.475843
 20
-123.349395
 30
685.700495
 70
    64
  0
VERTEX
  5
237
  8
TEAM-NET
 10
-136.449407
 20
-120.941095
 30
680.297858
 70
    64
  0
VERTEX
  5
238
  8
TEAM-NET
 10
-128.422972
 20
-118.532795
 30
674.895221
 70
    64
  0
VERTEX
  5
239
  8
TEAM-NET
 10
-120.396536
 20
-116.124496
 30
669.492585
 70
    64
  0
VERTEX
  5
23A
  8
TEAM-NET
 10
-112.3701
 20
-113.716196
 30
664.089948
 70
    64
  0
VERTEX
  5
23B
  8
TEAM-NET
 10
-104.343664
 20
-111.307896
 30
658.687311
 70
    64
  0
VERTEX
  5
23C
  8
TEAM-NET
 10
-96.317229
 20
-108.899597
 30
653.284675
 70
    64
  0
VERTEX
  5
23D
  8
TEAM-NET
 10
-88.290793
 20
-106.491297
 30
647.882038
 70
    64
  0
VERTEX
  5
23E
  8
TEAM-NET
 10
-80.264357
 20
-104.082997
 30
642.479401
 70
    64
  0
VERTEX
  5
23F
  8
TEAM-NET
 10
-72.237921
 20
-101.674697
 30
637.076764
 70
    64
  0
VERTEX
  5
240
  8
TEAM-NET
 10
-64.211486
 20
-99.266398
 30
631.674128
 70
    64
  0
VERTEX
  5
241
  8
TEAM-NET
 10
-56.18505
 20
-96.858098
 30
626.271491
 70
    64
  0
VERTEX
  5
242
  8
TEAM-NET
 10
-48.158614
 20
-94.449798
 30
620.868854
 70
    64
  0
VERTEX
  5
243
  8
TEAM-NET
 10
-40.132179
 20
-92.041499
 30
615.466218
 70
    64
  0
VERTEX
  5
244
  8
TEAM-NET
 10
-32.105743
 20
-89.633199
 30
610.063581
 70
    64
  0
VERTEX
  5
245
  8
TEAM-NET
 10
-24.079307
 20
-87.224899
 30
604.660944
 70
    64
  0
VERTEX
  5
246
  8
TEAM-NET
 10
-16.052871
 20
-84.816599
 30
599.258307
 70
    64
  0
VERTEX
  5
247
  8
TEAM-NET
 10
-8.026436
 20
-82.4083
 30
593.855671
 70
    64
  0
VERTEX
  5
248
  8
TEAM-NET
 10
0.0
 20
-80.0
 30
588.453034
 70
    64
  0
VERTEX
  5
249
  8
TEAM-NET
 10
-192.634457
 20
-137.799193
 30
718.116315
 70
    64
  0
VERTEX
  5
24A
  8
TEAM-NET
 10
-184.608022
 20
-148.30756
 30
713.194804
 70
    64
  0
VERTEX
  5
24B
  8
TEAM-NET
 10
-176.581586
 20
-158.815927
 30
708.273292
 70
    64
  0
VERTEX
  5
24C
  8
TEAM-NET
 10
-168.55515
 20
-169.324294
 30
703.351781
 70
    64
  0
VERTEX
  5
24D
  8
TEAM-NET
 10
-160.528714
 20
-179.832661
 30
698.430269
 70
    64
  0
VERTEX
  5
24E
  8
TEAM-NET
 10
-152.502279
 20
-190.341028
 30
693.508758
 70
    64
  0
VERTEX
  5
24F
  8
TEAM-NET
 10
-144.475843
 20
-200.849395
 30
688.587246
 70
    64
  0
VERTEX
  5
250
  8
TEAM-NET
 10
-136.449407
 20
-211.357762
 30
683.665735
 70
    64
  0
VERTEX
  5
251
  8
TEAM-NET
 10
-128.422972
 20
-221.866129
 30
678.744223
 70
    64
  0
VERTEX
  5
252
  8
TEAM-NET
 10
-120.396536
 20
-232.374496
 30
673.822712
 70
    64
  0
VERTEX
  5
253
  8
TEAM-NET
 10
-112.3701
 20
-242.882863
 30
668.9012
 70
    64
  0
VERTEX
  5
254
  8
TEAM-NET
 10
-104.343664
 20
-253.39123
 30
663.979689
 70
    64
  0
VERTEX
  5
255
  8
TEAM-NET
 10
-96.317229
 20
-263.899597
 30
659.058177
 70
    64
  0
VERTEX
  5
256
  8
TEAM-NET
 10
-88.290793
 20
-274.407964
 30
654.136666
 70
    64
  0
VERTEX
  5
257
  8
TEAM-NET
 10
-80.264357
 20
-284.916331
 30
649.215154
 70
    64
  0
VERTEX
  5
258
  8
TEAM-NET
 10
-72.237921
 20
-295.424697
 30
644.293643
 70
    64
  0
VERTEX
  5
259
  8
TEAM-NET
 10
-64.211486
 20
-305.933064
 30
639.372131
 70
    64
  0
VERTEX
  5
25A
  8
TEAM-NET
 10
-56.18505
 20
-316.441431
 30
634.45062
 70
    64
  0
VERTEX
  5
25B
  8
TEAM-NET
 10
-48.158614
 20
-326.949798
 30
629.529108
 70
    64
  0
VERTEX
  5
25C
  8
TEAM-NET
 10
-40.132179
 20
-337.458165
 30
624.607597
 70
    64
  0
VERTEX
  5
25D
  8
TEAM-NET
 10
-32.105743
 20
-347.966532
 30
619.686085
 70
    64
  0
VERTEX
  5
25E
  8
TEAM-NET
 10
-24.079307
 20
-358.474899
 30
614.764574
 70
    64
  0
VERTEX
  5
25F
  8
TEAM-NET
 10
-16.052871
 20
-368.983266
 30
609.843062
 70
    64
  0
VERTEX
  5
260
  8
TEAM-NET
 10
-8.026436
 20
-379.491633
 30
604.921551
 70
    64
  0
VERTEX
  5
261
  8
TEAM-NET
 10
0.0
 20
-390.0
 30
600.000039
 70
    64
  0
SEQEND
  5
262
  8
TEAM-NET
  0
POLYLINE
  5
263
  8
TEAM-NET
 66
     1
 10
0.0
 20
0.0
 30
0.0
 70
    16
 71
     2
 72
    25
  0
VERTEX
  5
264
  8
TEAM-NET
 10
-192.634457
 20
-137.799193
 30
718.116315
 70
    64
  0
VERTEX
  5
265
  8
TEAM-NET
 10
-184.608022
 20
-135.390894
 30
712.713679
 70
    64
  0
VERTEX
  5
266
  8
TEAM-NET
 10
-176.581586
 20
-132.982594
 30
707.311042
 70
    64
  0
VERTEX
  5
267
  8
TEAM-NET
 10
-168.55515
 20
-130.574294
 30
701.908405
 70
    64
  0
VERTEX
  5
268
  8
TEAM-NET
 10
-160.528714
 20
-128.165994
 30
696.505768
 70
    64
  0
VERTEX
  5
269
  8
TEAM-NET
 10
-152.502279
 20
-125.757695
 30
691.103132
 70
    64
  0
VERTEX
  5
26A
  8
TEAM-NET
 10
-144.475843
 20
-123.349395
 30
685.700495
 70
    64
  0
VERTEX
  5
26B
  8
TEAM-NET
 10
-136.449407
 20
-120.941095
 30
680.297858
 70
    64
  0
VERTEX
  5
26C
  8
TEAM-NET
 10
-128.422972
 20
-118.532795
 30
674.895221
 70
    64
  0
VERTEX
  5
26D
  8
TEAM-NET
 10
-120.396536
 20
-116.124496
 30
669.492585
 70
    64
  0
VERTEX
  5
26E
  8
TEAM-NET
 10
-112.3701
 20
-113.716196
 30
664.089948
 70
    64
  0
VERTEX
  5
26F
  8
TEAM-NET
 10
-104.343664
 20
-111.307896
 30
658.687311
 70
    64
  0
VERTEX
  5
270
  8
TEAM-NET
 10
-96.317229
 20
-108.899597
 30
653.284675
 70
    64
  0
VERTEX
  5
271
  8
TEAM-NET
 10
-88.290793
 20
-106.491297
 30
647.882038
 70
    64
  0
VERTEX
  5
272
  8
TEAM-NET
 10
-80.264357
 20
-104.082997
 30
642.479401
 70
    64
  0
VERTEX
  5
273
  8
TEAM-NET
 10
-72.237921
 20
-101.674697
 30
637.076764
 70
    64
  0
VERTEX
  5
274
  8
TEAM-NET
 10
-64.211486
 20
-99.266398
 30
631.674128
 70
    64
  0
VERTEX
  5
275
  8
TEAM-NET
 10
-56.18505
 20
-96.858098
 30
626.271491
 70
    64
  0
VERTEX
  5
276
  8
TEAM-NET
 10
-48.158614
 20
-94.449798
 30
620.868854
 70
    64
  0
VERTEX
  5
277
  8
TEAM-NET
 10
-40.132179
 20
-92.041499
 30
615.466218
 70
    64
  0
VERTEX
  5
278
  8
TEAM-NET
 10
-32.105743
 20
-89.633199
 30
610.063581
 70
    64
  0
VERTEX
  5
279
  8
TEAM-NET
 10
-24.079307
 20
-87.224899
 30
604.660944
 70
    64
  0
VERTEX
  5
27A
  8
TEAM-NET
 10
-16.052871
 20
-84.816599
 30
599.258307
 70
    64
  0
VERTEX
  5
27B
  8
TEAM-NET
 10
-8.026436
 20
-82.4083
 30
593.855671
 70
    64
  0
VERTEX
  5
27C
  8
TEAM-NET
 10
0.0
 20
-80.0
 30
588.453034
 70
    64
  0
VERTEX
  5
27D
  8
TEAM-NET
 10
-192.634457
 20
0.0
 30
713.400962
 70
    64
  0
VERTEX
  5
27E
  8
TEAM-NET
 10
-184.608022
 20
0.0
 30
708.194798
 70
    64
  0
VERTEX
  5
27F
  8
TEAM-NET
 10
-176.581586
 20
0.0
 30
702.988635
 70
    64
  0
VERTEX
  5
280
  8
TEAM-NET
 10
-168.55515
 20
0.0
 30
697.782471
 70
    64
  0
VERTEX
  5
281
  8
TEAM-NET
 10
-160.528714
 20
0.0
 30
692.576307
 70
    64
  0
VERTEX
  5
282
  8
TEAM-NET
 10
-152.502279
 20
0.0
 30
687.370144
 70
    64
  0
VERTEX
  5
283
  8
TEAM-NET
 10
-144.475843
 20
0.0
 30
682.16398
 70
    64
  0
VERTEX
  5
284
  8
TEAM-NET
 10
-136.449407
 20
0.0
 30
676.957816
 70
    64
  0
VERTEX
  5
285
  8
TEAM-NET
 10
-128.422972
 20
0.0
 30
671.751653
 70
    64
  0
VERTEX
  5
286
  8
TEAM-NET
 10
-120.396536
 20
0.0
 30
666.545489
 70
    64
  0
VERTEX
  5
287
  8
TEAM-NET
 10
-112.3701
 20
0.0
 30
661.339325
 70
    64
  0
VERTEX
  5
288
  8
TEAM-NET
 10
-104.343664
 20
0.0
 30
656.133162
 70
    64
  0
VERTEX
  5
289
  8
TEAM-NET
 10
-96.317229
 20
0.0
 30
650.926998
 70
    64
  0
VERTEX
  5
28A
  8
TEAM-NET
 10
-88.290793
 20
0.0
 30
645.720834
 70
    64
  0
VERTEX
  5
28B
  8
TEAM-NET
 10
-80.264357
 20
0.0
 30
640.514671
 70
    64
  0
VERTEX
  5
28C
  8
TEAM-NET
 10
-72.237921
 20
0.0
 30
635.308507
 70
    64
  0
VERTEX
  5
28D
  8
TEAM-NET
 10
-64.211486
 20
0.0
 30
630.102343
 70
    64
  0
VERTEX
  5
28E
  8
TEAM-NET
 10
-56.18505
 20
0.0
 30
624.89618
 70
    64
  0
VERTEX
  5
28F
  8
TEAM-NET
 10
-48.158614
 20
0.0
 30
619.690016
 70
    64
  0
VERTEX
  5
290
  8
TEAM-NET
 10
-40.132179
 20
0.0
 30
614.483852
 70
    64
  0
VERTEX
  5
291
  8
TEAM-NET
 10
-32.105743
 20
0.0
 30
609.277689
 70
    64
  0
VERTEX
  5
292
  8
TEAM-NET
 10
-24.079307
 20
0.0
 30
604.071525
 70
    64
  0
VERTEX
  5
293
  8
TEAM-NET
 10
-16.052871
 20
0.0
 30
598.865361
 70
    64
  0
VERTEX
  5
294
  8
TEAM-NET
 10
-8.026436
 20
0.0
 30
593.659198
 70
    64
  0
VERTEX
  5
295
  8
TEAM-NET
 10
0.0
 20
0.0
 30
588.453034
 70
    64
  0
SEQEND
  5
296
  8
TEAM-NET
  0
LINE
  5
297
  8
TEAM-BODY
 10
0.0
 20
0.0
 30
588.453034
 11
192.634457
 21
0.0
 31
713.400962
210
0.0
220
-1.0
230
0.0
  0
LINE
  5
298
  8
TEAM-BODY
 10
0.0
 20
-80.0
 30
588.453034
 11
192.634457
 21
-137.799193
 31
718.116315
210
0.0
220
-1.0
230
0.0
  0
LINE
  5
299
  8
TEAM-BODY
 10
192.634457
 20
-137.799193
 30
718.116315
 11
0.0
 21
-390.0
 31
600.000039
210
0.0
220
-1.0
230
0.0
  0
POLYLINE
  5
29A
  8
TEAM-NET
 66
     1
 10
0.0
 20
0.0
 30
0.0
 70
    16
 71
     2
 72
    25
  0
VERTEX
  5
29B
  8
TEAM-NET
 10
0.0
 20
-390.0
 30
600.000039
 70
    64
  0
VERTEX
  5
29C
  8
TEAM-NET
 10
8.026436
 20
-379.491633
 30
604.921551
 70
    64
  0
VERTEX
  5
29D
  8
TEAM-NET
 10
16.052871
 20
-368.983266
 30
609.843062
 70
    64
  0
VERTEX
  5
29E
  8
TEAM-NET
 10
24.079307
 20
-358.474899
 30
614.764574
 70
    64
  0
VERTEX
  5
29F
  8
TEAM-NET
 10
32.105743
 20
-347.966532
 30
619.686085
 70
    64
  0
VERTEX
  5
2A0
  8
TEAM-NET
 10
40.132179
 20
-337.458165
 30
624.607597
 70
    64
  0
VERTEX
  5
2A1
  8
TEAM-NET
 10
48.158614
 20
-326.949798
 30
629.529108
 70
    64
  0
VERTEX
  5
2A2
  8
TEAM-NET
 10
56.18505
 20
-316.441431
 30
634.45062
 70
    64
  0
VERTEX
  5
2A3
  8
TEAM-NET
 10
64.211486
 20
-305.933064
 30
639.372131
 70
    64
  0
VERTEX
  5
2A4
  8
TEAM-NET
 10
72.237921
 20
-295.424697
 30
644.293643
 70
    64
  0
VERTEX
  5
2A5
  8
TEAM-NET
 10
80.264357
 20
-284.916331
 30
649.215154
 70
    64
  0
VERTEX
  5
2A6
  8
TEAM-NET
 10
88.290793
 20
-274.407964
 30
654.136666
 70
    64
  0
VERTEX
  5
2A7
  8
TEAM-NET
 10
96.317229
 20
-263.899597
 30
659.058177
 70
    64
  0
VERTEX
  5
2A8
  8
TEAM-NET
 10
104.343664
 20
-253.39123
 30
663.979689
 70
    64
  0
VERTEX
  5
2A9
  8
TEAM-NET
 10
112.3701
 20
-242.882863
 30
668.9012
 70
    64
  0
VERTEX
  5
2AA
  8
TEAM-NET
 10
120.396536
 20
-232.374496
 30
673.822712
 70
    64
  0
VERTEX
  5
2AB
  8
TEAM-NET
 10
128.422972
 20
-221.866129
 30
678.744223
 70
    64
  0
VERTEX
  5
2AC
  8
TEAM-NET
 10
136.449407
 20
-211.357762
 30
683.665735
 70
    64
  0
VERTEX
  5
2AD
  8
TEAM-NET
 10
144.475843
 20
-200.849395
 30
688.587246
 70
    64
  0
VERTEX
  5
2AE
  8
TEAM-NET
 10
152.502279
 20
-190.341028
 30
693.508758
 70
    64
  0
VERTEX
  5
2AF
  8
TEAM-NET
 10
160.528714
 20
-179.832661
 30
698.430269
 70
    64
  0
VERTEX
  5
2B0
  8
TEAM-NET
 10
168.55515
 20
-169.324294
 30
703.351781
 70
    64
  0
VERTEX
  5
2B1
  8
TEAM-NET
 10
176.581586
 20
-158.815927
 30
708.273292
 70
    64
  0
VERTEX
  5
2B2
  8
TEAM-NET
 10
184.608022
 20
-148.30756
 30
713.194804
 70
    64
  0
VERTEX
  5
2B3
  8
TEAM-NET
 10
192.634457
 20
-137.799193
 30
718.116315
 70
    64
  0
VERTEX
  5
2B4
  8
TEAM-NET
 10
0.0
 20
-80.0
 30
588.453034
 70
    64
  0
VERTEX
  5
2B5
  8
TEAM-NET
 10
8.026436
 20
-82.4083
 30
593.855671
 70
    64
  0
VERTEX
  5
2B6
  8
TEAM-NET
 10
16.052871
 20
-84.816599
 30
599.258307
 70
    64
  0
VERTEX
  5
2B7
  8
TEAM-NET
 10
24.079307
 20
-87.224899
 30
604.660944
 70
    64
  0
VERTEX
  5
2B8
  8
TEAM-NET
 10
32.105743
 20
-89.633199
 30
610.063581
 70
    64
  0
VERTEX
  5
2B9
  8
TEAM-NET
 10
40.132179
 20
-92.041499
 30
615.466218
 70
    64
  0
VERTEX
  5
2BA
  8
TEAM-NET
 10
48.158614
 20
-94.449798
 30
620.868854
 70
    64
  0
VERTEX
  5
2BB
  8
TEAM-NET
 10
56.18505
 20
-96.858098
 30
626.271491
 70
    64
  0
VERTEX
  5
2BC
  8
TEAM-NET
 10
64.211486
 20
-99.266398
 30
631.674128
 70
    64
  0
VERTEX
  5
2BD
  8
TEAM-NET
 10
72.237921
 20
-101.674697
 30
637.076764
 70
    64
  0
VERTEX
  5
2BE
  8
TEAM-NET
 10
80.264357
 20
-104.082997
 30
642.479401
 70
    64
  0
VERTEX
  5
2BF
  8
TEAM-NET
 10
88.290793
 20
-106.491297
 30
647.882038
 70
    64
  0
VERTEX
  5
2C0
  8
TEAM-NET
 10
96.317229
 20
-108.899597
 30
653.284675
 70
    64
  0
VERTEX
  5
2C1
  8
TEAM-NET
 10
104.343664
 20
-111.307896
 30
658.687311
 70
    64
  0
VERTEX
  5
2C2
  8
TEAM-NET
 10
112.3701
 20
-113.716196
 30
664.089948
 70
    64
  0
VERTEX
  5
2C3
  8
TEAM-NET
 10
120.396536
 20
-116.124496
 30
669.492585
 70
    64
  0
VERTEX
  5
2C4
  8
TEAM-NET
 10
128.422972
 20
-118.532795
 30
674.895221
 70
    64
  0
VERTEX
  5
2C5
  8
TEAM-NET
 10
136.449407
 20
-120.941095
 30
680.297858
 70
    64
  0
VERTEX
  5
2C6
  8
TEAM-NET
 10
144.475843
 20
-123.349395
 30
685.700495
 70
    64
  0
VERTEX
  5
2C7
  8
TEAM-NET
 10
152.502279
 20
-125.757695
 30
691.103132
 70
    64
  0
VERTEX
  5
2C8
  8
TEAM-NET
 10
160.528714
 20
-128.165994
 30
696.505768
 70
    64
  0
VERTEX
  5
2C9
  8
TEAM-NET
 10
168.55515
 20
-130.574294
 30
701.908405
 70
    64
  0
VERTEX
  5
2CA
  8
TEAM-NET
 10
176.581586
 20
-132.982594
 30
707.311042
 70
    64
  0
VERTEX
  5
2CB
  8
TEAM-NET
 10
184.608022
 20
-135.390894
 30
712.713679
 70
    64
  0
VERTEX
  5
2CC
  8
TEAM-NET
 10
192.634457
 20
-137.799193
 30
718.116315
 70
    64
  0
SEQEND
  5
2CD
  8
TEAM-NET
  0
POLYLINE
  5
2CE
  8
TEAM-NET
 66
     1
 10
0.0
 20
0.0
 30
0.0
 70
    16
 71
     2
 72
    25
  0
VERTEX
  5
2CF
  8
TEAM-NET
 10
0.0
 20
-80.0
 30
588.453034
 70
    64
  0
VERTEX
  5
2D0
  8
TEAM-NET
 10
8.026436
 20
-82.4083
 30
593.855671
 70
    64
  0
VERTEX
  5
2D1
  8
TEAM-NET
 10
16.052871
 20
-84.816599
 30
599.258307
 70
    64
  0
VERTEX
  5
2D2
  8
TEAM-NET
 10
24.079307
 20
-87.224899
 30
604.660944
 70
    64
  0
VERTEX
  5
2D3
  8
TEAM-NET
 10
32.105743
 20
-89.633199
 30
610.063581
 70
    64
  0
VERTEX
  5
2D4
  8
TEAM-NET
 10
40.132179
 20
-92.041499
 30
615.466218
 70
    64
  0
VERTEX
  5
2D5
  8
TEAM-NET
 10
48.158614
 20
-94.449798
 30
620.868854
 70
    64
  0
VERTEX
  5
2D6
  8
TEAM-NET
 10
56.18505
 20
-96.858098
 30
626.271491
 70
    64
  0
VERTEX
  5
2D7
  8
TEAM-NET
 10
64.211486
 20
-99.266398
 30
631.674128
 70
    64
  0
VERTEX
  5
2D8
  8
TEAM-NET
 10
72.237921
 20
-101.674697
 30
637.076764
 70
    64
  0
VERTEX
  5
2D9
  8
TEAM-NET
 10
80.264357
 20
-104.082997
 30
642.479401
 70
    64
  0
VERTEX
  5
2DA
  8
TEAM-NET
 10
88.290793
 20
-106.491297
 30
647.882038
 70
    64
  0
VERTEX
  5
2DB
  8
TEAM-NET
 10
96.317229
 20
-108.899597
 30
653.284675
 70
    64
  0
VERTEX
  5
2DC
  8
TEAM-NET
 10
104.343664
 20
-111.307896
 30
658.687311
 70
    64
  0
VERTEX
  5
2DD
  8
TEAM-NET
 10
112.3701
 20
-113.716196
 30
664.089948
 70
    64
  0
VERTEX
  5
2DE
  8
TEAM-NET
 10
120.396536
 20
-116.124496
 30
669.492585
 70
    64
  0
VERTEX
  5
2DF
  8
TEAM-NET
 10
128.422972
 20
-118.532795
 30
674.895221
 70
    64
  0
VERTEX
  5
2E0
  8
TEAM-NET
 10
136.449407
 20
-120.941095
 30
680.297858
 70
    64
  0
VERTEX
  5
2E1
  8
TEAM-NET
 10
144.475843
 20
-123.349395
 30
685.700495
 70
    64
  0
VERTEX
  5
2E2
  8
TEAM-NET
 10
152.502279
 20
-125.757695
 30
691.103132
 70
    64
  0
VERTEX
  5
2E3
  8
TEAM-NET
 10
160.528714
 20
-128.165994
 30
696.505768
 70
    64
  0
VERTEX
  5
2E4
  8
TEAM-NET
 10
168.55515
 20
-130.574294
 30
701.908405
 70
    64
  0
VERTEX
  5
2E5
  8
TEAM-NET
 10
176.581586
 20
-132.982594
 30
707.311042
 70
    64
  0
VERTEX
  5
2E6
  8
TEAM-NET
 10
184.608022
 20
-135.390894
 30
712.713679
 70
    64
  0
VERTEX
  5
2E7
  8
TEAM-NET
 10
192.634457
 20
-137.799193
 30
718.116315
 70
    64
  0
VERTEX
  5
2E8
  8
TEAM-NET
 10
0.0
 20
0.0
 30
588.453034
 70
    64
  0
VERTEX
  5
2E9
  8
TEAM-NET
 10
8.026436
 20
0.0
 30
593.659198
 70
    64
  0
VERTEX
  5
2EA
  8
TEAM-NET
 10
16.052871
 20
0.0
 30
598.865361
 70
    64
  0
VERTEX
  5
2EB
  8
TEAM-NET
 10
24.079307
 20
0.0
 30
604.071525
 70
    64
  0
VERTEX
  5
2EC
  8
TEAM-NET
 10
32.105743
 20
0.0
 30
609.277689
 70
    64
  0
VERTEX
  5
2ED
  8
TEAM-NET
 10
40.132179
 20
0.0
 30
614.483852
 70
    64
  0
VERTEX
  5
2EE
  8
TEAM-NET
 10
48.158614
 20
0.0
 30
619.690016
 70
    64
  0
VERTEX
  5
2EF
  8
TEAM-NET
 10
56.18505
 20
0.0
 30
624.89618
 70
    64
  0
VERTEX
  5
2F0
  8
TEAM-NET
 10
64.211486
 20
0.0
 30
630.102343
 70
    64
  0
VERTEX
  5
2F1
  8
TEAM-NET
 10
72.237921
 20
0.0
 30
635.308507
 70
    64
  0
VERTEX
  5
2F2
  8
TEAM-NET
 10
80.264357
 20
0.0
 30
640.514671
 70
    64
  0
VERTEX
  5
2F3
  8
TEAM-NET
 10
88.290793
 20
0.0
 30
645.720834
 70
    64
  0
VERTEX
  5
2F4
  8
TEAM-NET
 10
96.317229
 20
0.0
 30
650.926998
 70
    64
  0
VERTEX
  5
2F5
  8
TEAM-NET
 10
104.343664
 20
0.0
 30
656.133162
 70
    64
  0
VERTEX
  5
2F6
  8
TEAM-NET
 10
112.3701
 20
0.0
 30
661.339325
 70
    64
  0
VERTEX
  5
2F7
  8
TEAM-NET
 10
120.396536
 20
0.0
 30
666.545489
 70
    64
  0
VERTEX
  5
2F8
  8
TEAM-NET
 10
128.422972
 20
0.0
 30
671.751653
 70
    64
  0
VERTEX
  5
2F9
  8
TEAM-NET
 10
136.449407
 20
0.0
 30
676.957816
 70
    64
  0
VERTEX
  5
2FA
  8
TEAM-NET
 10
144.475843
 20
0.0
 30
682.16398
 70
    64
  0
VERTEX
  5
2FB
  8
TEAM-NET
 10
152.502279
 20
0.0
 30
687.370144
 70
    64
  0
VERTEX
  5
2FC
  8
TEAM-NET
 10
160.528714
 20
0.0
 30
692.576307
 70
    64
  0
VERTEX
  5
2FD
  8
TEAM-NET
 10
168.55515
 20
0.0
 30
697.782471
 70
    64
  0
VERTEX
  5
2FE
  8
TEAM-NET
 10
176.581586
 20
0.0
 30
702.988635
 70
    64
  0
VERTEX
  5
2FF
  8
TEAM-NET
 10
184.608022
 20
0.0
 30
708.194798
 70
    64
  0
VERTEX
  5
300
  8
TEAM-NET
 10
192.634457
 20
0.0
 30
713.400962
 70
    64
  0
SEQEND
  5
301
  8
TEAM-NET
  0
LINE
  5
302
  8
TEAM-HIDE
 10
0.0
 20
-80.0
 30
460.000039
 11
0.0
 21
-90.0
 31
460.000039
210
-1.0
220
0.0
230
0.0
  0
CIRCLE
  5
303
  8
TEAM-COLD
 10
0.0
 20
1000.000074
 30
0.0
 40
14.999999
210
0.0
220
-1.0
230
0.0
  0
LINE
  5
305
  8
TEAM-AXE
 10
-20.939891
 20
0.0
 30
1000.136639
 11
20.939891
 21
0.0
 31
1000.136639
210
0.0
220
-1.0
230
0.0
  0
TEXT
  5
306
  8
TEAM-TXT
 10
-129.790213
 20
-60.579272
 30
1075.000039
 40
30.0
  1
team 347015
 41
0.8
 51
15.0
  7
TEAM
  0
ENDSEC
  0
EOF
