  0
SECTION
  2
HEADER
  9
$ACADVER
  1
AC1009
  9
$INSBASE
 10
0.0
 20
0.0
 30
0.0
  9
$EXTMIN
 10
-156.519104
 20
-340.987213
 30
-0.062009
  9
$EXTMAX
 10
156.532281
 20
10.021424
 30
1016.060685
  9
$LIMMIN
 10
-156.519104
 20
-340.987213
  9
$LIMMAX
 10
156.532281
 20
10.021424
  9
$ORTHOMODE
 70
     0
  9
$REGENMODE
 70
     1
  9
$FILLMODE
 70
     1
  9
$QTEXTMODE
 70
     0
  9
$MIRRTEXT
 70
     0
  9
$DRAGMODE
 70
     2
  9
$LTSCALE
 40
25.0
  9
$OSMODE
 70
     0
  9
$ATTMODE
 70
     1
  9
$TEXTSIZE
 40
200.0
  9
$TRACEWID
 40
1.0
  9
$TEXTSTYLE
  7
STANDARD
  9
$CLAYER
  8
0
  9
$CELTYPE
  6
BYLAYER
  9
$CECOLOR
 62
   256
  9
$DIMSCALE
 40
0.0
  9
$DIMASZ
 40
20.0
  9
$DIMEXO
 40
10.0
  9
$DIMDLI
 40
1.0
  9
$DIMRND
 40
0.0
  9
$DIMDLE
 40
0.0
  9
$DIMEXE
 40
1.0
  9
$DIMTP
 40
0.0
  9
$DIMTM
 40
0.0
  9
$DIMTXT
 40
35.0
  9
$DIMCEN
 40
1.0
  9
$DIMTSZ
 40
0.0
  9
$DIMTOL
 70
     0
  9
$DIMLIM
 70
     0
  9
$DIMTIH
 70
     0
  9
$DIMTOH
 70
     0
  9
$DIMSE1
 70
     0
  9
$DIMSE2
 70
     0
  9
$DIMTAD
 70
     0
  9
$DIMZIN
 70
     0
  9
$DIMBLK
  1

  9
$DIMASO
 70
     1
  9
$DIMSHO
 70
     0
  9
$DIMPOST
  1

  9
$DIMAPOST
  1

  9
$DIMALT
 70
     0
  9
$DIMALTD
 70
     2
  9
$DIMALTF
 40
25.4
  9
$DIMLFAC
 40
1.0
  9
$DIMTOFL
 70
     0
  9
$DIMTVP
 40
0.0
  9
$DIMTIX
 70
     0
  9
$DIMSOXD
 70
     0
  9
$DIMSAH
 70
     0
  9
$DIMBLK1
  1

  9
$DIMBLK2
  1

  9
$DIMSTYLE
  2
TEAM
  9
$DIMCLRD
 70
     9
  9
$DIMCLRE
 70
     9
  9
$DIMCLRT
 70
    11
  9
$DIMTFAC
 40
1.0
  9
$DIMGAP
 40
15.0
  9
$LUNITS
 70
     2
  9
$LUPREC
 70
     1
  9
$SKETCHINC
 40
1.0
  9
$FILLETRAD
 40
50.0
  9
$AUNITS
 70
     0
  9
$AUPREC
 70
     0
  9
$MENU
  1
ROPLANS
  9
$ELEVATION
 40
0.0
  9
$PELEVATION
 40
0.0
  9
$THICKNESS
 40
0.0
  9
$LIMCHECK
 70
     0
  9
$BLIPMODE
 70
     1
  9
$CHAMFERA
 40
0.0
  9
$CHAMFERB
 40
0.0
  9
$SKPOLY
 70
     0
  9
$TDCREATE
 40
2450392.957851
  9
$TDUPDATE
 40
2455526.943597
  9
$TDINDWG
 40
1.970577
  9
$TDUSRTIMER
 40
1.970577
  9
$USRTIMER
 70
     1
  9
$ANGBASE
 50
0.0
  9
$ANGDIR
 70
     0
  9
$PDMODE
 70
     0
  9
$PDSIZE
 40
0.0
  9
$PLINEWID
 40
0.0
  9
$COORDS
 70
     2
  9
$SPLFRAME
 70
     0
  9
$SPLINETYPE
 70
     6
  9
$SPLINESEGS
 70
     8
  9
$ATTDIA
 70
     0
  9
$ATTREQ
 70
     0
  9
$HANDLING
 70
     1
  9
$HANDSEED
  5
434
  9
$SURFTAB1
 70
    24
  9
$SURFTAB2
 70
    24
  9
$SURFTYPE
 70
     6
  9
$SURFU
 70
     6
  9
$SURFV
 70
     6
  9
$UCSNAME
  2

  9
$UCSORG
 10
0.0
 20
0.0
 30
0.0
  9
$UCSXDIR
 10
1.0
 20
0.0
 30
0.0
  9
$UCSYDIR
 10
0.0
 20
1.0
 30
0.0
  9
$PUCSNAME
  2

  9
$PUCSORG
 10
0.0
 20
0.0
 30
0.0
  9
$PUCSXDIR
 10
1.0
 20
0.0
 30
0.0
  9
$PUCSYDIR
 10
0.0
 20
1.0
 30
0.0
  9
$USERI1
 70
     0
  9
$USERI2
 70
     0
  9
$USERI3
 70
     0
  9
$USERI4
 70
     0
  9
$USERI5
 70
     0
  9
$USERR1
 40
0.0
  9
$USERR2
 40
0.0
  9
$USERR3
 40
0.0
  9
$USERR4
 40
0.0
  9
$USERR5
 40
0.0
  9
$WORLDVIEW
 70
     1
  9
$SHADEDGE
 70
     0
  9
$SHADEDIF
 70
    70
  9
$TILEMODE
 70
     1
  9
$MAXACTVP
 70
    16
  9
$PLIMCHECK
 70
     0
  9
$PEXTMIN
 10
-0.805942
 20
0.005011
 30
0.0
  9
$PEXTMAX
 10
20.392854
 20
13.725274
 30
0.0
  9
$PLIMMIN
 10
0.0
 20
0.0
  9
$PLIMMAX
 10
12.0
 20
9.0
  9
$UNITMODE
 70
     0
  9
$VISRETAIN
 70
     0
  9
$PLINEGEN
 70
     0
  9
$PSLTSCALE
 70
     0
  0
ENDSEC
  0
SECTION
  2
TABLES
  0
TABLE
  2
VPORT
 70
     2
  0
VPORT
  2
*ACTIVE
 70
     0
 10
0.0
 20
0.0
 11
1.0
 21
1.0
 12
0.006588
 22
-165.482895
 13
0.0
 23
0.0
 14
1.0
 24
1.0
 15
50.0
 25
50.0
 16
0.0
 26
0.0
 36
1.0
 17
0.0
 27
0.0
 37
0.0
 40
353.164268
 41
1.865779
 42
50.0
 43
0.0
 44
0.0
 50
0.0
 51
0.0
 71
     0
 72
   100
 73
     1
 74
     1
 75
     0
 76
     0
 77
     0
 78
     0
  0
ENDTAB
  0
TABLE
  2
LTYPE
 70
     1
  0
LTYPE
  2
CONTINUOUS
 70
     0
  3
Solid Line
 72
    65
 73
     0
 40
0.0
  0
ENDTAB
  0
TABLE
  2
LAYER
 70
     7
  0
LAYER
  2
0
 70
     0
 62
     7
  6
CONTINUOUS
  0
LAYER
  2
TEAM-NET2
 70
     0
 62
    13
  6
CONTINUOUS
  0
LAYER
  2
TEAM-BODY
 70
     0
 62
     2
  6
CONTINUOUS
  0
LAYER
  2
TEAM-TXT
 70
     0
 62
    11
  6
CONTINUOUS
  0
LAYER
  2
TEAM-DET1
 70
     0
 62
     4
  6
CONTINUOUS
  0
LAYER
  2
TEAM-NET
 70
     0
 62
    15
  6
CONTINUOUS
  0
LAYER
  2
TEAM-INSP
 70
     0
 62
     5
  6
CONTINUOUS
  0
ENDTAB
  0
TABLE
  2
STYLE
 70
     2
  0
STYLE
  2
STANDARD
 70
     0
 40
0.0
 41
1.0
 50
0.0
 71
     0
 42
200.0
  3
txt
  4

  0
STYLE
  2
TEAM
 70
     0
 40
0.0
 41
0.8
 50
15.0
 71
     0
 42
7.0
  3
ROMANS.shx
  4

  0
ENDTAB
  0
TABLE
  2
VIEW
 70
     0
  0
ENDTAB
  0
TABLE
  2
UCS
 70
     0
  0
ENDTAB
  0
TABLE
  2
APPID
 70
     1
  0
APPID
  2
ACAD
 70
     0
  0
ENDTAB
  0
TABLE
  2
DIMSTYLE
 70
     1
  0
DIMSTYLE
  2
TEAM
 70
     0
  3

  4

  5

  6

  7

 40
0.0
 41
20.0
 42
10.0
 43
1.0
 44
1.0
 45
0.0
 46
0.0
 47
0.0
 48
0.0
140
35.0
141
1.0
142
0.0
143
25.4
144
1.0
145
0.0
146
1.0
147
15.0
 71
     0
 72
     0
 73
     0
 74
     0
 75
     0
 76
     0
 77
     0
 78
     0
170
     0
171
     2
172
     0
173
     0
174
     0
175
     0
176
     9
177
     9
178
    11
  0
ENDTAB
  0
ENDSEC
  0
SECTION
  2
BLOCKS
  0
BLOCK
  8
0
  2
$MODEL_SPACE
 70
     0
 10
0.0
 20
0.0
 30
0.0
  3
$MODEL_SPACE
  1

  0
ENDBLK
  5
3C6
  8
0
  0
BLOCK
 67
     1
  8
0
  2
$PAPER_SPACE
 70
     0
 10
0.0
 20
0.0
 30
0.0
  3
$PAPER_SPACE
  1

  0
ENDBLK
  5
3C4
 67
     1
  8
0
  0
ENDSEC
  0
SECTION
  2
ENTITIES
  0
POLYLINE
  5
1F
  8
TEAM-NET
 66
     1
 10
0.0
 20
0.0
 30
0.0
 70
    16
 71
     2
 72
    25
  0
VERTEX
  5
20
  8
TEAM-NET
 10
156.513174
 20
-234.233049
 30
764.817763
 70
    64
  0
VERTEX
  5
21
  8
TEAM-NET
 10
155.174295
 20
-248.164468
 30
749.878145
 70
    64
  0
VERTEX
  5
22
  8
TEAM-NET
 10
151.180566
 20
-261.857516
 30
735.194149
 70
    64
  0
VERTEX
  5
23
  8
TEAM-NET
 10
144.600321
 20
-275.077902
 30
721.017021
 70
    64
  0
VERTEX
  5
24
  8
TEAM-NET
 10
135.546149
 20
-287.599421
 30
707.589335
 70
    64
  0
VERTEX
  5
25
  8
TEAM-NET
 10
124.172972
 20
-299.207827
 30
695.140844
 70
    64
  0
VERTEX
  5
26
  8
TEAM-NET
 10
110.675385
 20
-309.704496
 30
683.884545
 70
    64
  0
VERTEX
  5
27
  8
TEAM-NET
 10
95.284337
 20
-318.909828
 30
674.013035
 70
    64
  0
VERTEX
  5
28
  8
TEAM-NET
 10
78.263174
 20
-326.666316
 30
665.695219
 70
    64
  0
VERTEX
  5
29
  8
TEAM-NET
 10
59.903131
 20
-332.841246
 30
659.073417
 70
    64
  0
VERTEX
  5
2A
  8
TEAM-NET
 10
40.518354
 20
-337.328963
 30
654.260931
 70
    64
  0
VERTEX
  5
2B
  8
TEAM-NET
 10
20.440523
 20
-340.052679
 30
651.340102
 70
    64
  0
VERTEX
  5
2C
  8
TEAM-NET
 10
0.013174
 20
-340.965793
 30
650.360908
 70
    64
  0
VERTEX
  5
2D
  8
TEAM-NET
 10
-20.414175
 20
-340.052679
 30
651.340102
 70
    64
  0
VERTEX
  5
2E
  8
TEAM-NET
 10
-40.492007
 20
-337.328963
 30
654.260931
 70
    64
  0
VERTEX
  5
2F
  8
TEAM-NET
 10
-59.876783
 20
-332.841246
 30
659.073417
 70
    64
  0
VERTEX
  5
30
  8
TEAM-NET
 10
-78.236826
 20
-326.666316
 30
665.695219
 70
    64
  0
VERTEX
  5
31
  8
TEAM-NET
 10
-95.25799
 20
-318.909828
 30
674.013035
 70
    64
  0
VERTEX
  5
32
  8
TEAM-NET
 10
-110.649037
 20
-309.704496
 30
683.884545
 70
    64
  0
VERTEX
  5
33
  8
TEAM-NET
 10
-124.146624
 20
-299.207827
 30
695.140844
 70
    64
  0
VERTEX
  5
34
  8
TEAM-NET
 10
-135.519802
 20
-287.599421
 30
707.589335
 70
    64
  0
VERTEX
  5
35
  8
TEAM-NET
 10
-144.573973
 20
-275.077902
 30
721.017021
 70
    64
  0
VERTEX
  5
36
  8
TEAM-NET
 10
-151.154218
 20
-261.857516
 30
735.194149
 70
    64
  0
VERTEX
  5
37
  8
TEAM-NET
 10
-155.147947
 20
-248.164468
 30
749.878145
 70
    64
  0
VERTEX
  5
38
  8
TEAM-NET
 10
-156.486826
 20
-234.233049
 30
764.817763
 70
    64
  0
VERTEX
  5
39
  8
TEAM-NET
 10
50.0
 20
-135.0
 30
284.000864
 70
    64
  0
VERTEX
  5
3A
  8
TEAM-NET
 10
49.572243
 20
-141.52631
 30
284.000864
 70
    64
  0
VERTEX
  5
3B
  8
TEAM-NET
 10
48.296291
 20
-147.940952
 30
284.000864
 70
    64
  0
VERTEX
  5
3C
  8
TEAM-NET
 10
46.193977
 20
-154.134172
 30
284.000864
 70
    64
  0
VERTEX
  5
3D
  8
TEAM-NET
 10
43.30127
 20
-160.0
 30
284.000864
 70
    64
  0
VERTEX
  5
3E
  8
TEAM-NET
 10
39.667667
 20
-165.438071
 30
284.000864
 70
    64
  0
VERTEX
  5
3F
  8
TEAM-NET
 10
35.355339
 20
-170.355339
 30
284.000864
 70
    64
  0
VERTEX
  5
40
  8
TEAM-NET
 10
30.438071
 20
-174.667667
 30
284.000864
 70
    64
  0
VERTEX
  5
41
  8
TEAM-NET
 10
25.0
 20
-178.30127
 30
284.000864
 70
    64
  0
VERTEX
  5
42
  8
TEAM-NET
 10
19.134172
 20
-181.193977
 30
284.000864
 70
    64
  0
VERTEX
  5
43
  8
TEAM-NET
 10
12.940952
 20
-183.296291
 30
284.000864
 70
    64
  0
VERTEX
  5
44
  8
TEAM-NET
 10
6.52631
 20
-184.572243
 30
284.000864
 70
    64
  0
VERTEX
  5
45
  8
TEAM-NET
 10
0.0
 20
-185.0
 30
284.000864
 70
    64
  0
VERTEX
  5
46
  8
TEAM-NET
 10
-6.52631
 20
-184.572243
 30
284.000864
 70
    64
  0
VERTEX
  5
47
  8
TEAM-NET
 10
-12.940952
 20
-183.296291
 30
284.000864
 70
    64
  0
VERTEX
  5
48
  8
TEAM-NET
 10
-19.134172
 20
-181.193977
 30
284.000864
 70
    64
  0
VERTEX
  5
49
  8
TEAM-NET
 10
-25.0
 20
-178.30127
 30
284.000864
 70
    64
  0
VERTEX
  5
4A
  8
TEAM-NET
 10
-30.438071
 20
-174.667667
 30
284.000864
 70
    64
  0
VERTEX
  5
4B
  8
TEAM-NET
 10
-35.355339
 20
-170.355339
 30
284.000864
 70
    64
  0
VERTEX
  5
4C
  8
TEAM-NET
 10
-39.667667
 20
-165.438071
 30
284.000864
 70
    64
  0
VERTEX
  5
4D
  8
TEAM-NET
 10
-43.30127
 20
-160.0
 30
284.000864
 70
    64
  0
VERTEX
  5
4E
  8
TEAM-NET
 10
-46.193977
 20
-154.134172
 30
284.000864
 70
    64
  0
VERTEX
  5
4F
  8
TEAM-NET
 10
-48.296291
 20
-147.940952
 30
284.000864
 70
    64
  0
VERTEX
  5
50
  8
TEAM-NET
 10
-49.572243
 20
-141.52631
 30
284.000864
 70
    64
  0
VERTEX
  5
51
  8
TEAM-NET
 10
-50.0
 20
-135.0
 30
284.000864
 70
    64
  0
SEQEND
  5
53
  8
TEAM-NET
  0
POLYLINE
  5
54
  8
TEAM-NET
 66
     1
 10
0.0
 20
0.0
 30
0.0
 70
    16
 71
     2
 72
    25
  0
VERTEX
  5
55
  8
TEAM-NET
 10
156.464499
 20
-139.112505
 30
866.822057
 70
    64
  0
VERTEX
  5
56
  8
TEAM-NET
 10
156.457928
 20
-118.625656
 30
888.791513
 70
    64
  0
VERTEX
  5
57
  8
TEAM-NET
 10
156.455433
 20
-98.138807
 30
910.76097
 70
    64
  0
VERTEX
  5
58
  8
TEAM-NET
 10
156.457013
 20
-77.651957
 30
932.730426
 70
    64
  0
VERTEX
  5
59
  8
TEAM-NET
 10
156.462669
 20
-57.165108
 30
954.699882
 70
    64
  0
VERTEX
  5
5A
  8
TEAM-NET
 10
156.4724
 20
-36.678259
 30
976.669338
 70
    64
  0
VERTEX
  5
5B
  8
TEAM-NET
 10
156.486207
 20
-16.191412
 30
998.638792
 70
    64
  0
VERTEX
  5
5C
  8
TEAM-NET
 10
150.197196
 20
-0.003067
 30
1015.998666
 70
    64
  0
VERTEX
  5
5D
  8
TEAM-NET
 10
120.157754
 20
-0.003067
 30
1015.998666
 70
    64
  0
VERTEX
  5
5E
  8
TEAM-NET
 10
90.118313
 20
-0.003067
 30
1015.998666
 70
    64
  0
VERTEX
  5
5F
  8
TEAM-NET
 10
60.078872
 20
-0.003067
 30
1015.998666
 70
    64
  0
VERTEX
  5
60
  8
TEAM-NET
 10
30.039431
 20
-0.003067
 30
1015.998666
 70
    64
  0
VERTEX
  5
61
  8
TEAM-NET
 10
-0.00001
 20
-0.003067
 30
1015.998666
 70
    64
  0
VERTEX
  5
62
  8
TEAM-NET
 10
-30.039452
 20
-0.003067
 30
1015.998666
 70
    64
  0
VERTEX
  5
63
  8
TEAM-NET
 10
-60.078893
 20
-0.003067
 30
1015.998666
 70
    64
  0
VERTEX
  5
64
  8
TEAM-NET
 10
-90.118334
 20
-0.003067
 30
1015.998666
 70
    64
  0
VERTEX
  5
65
  8
TEAM-NET
 10
-120.157775
 20
-0.003067
 30
1015.998666
 70
    64
  0
VERTEX
  5
66
  8
TEAM-NET
 10
-150.197217
 20
-0.003067
 30
1015.998666
 70
    64
  0
VERTEX
  5
67
  8
TEAM-NET
 10
-156.475971
 20
-16.191421
 30
998.638783
 70
    64
  0
VERTEX
  5
68
  8
TEAM-NET
 10
-156.451917
 20
-36.678264
 30
976.669333
 70
    64
  0
VERTEX
  5
69
  8
TEAM-NET
 10
-156.434963
 20
-57.16511
 30
954.69988
 70
    64
  0
VERTEX
  5
6A
  8
TEAM-NET
 10
-156.42511
 20
-77.651958
 30
932.730425
 70
    64
  0
VERTEX
  5
6B
  8
TEAM-NET
 10
-156.422357
 20
-98.138808
 30
910.760969
 70
    64
  0
VERTEX
  5
6C
  8
TEAM-NET
 10
-156.426704
 20
-118.625657
 30
888.791512
 70
    64
  0
VERTEX
  5
6D
  8
TEAM-NET
 10
-156.438152
 20
-139.112505
 30
866.822057
 70
    64
  0
VERTEX
  5
6E
  8
TEAM-NET
 10
50.0
 20
-135.0
 30
284.000864
 70
    64
  0
VERTEX
  5
6F
  8
TEAM-NET
 10
50.0
 20
-119.583333
 30
284.000864
 70
    64
  0
VERTEX
  5
70
  8
TEAM-NET
 10
50.0
 20
-104.166667
 30
284.000864
 70
    64
  0
VERTEX
  5
71
  8
TEAM-NET
 10
50.0
 20
-88.75
 30
284.000864
 70
    64
  0
VERTEX
  5
72
  8
TEAM-NET
 10
50.0
 20
-73.333333
 30
284.000864
 70
    64
  0
VERTEX
  5
73
  8
TEAM-NET
 10
50.0
 20
-57.916667
 30
284.000864
 70
    64
  0
VERTEX
  5
74
  8
TEAM-NET
 10
50.0
 20
-42.5
 30
284.000864
 70
    64
  0
VERTEX
  5
75
  8
TEAM-NET
 10
50.0
 20
-27.083333
 30
284.000864
 70
    64
  0
VERTEX
  5
76
  8
TEAM-NET
 10
50.0
 20
-11.666667
 30
284.000864
 70
    64
  0
VERTEX
  5
77
  8
TEAM-NET
 10
46.25
 20
0.0
 30
284.000864
 70
    64
  0
VERTEX
  5
78
  8
TEAM-NET
 10
30.833333
 20
0.0
 30
284.000864
 70
    64
  0
VERTEX
  5
79
  8
TEAM-NET
 10
15.416667
 20
0.0
 30
284.000864
 70
    64
  0
VERTEX
  5
7A
  8
TEAM-NET
 10
0.0
 20
0.0
 30
284.000864
 70
    64
  0
VERTEX
  5
7B
  8
TEAM-NET
 10
-15.416667
 20
0.0
 30
284.000864
 70
    64
  0
VERTEX
  5
7C
  8
TEAM-NET
 10
-30.833333
 20
0.0
 30
284.000864
 70
    64
  0
VERTEX
  5
7D
  8
TEAM-NET
 10
-46.25
 20
0.0
 30
284.000864
 70
    64
  0
VERTEX
  5
7E
  8
TEAM-NET
 10
-50.0
 20
-11.666667
 30
284.000864
 70
    64
  0
VERTEX
  5
7F
  8
TEAM-NET
 10
-50.0
 20
-27.083333
 30
284.000864
 70
    64
  0
VERTEX
  5
80
  8
TEAM-NET
 10
-50.0
 20
-42.5
 30
284.000864
 70
    64
  0
VERTEX
  5
81
  8
TEAM-NET
 10
-50.0
 20
-57.916667
 30
284.000864
 70
    64
  0
VERTEX
  5
82
  8
TEAM-NET
 10
-50.0
 20
-73.333333
 30
284.000864
 70
    64
  0
VERTEX
  5
83
  8
TEAM-NET
 10
-50.0
 20
-88.75
 30
284.000864
 70
    64
  0
VERTEX
  5
84
  8
TEAM-NET
 10
-50.0
 20
-104.166667
 30
284.000864
 70
    64
  0
VERTEX
  5
85
  8
TEAM-NET
 10
-50.0
 20
-119.583333
 30
284.000864
 70
    64
  0
VERTEX
  5
86
  8
TEAM-NET
 10
-50.0
 20
-135.0
 30
284.000864
 70
    64
  0
SEQEND
  5
87
  8
TEAM-NET
  0
POLYLINE
  5
88
  8
TEAM-NET
 66
     1
 10
0.0
 20
0.0
 30
0.0
 70
    16
 71
     2
 72
    25
  0
VERTEX
  5
89
  8
TEAM-NET
 10
156.513174
 20
-234.233049
 30
764.817763
 70
    64
  0
VERTEX
  5
8A
  8
TEAM-NET
 10
156.513174
 20
-213.441782
 30
787.113667
 70
    64
  0
VERTEX
  5
8B
  8
TEAM-NET
 10
156.513174
 20
-192.650515
 30
809.409571
 70
    64
  0
VERTEX
  5
8C
  8
TEAM-NET
 10
156.513174
 20
-171.859248
 30
831.705475
 70
    64
  0
VERTEX
  5
8D
  8
TEAM-NET
 10
156.50111
 20
-151.068015
 30
854.001343
 70
    64
  0
VERTEX
  5
8E
  8
TEAM-NET
 10
153.165304
 20
-130.434647
 30
876.127921
 70
    64
  0
VERTEX
  5
8F
  8
TEAM-NET
 10
144.036334
 20
-110.631889
 30
897.363779
 70
    64
  0
VERTEX
  5
90
  8
TEAM-NET
 10
129.459514
 20
-92.408805
 30
916.905644
 70
    64
  0
VERTEX
  5
91
  8
TEAM-NET
 10
109.986229
 20
-76.454705
 30
934.014322
 70
    64
  0
VERTEX
  5
92
  8
TEAM-NET
 10
86.35308
 20
-63.373072
 30
948.042656
 70
    64
  0
VERTEX
  5
93
  8
TEAM-NET
 10
59.45402
 20
-53.658735
 30
958.460007
 70
    64
  0
VERTEX
  5
94
  8
TEAM-NET
 10
30.306539
 20
-47.67915
 30
964.872327
 70
    64
  0
VERTEX
  5
95
  8
TEAM-NET
 10
0.013174
 20
-45.660503
 30
967.037061
 70
    64
  0
VERTEX
  5
96
  8
TEAM-NET
 10
-30.280191
 20
-47.67915
 30
964.872327
 70
    64
  0
VERTEX
  5
97
  8
TEAM-NET
 10
-59.427673
 20
-53.658735
 30
958.460007
 70
    64
  0
VERTEX
  5
98
  8
TEAM-NET
 10
-86.326733
 20
-63.373072
 30
948.042656
 70
    64
  0
VERTEX
  5
99
  8
TEAM-NET
 10
-109.959881
 20
-76.454705
 30
934.014322
 70
    64
  0
VERTEX
  5
9A
  8
TEAM-NET
 10
-129.433166
 20
-92.408805
 30
916.905644
 70
    64
  0
VERTEX
  5
9B
  8
TEAM-NET
 10
-144.009986
 20
-110.631889
 30
897.363779
 70
    64
  0
VERTEX
  5
9C
  8
TEAM-NET
 10
-153.138957
 20
-130.434647
 30
876.127921
 70
    64
  0
VERTEX
  5
9D
  8
TEAM-NET
 10
-156.474762
 20
-151.068015
 30
854.001343
 70
    64
  0
VERTEX
  5
9E
  8
TEAM-NET
 10
-156.486826
 20
-171.859248
 30
831.705475
 70
    64
  0
VERTEX
  5
9F
  8
TEAM-NET
 10
-156.486826
 20
-192.650515
 30
809.409571
 70
    64
  0
VERTEX
  5
A0
  8
TEAM-NET
 10
-156.486826
 20
-213.441782
 30
787.113667
 70
    64
  0
VERTEX
  5
A1
  8
TEAM-NET
 10
-156.486826
 20
-234.233049
 30
764.817763
 70
    64
  0
VERTEX
  5
A2
  8
TEAM-NET
 10
50.0
 20
-135.0
 30
284.000864
 70
    64
  0
VERTEX
  5
A3
  8
TEAM-NET
 10
50.0
 20
-119.583333
 30
284.000864
 70
    64
  0
VERTEX
  5
A4
  8
TEAM-NET
 10
50.0
 20
-104.166667
 30
284.000864
 70
    64
  0
VERTEX
  5
A5
  8
TEAM-NET
 10
50.0
 20
-88.75
 30
284.000864
 70
    64
  0
VERTEX
  5
A6
  8
TEAM-NET
 10
50.0
 20
-73.333333
 30
284.000864
 70
    64
  0
VERTEX
  5
A7
  8
TEAM-NET
 10
50.0
 20
-57.916667
 30
284.000864
 70
    64
  0
VERTEX
  5
A8
  8
TEAM-NET
 10
50.0
 20
-42.5
 30
284.000864
 70
    64
  0
VERTEX
  5
A9
  8
TEAM-NET
 10
50.0
 20
-27.083333
 30
284.000864
 70
    64
  0
VERTEX
  5
AA
  8
TEAM-NET
 10
50.0
 20
-11.666667
 30
284.000864
 70
    64
  0
VERTEX
  5
AB
  8
TEAM-NET
 10
46.25
 20
0.0
 30
284.000864
 70
    64
  0
VERTEX
  5
AC
  8
TEAM-NET
 10
30.833333
 20
0.0
 30
284.000864
 70
    64
  0
VERTEX
  5
AD
  8
TEAM-NET
 10
15.416667
 20
0.0
 30
284.000864
 70
    64
  0
VERTEX
  5
AE
  8
TEAM-NET
 10
0.0
 20
0.0
 30
284.000864
 70
    64
  0
VERTEX
  5
AF
  8
TEAM-NET
 10
-15.416667
 20
0.0
 30
284.000864
 70
    64
  0
VERTEX
  5
B0
  8
TEAM-NET
 10
-30.833333
 20
0.0
 30
284.000864
 70
    64
  0
VERTEX
  5
B1
  8
TEAM-NET
 10
-46.25
 20
0.0
 30
284.000864
 70
    64
  0
VERTEX
  5
B2
  8
TEAM-NET
 10
-50.0
 20
-11.666667
 30
284.000864
 70
    64
  0
VERTEX
  5
B3
  8
TEAM-NET
 10
-50.0
 20
-27.083333
 30
284.000864
 70
    64
  0
VERTEX
  5
B4
  8
TEAM-NET
 10
-50.0
 20
-42.5
 30
284.000864
 70
    64
  0
VERTEX
  5
B5
  8
TEAM-NET
 10
-50.0
 20
-57.916667
 30
284.000864
 70
    64
  0
VERTEX
  5
B6
  8
TEAM-NET
 10
-50.0
 20
-73.333333
 30
284.000864
 70
    64
  0
VERTEX
  5
B7
  8
TEAM-NET
 10
-50.0
 20
-88.75
 30
284.000864
 70
    64
  0
VERTEX
  5
B8
  8
TEAM-NET
 10
-50.0
 20
-104.166667
 30
284.000864
 70
    64
  0
VERTEX
  5
B9
  8
TEAM-NET
 10
-50.0
 20
-119.583333
 30
284.000864
 70
    64
  0
VERTEX
  5
BA
  8
TEAM-NET
 10
-50.0
 20
-135.0
 30
284.000864
 70
    64
  0
SEQEND
  5
BB
  8
TEAM-NET
  0
CIRCLE
  5
BC
  8
TEAM-INSP
 10
0.0
 20
0.0
 30
0.0
 40
10.0
  0
POLYLINE
  5
BE
  8
TEAM-DET1
 66
     1
 10
0.0
 20
0.0
 30
284.000864
  0
VERTEX
  5
3CC
  8
TEAM-DET1
 10
-50.0
 20
-135.0
 30
284.000864
  0
VERTEX
  5
3CD
  8
TEAM-DET1
 10
-50.0
 20
0.0
 30
284.000864
  0
VERTEX
  5
3CE
  8
TEAM-DET1
 10
50.0
 20
0.0
 30
284.000864
  0
VERTEX
  5
3CF
  8
TEAM-DET1
 10
50.0
 20
-135.0
 30
284.000864
  0
SEQEND
  5
3D0
  8
TEAM-DET1
  0
ARC
  5
C0
  8
TEAM-DET1
 10
0.0
 20
-135.0
 30
284.000864
 40
50.0
 50
180.0
 51
0.0
  0
POLYLINE
  5
C1
  8
TEAM-NET
 66
     1
 10
0.0
 20
0.0
 30
0.0
 70
    16
 71
     2
 72
    25
  0
VERTEX
  5
C2
  8
TEAM-NET
 10
50.0
 20
-135.0
 30
284.000864
 70
    64
  0
VERTEX
  5
C3
  8
TEAM-NET
 10
50.0
 20
-119.583333
 30
284.000864
 70
    64
  0
VERTEX
  5
C4
  8
TEAM-NET
 10
50.0
 20
-104.166667
 30
284.000864
 70
    64
  0
VERTEX
  5
C5
  8
TEAM-NET
 10
50.0
 20
-88.75
 30
284.000864
 70
    64
  0
VERTEX
  5
C6
  8
TEAM-NET
 10
50.0
 20
-73.333333
 30
284.000864
 70
    64
  0
VERTEX
  5
C7
  8
TEAM-NET
 10
50.0
 20
-57.916667
 30
284.000864
 70
    64
  0
VERTEX
  5
C8
  8
TEAM-NET
 10
50.0
 20
-42.5
 30
284.000864
 70
    64
  0
VERTEX
  5
C9
  8
TEAM-NET
 10
50.0
 20
-27.083333
 30
284.000864
 70
    64
  0
VERTEX
  5
CA
  8
TEAM-NET
 10
50.0
 20
-11.666667
 30
284.000864
 70
    64
  0
VERTEX
  5
CB
  8
TEAM-NET
 10
46.25
 20
0.0
 30
284.000864
 70
    64
  0
VERTEX
  5
CC
  8
TEAM-NET
 10
30.833333
 20
0.0
 30
284.000864
 70
    64
  0
VERTEX
  5
CD
  8
TEAM-NET
 10
15.416667
 20
0.0
 30
284.000864
 70
    64
  0
VERTEX
  5
CE
  8
TEAM-NET
 10
0.0
 20
0.0
 30
284.000864
 70
    64
  0
VERTEX
  5
CF
  8
TEAM-NET
 10
-15.416667
 20
0.0
 30
284.000864
 70
    64
  0
VERTEX
  5
D0
  8
TEAM-NET
 10
-30.833333
 20
0.0
 30
284.000864
 70
    64
  0
VERTEX
  5
D1
  8
TEAM-NET
 10
-46.25
 20
0.0
 30
284.000864
 70
    64
  0
VERTEX
  5
D2
  8
TEAM-NET
 10
-50.0
 20
-11.666667
 30
284.000864
 70
    64
  0
VERTEX
  5
D3
  8
TEAM-NET
 10
-50.0
 20
-27.083333
 30
284.000864
 70
    64
  0
VERTEX
  5
D4
  8
TEAM-NET
 10
-50.0
 20
-42.5
 30
284.000864
 70
    64
  0
VERTEX
  5
D5
  8
TEAM-NET
 10
-50.0
 20
-57.916667
 30
284.000864
 70
    64
  0
VERTEX
  5
D6
  8
TEAM-NET
 10
-50.0
 20
-73.333333
 30
284.000864
 70
    64
  0
VERTEX
  5
D7
  8
TEAM-NET
 10
-50.0
 20
-88.75
 30
284.000864
 70
    64
  0
VERTEX
  5
D8
  8
TEAM-NET
 10
-50.0
 20
-104.166667
 30
284.000864
 70
    64
  0
VERTEX
  5
D9
  8
TEAM-NET
 10
-50.0
 20
-119.583333
 30
284.000864
 70
    64
  0
VERTEX
  5
DA
  8
TEAM-NET
 10
-50.0
 20
-135.0
 30
284.000864
 70
    64
  0
VERTEX
  5
DB
  8
TEAM-NET
 10
50.0
 20
-135.0
 30
284.000864
 70
    64
  0
VERTEX
  5
DC
  8
TEAM-NET
 10
49.572243
 20
-141.52631
 30
284.000864
 70
    64
  0
VERTEX
  5
DD
  8
TEAM-NET
 10
48.296291
 20
-147.940952
 30
284.000864
 70
    64
  0
VERTEX
  5
DE
  8
TEAM-NET
 10
46.193977
 20
-154.134172
 30
284.000864
 70
    64
  0
VERTEX
  5
DF
  8
TEAM-NET
 10
43.30127
 20
-160.0
 30
284.000864
 70
    64
  0
VERTEX
  5
E0
  8
TEAM-NET
 10
39.667667
 20
-165.438071
 30
284.000864
 70
    64
  0
VERTEX
  5
E1
  8
TEAM-NET
 10
35.355339
 20
-170.355339
 30
284.000864
 70
    64
  0
VERTEX
  5
E2
  8
TEAM-NET
 10
30.438071
 20
-174.667667
 30
284.000864
 70
    64
  0
VERTEX
  5
E3
  8
TEAM-NET
 10
25.0
 20
-178.30127
 30
284.000864
 70
    64
  0
VERTEX
  5
E4
  8
TEAM-NET
 10
19.134172
 20
-181.193977
 30
284.000864
 70
    64
  0
VERTEX
  5
E5
  8
TEAM-NET
 10
12.940952
 20
-183.296291
 30
284.000864
 70
    64
  0
VERTEX
  5
E6
  8
TEAM-NET
 10
6.52631
 20
-184.572243
 30
284.000864
 70
    64
  0
VERTEX
  5
E7
  8
TEAM-NET
 10
0.0
 20
-185.0
 30
284.000864
 70
    64
  0
VERTEX
  5
E8
  8
TEAM-NET
 10
-6.52631
 20
-184.572243
 30
284.000864
 70
    64
  0
VERTEX
  5
E9
  8
TEAM-NET
 10
-12.940952
 20
-183.296291
 30
284.000864
 70
    64
  0
VERTEX
  5
EA
  8
TEAM-NET
 10
-19.134172
 20
-181.193977
 30
284.000864
 70
    64
  0
VERTEX
  5
EB
  8
TEAM-NET
 10
-25.0
 20
-178.30127
 30
284.000864
 70
    64
  0
VERTEX
  5
EC
  8
TEAM-NET
 10
-30.438071
 20
-174.667667
 30
284.000864
 70
    64
  0
VERTEX
  5
ED
  8
TEAM-NET
 10
-35.355339
 20
-170.355339
 30
284.000864
 70
    64
  0
VERTEX
  5
EE
  8
TEAM-NET
 10
-39.667667
 20
-165.438071
 30
284.000864
 70
    64
  0
VERTEX
  5
EF
  8
TEAM-NET
 10
-43.30127
 20
-160.0
 30
284.000864
 70
    64
  0
VERTEX
  5
F0
  8
TEAM-NET
 10
-46.193977
 20
-154.134172
 30
284.000864
 70
    64
  0
VERTEX
  5
F1
  8
TEAM-NET
 10
-48.296291
 20
-147.940952
 30
284.000864
 70
    64
  0
VERTEX
  5
F2
  8
TEAM-NET
 10
-49.572243
 20
-141.52631
 30
284.000864
 70
    64
  0
VERTEX
  5
F3
  8
TEAM-NET
 10
-50.0
 20
-135.0
 30
284.000864
 70
    64
  0
SEQEND
  5
F4
  8
TEAM-NET
  0
POLYLINE
  5
F5
  8
TEAM-NET
 66
     1
 10
0.0
 20
0.0
 30
0.0
 70
    16
 71
     2
 72
    25
  0
VERTEX
  5
F6
  8
TEAM-NET
 10
156.513174
 20
-234.233049
 30
764.817763
 70
    64
  0
VERTEX
  5
F7
  8
TEAM-NET
 10
156.513174
 20
-213.441782
 30
787.113667
 70
    64
  0
VERTEX
  5
F8
  8
TEAM-NET
 10
156.513174
 20
-192.650515
 30
809.409571
 70
    64
  0
VERTEX
  5
F9
  8
TEAM-NET
 10
156.513174
 20
-171.859248
 30
831.705475
 70
    64
  0
VERTEX
  5
FA
  8
TEAM-NET
 10
156.50111
 20
-151.068015
 30
854.001343
 70
    64
  0
VERTEX
  5
FB
  8
TEAM-NET
 10
153.165304
 20
-130.434647
 30
876.127921
 70
    64
  0
VERTEX
  5
FC
  8
TEAM-NET
 10
144.036334
 20
-110.631889
 30
897.363779
 70
    64
  0
VERTEX
  5
FD
  8
TEAM-NET
 10
129.459514
 20
-92.408805
 30
916.905644
 70
    64
  0
VERTEX
  5
FE
  8
TEAM-NET
 10
109.986229
 20
-76.454705
 30
934.014322
 70
    64
  0
VERTEX
  5
FF
  8
TEAM-NET
 10
86.35308
 20
-63.373072
 30
948.042656
 70
    64
  0
VERTEX
  5
100
  8
TEAM-NET
 10
59.45402
 20
-53.658735
 30
958.460007
 70
    64
  0
VERTEX
  5
101
  8
TEAM-NET
 10
30.306539
 20
-47.67915
 30
964.872327
 70
    64
  0
VERTEX
  5
102
  8
TEAM-NET
 10
0.013174
 20
-45.660503
 30
967.037061
 70
    64
  0
VERTEX
  5
103
  8
TEAM-NET
 10
-30.280191
 20
-47.67915
 30
964.872327
 70
    64
  0
VERTEX
  5
104
  8
TEAM-NET
 10
-59.427673
 20
-53.658735
 30
958.460007
 70
    64
  0
VERTEX
  5
105
  8
TEAM-NET
 10
-86.326733
 20
-63.373072
 30
948.042656
 70
    64
  0
VERTEX
  5
106
  8
TEAM-NET
 10
-109.959881
 20
-76.454705
 30
934.014322
 70
    64
  0
VERTEX
  5
107
  8
TEAM-NET
 10
-129.433166
 20
-92.408805
 30
916.905644
 70
    64
  0
VERTEX
  5
108
  8
TEAM-NET
 10
-144.009986
 20
-110.631889
 30
897.363779
 70
    64
  0
VERTEX
  5
109
  8
TEAM-NET
 10
-153.138957
 20
-130.434647
 30
876.127921
 70
    64
  0
VERTEX
  5
10A
  8
TEAM-NET
 10
-156.474762
 20
-151.068015
 30
854.001343
 70
    64
  0
VERTEX
  5
10B
  8
TEAM-NET
 10
-156.486826
 20
-171.859248
 30
831.705475
 70
    64
  0
VERTEX
  5
10C
  8
TEAM-NET
 10
-156.486826
 20
-192.650515
 30
809.409571
 70
    64
  0
VERTEX
  5
10D
  8
TEAM-NET
 10
-156.486826
 20
-213.441782
 30
787.113667
 70
    64
  0
VERTEX
  5
10E
  8
TEAM-NET
 10
-156.486826
 20
-234.233049
 30
764.817763
 70
    64
  0
VERTEX
  5
10F
  8
TEAM-NET
 10
93.883969
 20
-152.821502
 30
569.998335
 70
    64
  0
VERTEX
  5
110
  8
TEAM-NET
 10
92.963013
 20
-141.333146
 30
569.998335
 70
    64
  0
VERTEX
  5
111
  8
TEAM-NET
 10
90.239159
 20
-130.134006
 30
569.998335
 70
    64
  0
VERTEX
  5
112
  8
TEAM-NET
 10
85.822316
 20
-119.487468
 30
569.998335
 70
    64
  0
VERTEX
  5
113
  8
TEAM-NET
 10
79.874954
 20
-109.612875
 30
569.998335
 70
    64
  0
VERTEX
  5
114
  8
TEAM-NET
 10
72.589591
 20
-100.67841
 30
569.998335
 70
    64
  0
VERTEX
  5
115
  8
TEAM-NET
 10
64.168741
 20
-92.803665
 30
569.998335
 70
    64
  0
VERTEX
  5
116
  8
TEAM-NET
 10
54.810832
 20
-86.067918
 30
569.998335
 70
    64
  0
VERTEX
  5
117
  8
TEAM-NET
 10
44.702471
 20
-80.52022
 30
569.998335
 70
    64
  0
VERTEX
  5
118
  8
TEAM-NET
 10
34.015738
 20
-76.188774
 30
569.998335
 70
    64
  0
VERTEX
  5
119
  8
TEAM-NET
 10
22.908784
 20
-73.088474
 30
569.998335
 70
    64
  0
VERTEX
  5
11A
  8
TEAM-NET
 10
11.528338
 20
-71.226405
 30
569.998335
 70
    64
  0
VERTEX
  5
11B
  8
TEAM-NET
 10
0.013174
 20
-70.605466
 30
569.998335
 70
    64
  0
VERTEX
  5
11C
  8
TEAM-NET
 10
-11.501991
 20
-71.226405
 30
569.998335
 70
    64
  0
VERTEX
  5
11D
  8
TEAM-NET
 10
-22.882437
 20
-73.088474
 30
569.998335
 70
    64
  0
VERTEX
  5
11E
  8
TEAM-NET
 10
-33.98939
 20
-76.188774
 30
569.998335
 70
    64
  0
VERTEX
  5
11F
  8
TEAM-NET
 10
-44.676124
 20
-80.52022
 30
569.998335
 70
    64
  0
VERTEX
  5
120
  8
TEAM-NET
 10
-54.784485
 20
-86.067918
 30
569.998335
 70
    64
  0
VERTEX
  5
121
  8
TEAM-NET
 10
-64.142394
 20
-92.803665
 30
569.998335
 70
    64
  0
VERTEX
  5
122
  8
TEAM-NET
 10
-72.563243
 20
-100.67841
 30
569.998335
 70
    64
  0
VERTEX
  5
123
  8
TEAM-NET
 10
-79.848606
 20
-109.612875
 30
569.998335
 70
    64
  0
VERTEX
  5
124
  8
TEAM-NET
 10
-85.795969
 20
-119.487468
 30
569.998335
 70
    64
  0
VERTEX
  5
125
  8
TEAM-NET
 10
-90.212812
 20
-130.134006
 30
569.998335
 70
    64
  0
VERTEX
  5
126
  8
TEAM-NET
 10
-92.936666
 20
-141.333146
 30
569.998335
 70
    64
  0
VERTEX
  5
127
  8
TEAM-NET
 10
-93.857621
 20
-152.821502
 30
569.998335
 70
    64
  0
SEQEND
  5
128
  8
TEAM-NET
  0
POLYLINE
  5
129
  8
TEAM-NET
 66
     1
 10
0.0
 20
0.0
 30
0.0
 70
    16
 71
     2
 72
    25
  0
VERTEX
  5
12A
  8
TEAM-NET
 10
156.464499
 20
-139.112505
 30
866.822057
 70
    64
  0
VERTEX
  5
12B
  8
TEAM-NET
 10
156.457928
 20
-118.625656
 30
888.791513
 70
    64
  0
VERTEX
  5
12C
  8
TEAM-NET
 10
156.455433
 20
-98.138807
 30
910.76097
 70
    64
  0
VERTEX
  5
12D
  8
TEAM-NET
 10
156.457013
 20
-77.651957
 30
932.730426
 70
    64
  0
VERTEX
  5
12E
  8
TEAM-NET
 10
156.462669
 20
-57.165108
 30
954.699882
 70
    64
  0
VERTEX
  5
12F
  8
TEAM-NET
 10
156.4724
 20
-36.678259
 30
976.669338
 70
    64
  0
VERTEX
  5
130
  8
TEAM-NET
 10
156.486207
 20
-16.191412
 30
998.638792
 70
    64
  0
VERTEX
  5
131
  8
TEAM-NET
 10
150.197196
 20
-0.003067
 30
1015.998666
 70
    64
  0
VERTEX
  5
132
  8
TEAM-NET
 10
120.157754
 20
-0.003067
 30
1015.998666
 70
    64
  0
VERTEX
  5
133
  8
TEAM-NET
 10
90.118313
 20
-0.003067
 30
1015.998666
 70
    64
  0
VERTEX
  5
134
  8
TEAM-NET
 10
60.078872
 20
-0.003067
 30
1015.998666
 70
    64
  0
VERTEX
  5
135
  8
TEAM-NET
 10
30.039431
 20
-0.003067
 30
1015.998666
 70
    64
  0
VERTEX
  5
136
  8
TEAM-NET
 10
-0.00001
 20
-0.003067
 30
1015.998666
 70
    64
  0
VERTEX
  5
137
  8
TEAM-NET
 10
-30.039452
 20
-0.003067
 30
1015.998666
 70
    64
  0
VERTEX
  5
138
  8
TEAM-NET
 10
-60.078893
 20
-0.003067
 30
1015.998666
 70
    64
  0
VERTEX
  5
139
  8
TEAM-NET
 10
-90.118334
 20
-0.003067
 30
1015.998666
 70
    64
  0
VERTEX
  5
13A
  8
TEAM-NET
 10
-120.157775
 20
-0.003067
 30
1015.998666
 70
    64
  0
VERTEX
  5
13B
  8
TEAM-NET
 10
-150.197217
 20
-0.003067
 30
1015.998666
 70
    64
  0
VERTEX
  5
13C
  8
TEAM-NET
 10
-156.475971
 20
-16.191421
 30
998.638783
 70
    64
  0
VERTEX
  5
13D
  8
TEAM-NET
 10
-156.451917
 20
-36.678264
 30
976.669333
 70
    64
  0
VERTEX
  5
13E
  8
TEAM-NET
 10
-156.434963
 20
-57.16511
 30
954.69988
 70
    64
  0
VERTEX
  5
13F
  8
TEAM-NET
 10
-156.42511
 20
-77.651958
 30
932.730425
 70
    64
  0
VERTEX
  5
140
  8
TEAM-NET
 10
-156.422357
 20
-98.138808
 30
910.760969
 70
    64
  0
VERTEX
  5
141
  8
TEAM-NET
 10
-156.426704
 20
-118.625657
 30
888.791512
 70
    64
  0
VERTEX
  5
142
  8
TEAM-NET
 10
-156.438152
 20
-139.112505
 30
866.822057
 70
    64
  0
VERTEX
  5
143
  8
TEAM-NET
 10
156.464499
 20
-139.112505
 30
866.822057
 70
    64
  0
VERTEX
  5
144
  8
TEAM-NET
 10
154.929573
 20
-126.054106
 30
880.825476
 70
    64
  0
VERTEX
  5
145
  8
TEAM-NET
 10
150.389817
 20
-113.324448
 30
894.476364
 70
    64
  0
VERTEX
  5
146
  8
TEAM-NET
 10
143.028411
 20
-101.222911
 30
907.453673
 70
    64
  0
VERTEX
  5
147
  8
TEAM-NET
 10
133.116141
 20
-89.998817
 30
919.49004
 70
    64
  0
VERTEX
  5
148
  8
TEAM-NET
 10
120.973869
 20
-79.843333
 30
930.380463
 70
    64
  0
VERTEX
  5
149
  8
TEAM-NET
 10
106.93912
 20
-70.892395
 30
939.979169
 70
    64
  0
VERTEX
  5
14A
  8
TEAM-NET
 10
91.342604
 20
-63.236114
 30
948.189525
 70
    64
  0
VERTEX
  5
14B
  8
TEAM-NET
 10
74.495336
 20
-56.930247
 30
954.95174
 70
    64
  0
VERTEX
  5
14C
  8
TEAM-NET
 10
56.684114
 20
-52.006847
 30
960.23144
 70
    64
  0
VERTEX
  5
14D
  8
TEAM-NET
 10
38.172524
 20
-48.482848
 30
964.010466
 70
    64
  0
VERTEX
  5
14E
  8
TEAM-NET
 10
19.205115
 20
-46.366302
 30
966.280184
 70
    64
  0
VERTEX
  5
14F
  8
TEAM-NET
 10
0.013174
 20
-45.660503
 30
967.037061
 70
    64
  0
VERTEX
  5
150
  8
TEAM-NET
 10
-19.178767
 20
-46.366302
 30
966.280184
 70
    64
  0
VERTEX
  5
151
  8
TEAM-NET
 10
-38.146177
 20
-48.482848
 30
964.010466
 70
    64
  0
VERTEX
  5
152
  8
TEAM-NET
 10
-56.657766
 20
-52.006847
 30
960.23144
 70
    64
  0
VERTEX
  5
153
  8
TEAM-NET
 10
-74.468989
 20
-56.930247
 30
954.95174
 70
    64
  0
VERTEX
  5
154
  8
TEAM-NET
 10
-91.316257
 20
-63.236114
 30
948.189525
 70
    64
  0
VERTEX
  5
155
  8
TEAM-NET
 10
-106.912772
 20
-70.892395
 30
939.979169
 70
    64
  0
VERTEX
  5
156
  8
TEAM-NET
 10
-120.947521
 20
-79.843333
 30
930.380463
 70
    64
  0
VERTEX
  5
157
  8
TEAM-NET
 10
-133.089793
 20
-89.998817
 30
919.49004
 70
    64
  0
VERTEX
  5
158
  8
TEAM-NET
 10
-143.002064
 20
-101.222911
 30
907.453673
 70
    64
  0
VERTEX
  5
159
  8
TEAM-NET
 10
-150.363469
 20
-113.324448
 30
894.476364
 70
    64
  0
VERTEX
  5
15A
  8
TEAM-NET
 10
-154.903225
 20
-126.054106
 30
880.825476
 70
    64
  0
VERTEX
  5
15B
  8
TEAM-NET
 10
-156.438152
 20
-139.112505
 30
866.822057
 70
    64
  0
SEQEND
  5
15C
  8
TEAM-NET
  0
POLYLINE
  5
15D
  8
TEAM-BODY
 66
     1
 10
0.0
 20
0.0
 30
692.911667
210
-0.0
220
-0.731354
230
0.681998
  0
VERTEX
  5
3D1
  8
TEAM-BODY
 10
-156.438152
 20
539.07902
 30
692.911667
 42
0.000401
  0
VERTEX
  5
3D2
  8
TEAM-BODY
 10
-156.5
 20
743.052294
 30
692.911667
  0
VERTEX
  5
3D3
  8
TEAM-BODY
 10
156.5
 20
743.052294
 30
692.911667
 42
0.00023
  0
VERTEX
  5
3D4
  8
TEAM-BODY
 10
156.464499
 20
539.07902
 30
692.911667
  0
SEQEND
  5
3D5
  8
TEAM-BODY
  0
POLYLINE
  5
15F
  8
TEAM-BODY
 66
     1
 10
0.0
 20
0.0
 30
692.911667
210
-0.0
220
-0.731354
230
0.681998
  0
VERTEX
  5
3D6
  8
TEAM-BODY
 10
-156.486826
 20
399.605746
 30
692.911667
  0
VERTEX
  5
3D7
  8
TEAM-BODY
 10
-156.486826
 20
519.605746
 30
692.911667
 42
-1.0
  0
VERTEX
  5
3D8
  8
TEAM-BODY
 10
156.513174
 20
519.605746
 30
692.911667
  0
VERTEX
  5
3D9
  8
TEAM-BODY
 10
156.513174
 20
399.605746
 30
692.911667
  0
SEQEND
  5
3DA
  8
TEAM-BODY
  0
POLYLINE
  5
160
  8
TEAM-BODY
 66
     1
 10
0.0
 20
0.0
 30
-692.911667
 70
   128
210
0.0
220
0.731354
230
-0.681998
  0
VERTEX
  5
3DB
  8
TEAM-BODY
 10
156.438152
 20
539.07902
 30
-692.911667
  0
VERTEX
  5
3DC
  8
TEAM-BODY
 10
155.684796
 20
552.509988
 30
-692.911667
  0
VERTEX
  5
3DD
  8
TEAM-BODY
 10
153.431983
 20
565.811608
 30
-692.911667
  0
VERTEX
  5
3DE
  8
TEAM-BODY
 10
149.70141
 20
578.855779
 30
-692.911667
  0
VERTEX
  5
3DF
  8
TEAM-BODY
 10
144.529004
 20
591.516878
 30
-692.911667
  0
VERTEX
  5
3E0
  8
TEAM-BODY
 10
137.964577
 20
603.672971
 30
-692.911667
  0
VERTEX
  5
3E1
  8
TEAM-BODY
 10
130.071349
 20
615.20699
 30
-692.911667
  0
VERTEX
  5
3E2
  8
TEAM-BODY
 10
120.925336
 20
626.007855
 30
-692.911667
  0
VERTEX
  5
3E3
  8
TEAM-BODY
 10
110.614619
 20
635.971547
 30
-692.911667
  0
VERTEX
  5
3E4
  8
TEAM-BODY
 10
99.238496
 20
645.002112
 30
-692.911667
  0
VERTEX
  5
3E5
  8
TEAM-BODY
 10
86.906526
 20
653.012579
 30
-692.911667
  0
VERTEX
  5
3E6
  8
TEAM-BODY
 10
73.73747
 20
659.925804
 30
-692.911667
  0
VERTEX
  5
3E7
  8
TEAM-BODY
 10
59.858156
 20
665.675208
 30
-692.911667
  0
VERTEX
  5
3E8
  8
TEAM-BODY
 10
45.402249
 20
670.205421
 30
-692.911667
  0
VERTEX
  5
3E9
  8
TEAM-BODY
 10
30.508966
 20
673.472816
 30
-692.911667
  0
VERTEX
  5
3EA
  8
TEAM-BODY
 10
15.321738
 20
675.445925
 30
-692.911667
  0
VERTEX
  5
3EB
  8
TEAM-BODY
 10
-0.013174
 20
676.105746
 30
-692.911667
  0
VERTEX
  5
3EC
  8
TEAM-BODY
 10
-15.348085
 20
675.445925
 30
-692.911667
  0
VERTEX
  5
3ED
  8
TEAM-BODY
 10
-30.535313
 20
673.472816
 30
-692.911667
  0
VERTEX
  5
3EE
  8
TEAM-BODY
 10
-45.428596
 20
670.205421
 30
-692.911667
  0
VERTEX
  5
3EF
  8
TEAM-BODY
 10
-59.884504
 20
665.675208
 30
-692.911667
  0
VERTEX
  5
3F0
  8
TEAM-BODY
 10
-73.763818
 20
659.925804
 30
-692.911667
  0
VERTEX
  5
3F1
  8
TEAM-BODY
 10
-86.932873
 20
653.012579
 30
-692.911667
  0
VERTEX
  5
3F2
  8
TEAM-BODY
 10
-99.264844
 20
645.002112
 30
-692.911667
  0
VERTEX
  5
3F3
  8
TEAM-BODY
 10
-110.640967
 20
635.971547
 30
-692.911667
  0
VERTEX
  5
3F4
  8
TEAM-BODY
 10
-120.951684
 20
626.007855
 30
-692.911667
  0
VERTEX
  5
3F5
  8
TEAM-BODY
 10
-130.097697
 20
615.20699
 30
-692.911667
  0
VERTEX
  5
3F6
  8
TEAM-BODY
 10
-137.990924
 20
603.672971
 30
-692.911667
  0
VERTEX
  5
3F7
  8
TEAM-BODY
 10
-144.555351
 20
591.516878
 30
-692.911667
  0
VERTEX
  5
3F8
  8
TEAM-BODY
 10
-149.727758
 20
578.855779
 30
-692.911667
  0
VERTEX
  5
3F9
  8
TEAM-BODY
 10
-153.458331
 20
565.811608
 30
-692.911667
  0
VERTEX
  5
3FA
  8
TEAM-BODY
 10
-155.711143
 20
552.509988
 30
-692.911667
  0
VERTEX
  5
3FB
  8
TEAM-BODY
 10
-156.464499
 20
539.07902
 30
-692.911667
  0
SEQEND
  5
3FC
  8
TEAM-BODY
  0
POLYLINE
  5
161
  8
TEAM-NET
 66
     1
 10
0.0
 20
0.0
 30
0.0
 70
    16
 71
     2
 72
    25
  0
VERTEX
  5
162
  8
TEAM-NET
 10
156.513174
 20
-234.233049
 30
764.817763
 70
    64
  0
VERTEX
  5
163
  8
TEAM-NET
 10
155.174295
 20
-248.164468
 30
749.878145
 70
    64
  0
VERTEX
  5
164
  8
TEAM-NET
 10
151.180566
 20
-261.857516
 30
735.194149
 70
    64
  0
VERTEX
  5
165
  8
TEAM-NET
 10
144.600321
 20
-275.077902
 30
721.017021
 70
    64
  0
VERTEX
  5
166
  8
TEAM-NET
 10
135.546149
 20
-287.599421
 30
707.589335
 70
    64
  0
VERTEX
  5
167
  8
TEAM-NET
 10
124.172972
 20
-299.207827
 30
695.140844
 70
    64
  0
VERTEX
  5
168
  8
TEAM-NET
 10
110.675385
 20
-309.704496
 30
683.884545
 70
    64
  0
VERTEX
  5
169
  8
TEAM-NET
 10
95.284337
 20
-318.909828
 30
674.013035
 70
    64
  0
VERTEX
  5
16A
  8
TEAM-NET
 10
78.263174
 20
-326.666316
 30
665.695219
 70
    64
  0
VERTEX
  5
16B
  8
TEAM-NET
 10
59.903131
 20
-332.841246
 30
659.073417
 70
    64
  0
VERTEX
  5
16C
  8
TEAM-NET
 10
40.518354
 20
-337.328963
 30
654.260931
 70
    64
  0
VERTEX
  5
16D
  8
TEAM-NET
 10
20.440523
 20
-340.052679
 30
651.340102
 70
    64
  0
VERTEX
  5
16E
  8
TEAM-NET
 10
0.013174
 20
-340.965793
 30
650.360908
 70
    64
  0
VERTEX
  5
16F
  8
TEAM-NET
 10
-20.414175
 20
-340.052679
 30
651.340102
 70
    64
  0
VERTEX
  5
170
  8
TEAM-NET
 10
-40.492007
 20
-337.328963
 30
654.260931
 70
    64
  0
VERTEX
  5
171
  8
TEAM-NET
 10
-59.876783
 20
-332.841246
 30
659.073417
 70
    64
  0
VERTEX
  5
172
  8
TEAM-NET
 10
-78.236826
 20
-326.666316
 30
665.695219
 70
    64
  0
VERTEX
  5
173
  8
TEAM-NET
 10
-95.25799
 20
-318.909828
 30
674.013035
 70
    64
  0
VERTEX
  5
174
  8
TEAM-NET
 10
-110.649037
 20
-309.704496
 30
683.884545
 70
    64
  0
VERTEX
  5
175
  8
TEAM-NET
 10
-124.146624
 20
-299.207827
 30
695.140844
 70
    64
  0
VERTEX
  5
176
  8
TEAM-NET
 10
-135.519802
 20
-287.599421
 30
707.589335
 70
    64
  0
VERTEX
  5
177
  8
TEAM-NET
 10
-144.573973
 20
-275.077902
 30
721.017021
 70
    64
  0
VERTEX
  5
178
  8
TEAM-NET
 10
-151.154218
 20
-261.857516
 30
735.194149
 70
    64
  0
VERTEX
  5
179
  8
TEAM-NET
 10
-155.147947
 20
-248.164468
 30
749.878145
 70
    64
  0
VERTEX
  5
17A
  8
TEAM-NET
 10
-156.486826
 20
-234.233049
 30
764.817763
 70
    64
  0
VERTEX
  5
17B
  8
TEAM-NET
 10
93.883969
 20
-152.821502
 30
569.998335
 70
    64
  0
VERTEX
  5
17C
  8
TEAM-NET
 10
92.963013
 20
-164.309857
 30
569.998335
 70
    64
  0
VERTEX
  5
17D
  8
TEAM-NET
 10
90.239159
 20
-175.508997
 30
569.998335
 70
    64
  0
VERTEX
  5
17E
  8
TEAM-NET
 10
85.822316
 20
-186.155536
 30
569.998335
 70
    64
  0
VERTEX
  5
17F
  8
TEAM-NET
 10
79.874954
 20
-196.030129
 30
569.998335
 70
    64
  0
VERTEX
  5
180
  8
TEAM-NET
 10
72.589591
 20
-204.964594
 30
569.998335
 70
    64
  0
VERTEX
  5
181
  8
TEAM-NET
 10
64.168741
 20
-212.839339
 30
569.998335
 70
    64
  0
VERTEX
  5
182
  8
TEAM-NET
 10
54.810832
 20
-219.575086
 30
569.998335
 70
    64
  0
VERTEX
  5
183
  8
TEAM-NET
 10
44.702471
 20
-225.122783
 30
569.998335
 70
    64
  0
VERTEX
  5
184
  8
TEAM-NET
 10
34.015738
 20
-229.45423
 30
569.998335
 70
    64
  0
VERTEX
  5
185
  8
TEAM-NET
 10
22.908784
 20
-232.55453
 30
569.998335
 70
    64
  0
VERTEX
  5
186
  8
TEAM-NET
 10
11.528338
 20
-234.416599
 30
569.998335
 70
    64
  0
VERTEX
  5
187
  8
TEAM-NET
 10
0.013174
 20
-235.037538
 30
569.998335
 70
    64
  0
VERTEX
  5
188
  8
TEAM-NET
 10
-11.501991
 20
-234.416599
 30
569.998335
 70
    64
  0
VERTEX
  5
189
  8
TEAM-NET
 10
-22.882437
 20
-232.55453
 30
569.998335
 70
    64
  0
VERTEX
  5
18A
  8
TEAM-NET
 10
-33.98939
 20
-229.45423
 30
569.998335
 70
    64
  0
VERTEX
  5
18B
  8
TEAM-NET
 10
-44.676124
 20
-225.122783
 30
569.998335
 70
    64
  0
VERTEX
  5
18C
  8
TEAM-NET
 10
-54.784485
 20
-219.575086
 30
569.998335
 70
    64
  0
VERTEX
  5
18D
  8
TEAM-NET
 10
-64.142394
 20
-212.839339
 30
569.998335
 70
    64
  0
VERTEX
  5
18E
  8
TEAM-NET
 10
-72.563243
 20
-204.964594
 30
569.998335
 70
    64
  0
VERTEX
  5
18F
  8
TEAM-NET
 10
-79.848606
 20
-196.030129
 30
569.998335
 70
    64
  0
VERTEX
  5
190
  8
TEAM-NET
 10
-85.795969
 20
-186.155536
 30
569.998335
 70
    64
  0
VERTEX
  5
191
  8
TEAM-NET
 10
-90.212812
 20
-175.508997
 30
569.998335
 70
    64
  0
VERTEX
  5
192
  8
TEAM-NET
 10
-92.936666
 20
-164.309857
 30
569.998335
 70
    64
  0
VERTEX
  5
193
  8
TEAM-NET
 10
-93.857621
 20
-152.821502
 30
569.998335
 70
    64
  0
SEQEND
  5
194
  8
TEAM-NET
  0
ARC
  5
195
  8
TEAM-BODY
 10
0.013174
 20
399.605746
 30
692.911667
 40
156.5
210
-0.0
220
-0.731354
230
0.681998
 50
180.0
 51
0.0
  0
POLYLINE
  5
196
  8
TEAM-NET2
 66
     1
 10
0.0
 20
0.0
 30
-569.998335
 70
   128
210
0.0
220
0.0
230
-1.0
  0
VERTEX
  5
3FD
  8
TEAM-NET2
 10
93.857621
 20
-152.821502
 30
-569.998335
  0
VERTEX
  5
3FE
  8
TEAM-NET2
 10
93.117422
 20
-142.5171
 30
-569.998335
  0
VERTEX
  5
3FF
  8
TEAM-NET2
 10
90.908498
 20
-132.375205
 30
-569.998335
  0
VERTEX
  5
400
  8
TEAM-NET2
 10
87.265684
 20
-122.55576
 30
-569.998335
  0
VERTEX
  5
401
  8
TEAM-NET2
 10
82.246431
 20
-113.213624
 30
-569.998335
  0
VERTEX
  5
402
  8
TEAM-NET2
 10
75.929895
 20
-104.496128
 30
-569.998335
  0
VERTEX
  5
403
  8
TEAM-NET2
 10
68.415691
 20
-96.540752
 30
-569.998335
  0
VERTEX
  5
404
  8
TEAM-NET2
 10
59.822323
 20
-89.472957
 30
-569.998335
  0
VERTEX
  5
405
  8
TEAM-NET2
 10
50.285314
 20
-83.404207
 30
-569.998335
  0
VERTEX
  5
406
  8
TEAM-NET2
 10
39.955067
 20
-78.430208
 30
-569.998335
  0
VERTEX
  5
407
  8
TEAM-NET2
 10
28.994497
 20
-74.629405
 30
-569.998335
  0
VERTEX
  5
408
  8
TEAM-NET2
 10
17.576459
 20
-72.061738
 30
-569.998335
  0
VERTEX
  5
409
  8
TEAM-NET2
 10
5.881022
 20
-70.7677
 30
-569.998335
  0
VERTEX
  5
40A
  8
TEAM-NET2
 10
-5.90737
 20
-70.7677
 30
-569.998335
  0
VERTEX
  5
40B
  8
TEAM-NET2
 10
-17.602807
 20
-72.061738
 30
-569.998335
  0
VERTEX
  5
40C
  8
TEAM-NET2
 10
-29.020845
 20
-74.629405
 30
-569.998335
  0
VERTEX
  5
40D
  8
TEAM-NET2
 10
-39.981414
 20
-78.430208
 30
-569.998335
  0
VERTEX
  5
40E
  8
TEAM-NET2
 10
-50.311661
 20
-83.404207
 30
-569.998335
  0
VERTEX
  5
40F
  8
TEAM-NET2
 10
-59.848671
 20
-89.472957
 30
-569.998335
  0
VERTEX
  5
410
  8
TEAM-NET2
 10
-68.442039
 20
-96.540752
 30
-569.998335
  0
VERTEX
  5
411
  8
TEAM-NET2
 10
-75.956242
 20
-104.496128
 30
-569.998335
  0
VERTEX
  5
412
  8
TEAM-NET2
 10
-82.272779
 20
-113.213624
 30
-569.998335
  0
VERTEX
  5
413
  8
TEAM-NET2
 10
-87.292032
 20
-122.55576
 30
-569.998335
  0
VERTEX
  5
414
  8
TEAM-NET2
 10
-90.934845
 20
-132.375205
 30
-569.998335
  0
VERTEX
  5
415
  8
TEAM-NET2
 10
-93.14377
 20
-142.5171
 30
-569.998335
  0
VERTEX
  5
416
  8
TEAM-NET2
 10
-93.883969
 20
-152.821502
 30
-569.998335
  0
SEQEND
  5
417
  8
TEAM-NET2
  0
POLYLINE
  5
198
  8
TEAM-NET2
 66
     1
 10
0.0
 20
0.0
 30
569.998335
 70
   128
  0
VERTEX
  5
418
  8
TEAM-NET2
 10
-93.857621
 20
-152.821502
 30
569.998335
  0
VERTEX
  5
419
  8
TEAM-NET2
 10
-93.117422
 20
-163.125903
 30
569.998335
  0
VERTEX
  5
41A
  8
TEAM-NET2
 10
-90.908498
 20
-173.267798
 30
569.998335
  0
VERTEX
  5
41B
  8
TEAM-NET2
 10
-87.265684
 20
-183.087243
 30
569.998335
  0
VERTEX
  5
41C
  8
TEAM-NET2
 10
-82.246431
 20
-192.429379
 30
569.998335
  0
VERTEX
  5
41D
  8
TEAM-NET2
 10
-75.929895
 20
-201.146875
 30
569.998335
  0
VERTEX
  5
41E
  8
TEAM-NET2
 10
-68.415691
 20
-209.102251
 30
569.998335
  0
VERTEX
  5
41F
  8
TEAM-NET2
 10
-59.822323
 20
-216.170046
 30
569.998335
  0
VERTEX
  5
420
  8
TEAM-NET2
 10
-50.285314
 20
-222.238797
 30
569.998335
  0
VERTEX
  5
421
  8
TEAM-NET2
 10
-39.955067
 20
-227.212795
 30
569.998335
  0
VERTEX
  5
422
  8
TEAM-NET2
 10
-28.994497
 20
-231.013598
 30
569.998335
  0
VERTEX
  5
423
  8
TEAM-NET2
 10
-17.576459
 20
-233.581266
 30
569.998335
  0
VERTEX
  5
424
  8
TEAM-NET2
 10
-5.881022
 20
-234.875303
 30
569.998335
  0
VERTEX
  5
425
  8
TEAM-NET2
 10
5.90737
 20
-234.875303
 30
569.998335
  0
VERTEX
  5
426
  8
TEAM-NET2
 10
17.602807
 20
-233.581266
 30
569.998335
  0
VERTEX
  5
427
  8
TEAM-NET2
 10
29.020845
 20
-231.013598
 30
569.998335
  0
VERTEX
  5
428
  8
TEAM-NET2
 10
39.981414
 20
-227.212795
 30
569.998335
  0
VERTEX
  5
429
  8
TEAM-NET2
 10
50.311661
 20
-222.238797
 30
569.998335
  0
VERTEX
  5
42A
  8
TEAM-NET2
 10
59.848671
 20
-216.170046
 30
569.998335
  0
VERTEX
  5
42B
  8
TEAM-NET2
 10
68.442039
 20
-209.102251
 30
569.998335
  0
VERTEX
  5
42C
  8
TEAM-NET2
 10
75.956242
 20
-201.146875
 30
569.998335
  0
VERTEX
  5
42D
  8
TEAM-NET2
 10
82.272779
 20
-192.429379
 30
569.998335
  0
VERTEX
  5
42E
  8
TEAM-NET2
 10
87.292032
 20
-183.087243
 30
569.998335
  0
VERTEX
  5
42F
  8
TEAM-NET2
 10
90.934845
 20
-173.267798
 30
569.998335
  0
VERTEX
  5
430
  8
TEAM-NET2
 10
93.14377
 20
-163.125903
 30
569.998335
  0
VERTEX
  5
431
  8
TEAM-NET2
 10
93.883969
 20
-152.821502
 30
569.998335
  0
SEQEND
  5
432
  8
TEAM-NET2
  0
POLYLINE
  5
199
  8
TEAM-NET
 66
     1
 10
0.0
 20
0.0
 30
0.0
 70
    16
 71
     2
 72
    25
  0
VERTEX
  5
19A
  8
TEAM-NET
 10
93.883969
 20
-152.821502
 30
569.998335
 70
    64
  0
VERTEX
  5
19B
  8
TEAM-NET
 10
92.963013
 20
-141.333146
 30
569.998335
 70
    64
  0
VERTEX
  5
19C
  8
TEAM-NET
 10
90.239159
 20
-130.134006
 30
569.998335
 70
    64
  0
VERTEX
  5
19D
  8
TEAM-NET
 10
85.822316
 20
-119.487468
 30
569.998335
 70
    64
  0
VERTEX
  5
19E
  8
TEAM-NET
 10
79.874954
 20
-109.612875
 30
569.998335
 70
    64
  0
VERTEX
  5
19F
  8
TEAM-NET
 10
72.589591
 20
-100.67841
 30
569.998335
 70
    64
  0
VERTEX
  5
1A0
  8
TEAM-NET
 10
64.168741
 20
-92.803665
 30
569.998335
 70
    64
  0
VERTEX
  5
1A1
  8
TEAM-NET
 10
54.810832
 20
-86.067918
 30
569.998335
 70
    64
  0
VERTEX
  5
1A2
  8
TEAM-NET
 10
44.702471
 20
-80.52022
 30
569.998335
 70
    64
  0
VERTEX
  5
1A3
  8
TEAM-NET
 10
34.015738
 20
-76.188774
 30
569.998335
 70
    64
  0
VERTEX
  5
1A4
  8
TEAM-NET
 10
22.908784
 20
-73.088474
 30
569.998335
 70
    64
  0
VERTEX
  5
1A5
  8
TEAM-NET
 10
11.528338
 20
-71.226405
 30
569.998335
 70
    64
  0
VERTEX
  5
1A6
  8
TEAM-NET
 10
0.013174
 20
-70.605466
 30
569.998335
 70
    64
  0
VERTEX
  5
1A7
  8
TEAM-NET
 10
-11.501991
 20
-71.226405
 30
569.998335
 70
    64
  0
VERTEX
  5
1A8
  8
TEAM-NET
 10
-22.882437
 20
-73.088474
 30
569.998335
 70
    64
  0
VERTEX
  5
1A9
  8
TEAM-NET
 10
-33.98939
 20
-76.188774
 30
569.998335
 70
    64
  0
VERTEX
  5
1AA
  8
TEAM-NET
 10
-44.676124
 20
-80.52022
 30
569.998335
 70
    64
  0
VERTEX
  5
1AB
  8
TEAM-NET
 10
-54.784485
 20
-86.067918
 30
569.998335
 70
    64
  0
VERTEX
  5
1AC
  8
TEAM-NET
 10
-64.142394
 20
-92.803665
 30
569.998335
 70
    64
  0
VERTEX
  5
1AD
  8
TEAM-NET
 10
-72.563243
 20
-100.67841
 30
569.998335
 70
    64
  0
VERTEX
  5
1AE
  8
TEAM-NET
 10
-79.848606
 20
-109.612875
 30
569.998335
 70
    64
  0
VERTEX
  5
1AF
  8
TEAM-NET
 10
-85.795969
 20
-119.487468
 30
569.998335
 70
    64
  0
VERTEX
  5
1B0
  8
TEAM-NET
 10
-90.212812
 20
-130.134006
 30
569.998335
 70
    64
  0
VERTEX
  5
1B1
  8
TEAM-NET
 10
-92.936666
 20
-141.333146
 30
569.998335
 70
    64
  0
VERTEX
  5
1B2
  8
TEAM-NET
 10
-93.857621
 20
-152.821502
 30
569.998335
 70
    64
  0
VERTEX
  5
1B3
  8
TEAM-NET
 10
93.883969
 20
-152.821502
 30
569.998335
 70
    64
  0
VERTEX
  5
1B4
  8
TEAM-NET
 10
92.963013
 20
-164.309857
 30
569.998335
 70
    64
  0
VERTEX
  5
1B5
  8
TEAM-NET
 10
90.239159
 20
-175.508997
 30
569.998335
 70
    64
  0
VERTEX
  5
1B6
  8
TEAM-NET
 10
85.822316
 20
-186.155536
 30
569.998335
 70
    64
  0
VERTEX
  5
1B7
  8
TEAM-NET
 10
79.874954
 20
-196.030129
 30
569.998335
 70
    64
  0
VERTEX
  5
1B8
  8
TEAM-NET
 10
72.589591
 20
-204.964594
 30
569.998335
 70
    64
  0
VERTEX
  5
1B9
  8
TEAM-NET
 10
64.168741
 20
-212.839339
 30
569.998335
 70
    64
  0
VERTEX
  5
1BA
  8
TEAM-NET
 10
54.810832
 20
-219.575086
 30
569.998335
 70
    64
  0
VERTEX
  5
1BB
  8
TEAM-NET
 10
44.702471
 20
-225.122783
 30
569.998335
 70
    64
  0
VERTEX
  5
1BC
  8
TEAM-NET
 10
34.015738
 20
-229.45423
 30
569.998335
 70
    64
  0
VERTEX
  5
1BD
  8
TEAM-NET
 10
22.908784
 20
-232.55453
 30
569.998335
 70
    64
  0
VERTEX
  5
1BE
  8
TEAM-NET
 10
11.528338
 20
-234.416599
 30
569.998335
 70
    64
  0
VERTEX
  5
1BF
  8
TEAM-NET
 10
0.013174
 20
-235.037538
 30
569.998335
 70
    64
  0
VERTEX
  5
1C0
  8
TEAM-NET
 10
-11.501991
 20
-234.416599
 30
569.998335
 70
    64
  0
VERTEX
  5
1C1
  8
TEAM-NET
 10
-22.882437
 20
-232.55453
 30
569.998335
 70
    64
  0
VERTEX
  5
1C2
  8
TEAM-NET
 10
-33.98939
 20
-229.45423
 30
569.998335
 70
    64
  0
VERTEX
  5
1C3
  8
TEAM-NET
 10
-44.676124
 20
-225.122783
 30
569.998335
 70
    64
  0
VERTEX
  5
1C4
  8
TEAM-NET
 10
-54.784485
 20
-219.575086
 30
569.998335
 70
    64
  0
VERTEX
  5
1C5
  8
TEAM-NET
 10
-64.142394
 20
-212.839339
 30
569.998335
 70
    64
  0
VERTEX
  5
1C6
  8
TEAM-NET
 10
-72.563243
 20
-204.964594
 30
569.998335
 70
    64
  0
VERTEX
  5
1C7
  8
TEAM-NET
 10
-79.848606
 20
-196.030129
 30
569.998335
 70
    64
  0
VERTEX
  5
1C8
  8
TEAM-NET
 10
-85.795969
 20
-186.155536
 30
569.998335
 70
    64
  0
VERTEX
  5
1C9
  8
TEAM-NET
 10
-90.212812
 20
-175.508997
 30
569.998335
 70
    64
  0
VERTEX
  5
1CA
  8
TEAM-NET
 10
-92.936666
 20
-164.309857
 30
569.998335
 70
    64
  0
VERTEX
  5
1CB
  8
TEAM-NET
 10
-93.857621
 20
-152.821502
 30
569.998335
 70
    64
  0
SEQEND
  5
1CC
  8
TEAM-NET
  0
TEXT
  5
1CD
  8
TEAM-TXT
 10
-136.231057
 20
-174.668693
 30
660.0
 40
30.0
  1
team 347263
 41
0.8
 51
15.0
  7
TEAM
  0
ENDSEC
  0
EOF
