  0
SECTION
  2
HEADER
  9
$ACADVER
  1
AC1009
  9
$INSBASE
 10
0.0
 20
0.0
 30
0.0
  9
$EXTMIN
 10
-316.432952
 20
-491.426391
 30
-0.024412
  9
$EXTMAX
 10
316.432954
 20
10.014039
 30
800.024416
  9
$LIMMIN
 10
-316.432952
 20
-491.426391
  9
$LIMMAX
 10
316.432954
 20
10.014039
  9
$ORTHOMODE
 70
     1
  9
$REGENMODE
 70
     1
  9
$FILLMODE
 70
     1
  9
$QTEXTMODE
 70
     0
  9
$MIRRTEXT
 70
     0
  9
$DRAGMODE
 70
     2
  9
$LTSCALE
 40
50.0
  9
$OSMODE
 70
     0
  9
$ATTMODE
 70
     1
  9
$TEXTSIZE
 40
200.0
  9
$TRACEWID
 40
1.0
  9
$TEXTSTYLE
  7
STANDARD
  9
$CLAYER
  8
TEAM-MAS
  9
$CELTYPE
  6
BYLAYER
  9
$CECOLOR
 62
   256
  9
$DIMSCALE
 40
1.0
  9
$DIMASZ
 40
20.0
  9
$DIMEXO
 40
10.0
  9
$DIMDLI
 40
1.0
  9
$DIMRND
 40
0.0
  9
$DIMDLE
 40
0.0
  9
$DIMEXE
 40
1.0
  9
$DIMTP
 40
0.0
  9
$DIMTM
 40
0.0
  9
$DIMTXT
 40
35.0
  9
$DIMCEN
 40
1.0
  9
$DIMTSZ
 40
0.0
  9
$DIMTOL
 70
     0
  9
$DIMLIM
 70
     0
  9
$DIMTIH
 70
     0
  9
$DIMTOH
 70
     0
  9
$DIMSE1
 70
     0
  9
$DIMSE2
 70
     0
  9
$DIMTAD
 70
     0
  9
$DIMZIN
 70
     0
  9
$DIMBLK
  1

  9
$DIMASO
 70
     1
  9
$DIMSHO
 70
     0
  9
$DIMPOST
  1

  9
$DIMAPOST
  1

  9
$DIMALT
 70
     0
  9
$DIMALTD
 70
     2
  9
$DIMALTF
 40
25.4
  9
$DIMLFAC
 40
1.0
  9
$DIMTOFL
 70
     0
  9
$DIMTVP
 40
0.0
  9
$DIMTIX
 70
     0
  9
$DIMSOXD
 70
     0
  9
$DIMSAH
 70
     0
  9
$DIMBLK1
  1

  9
$DIMBLK2
  1

  9
$DIMSTYLE
  2
TEAM
  9
$DIMCLRD
 70
     9
  9
$DIMCLRE
 70
     9
  9
$DIMCLRT
 70
    11
  9
$DIMTFAC
 40
1.0
  9
$DIMGAP
 40
15.0
  9
$LUNITS
 70
     2
  9
$LUPREC
 70
     1
  9
$SKETCHINC
 40
1.0
  9
$FILLETRAD
 40
30.0
  9
$AUNITS
 70
     0
  9
$AUPREC
 70
     0
  9
$MENU
  1
ROPLANS
  9
$ELEVATION
 40
0.0
  9
$PELEVATION
 40
0.0
  9
$THICKNESS
 40
0.0
  9
$LIMCHECK
 70
     0
  9
$BLIPMODE
 70
     1
  9
$CHAMFERA
 40
0.0
  9
$CHAMFERB
 40
0.0
  9
$SKPOLY
 70
     0
  9
$TDCREATE
 40
2450392.957851
  9
$TDUPDATE
 40
2455716.010657
  9
$TDINDWG
 40
2.41886
  9
$TDUSRTIMER
 40
2.41886
  9
$USRTIMER
 70
     1
  9
$ANGBASE
 50
0.0
  9
$ANGDIR
 70
     0
  9
$PDMODE
 70
     0
  9
$PDSIZE
 40
0.0
  9
$PLINEWID
 40
0.0
  9
$COORDS
 70
     2
  9
$SPLFRAME
 70
     0
  9
$SPLINETYPE
 70
     6
  9
$SPLINESEGS
 70
     8
  9
$ATTDIA
 70
     0
  9
$ATTREQ
 70
     0
  9
$HANDLING
 70
     1
  9
$HANDSEED
  5
3ED
  9
$SURFTAB1
 70
    36
  9
$SURFTAB2
 70
    36
  9
$SURFTYPE
 70
     6
  9
$SURFU
 70
     6
  9
$SURFV
 70
     6
  9
$UCSNAME
  2

  9
$UCSORG
 10
0.0
 20
0.0
 30
0.0
  9
$UCSXDIR
 10
1.0
 20
0.0
 30
0.0
  9
$UCSYDIR
 10
0.0
 20
1.0
 30
0.0
  9
$PUCSNAME
  2

  9
$PUCSORG
 10
0.0
 20
0.0
 30
0.0
  9
$PUCSXDIR
 10
1.0
 20
0.0
 30
0.0
  9
$PUCSYDIR
 10
0.0
 20
1.0
 30
0.0
  9
$USERI1
 70
     0
  9
$USERI2
 70
     0
  9
$USERI3
 70
     0
  9
$USERI4
 70
     0
  9
$USERI5
 70
     0
  9
$USERR1
 40
0.0
  9
$USERR2
 40
0.0
  9
$USERR3
 40
0.0
  9
$USERR4
 40
0.0
  9
$USERR5
 40
0.0
  9
$WORLDVIEW
 70
     1
  9
$SHADEDGE
 70
     0
  9
$SHADEDIF
 70
    70
  9
$TILEMODE
 70
     1
  9
$MAXACTVP
 70
    16
  9
$PLIMCHECK
 70
     0
  9
$PEXTMIN
 10
-0.805942
 20
0.005011
 30
0.0
  9
$PEXTMAX
 10
20.250094
 20
11.356329
 30
0.0
  9
$PLIMMIN
 10
0.0
 20
0.0
  9
$PLIMMAX
 10
12.0
 20
9.0
  9
$UNITMODE
 70
     0
  9
$VISRETAIN
 70
     0
  9
$PLINEGEN
 70
     0
  9
$PSLTSCALE
 70
     0
  0
ENDSEC
  0
SECTION
  2
TABLES
  0
TABLE
  2
VPORT
 70
     2
  0
VPORT
  2
*ACTIVE
 70
     0
 10
0.0
 20
0.0
 11
1.0
 21
1.0
 12
0.000001
 22
-240.706176
 13
0.0
 23
0.0
 14
1.0
 24
1.0
 15
50.0
 25
50.0
 16
0.0
 26
0.0
 36
1.0
 17
0.0
 27
0.0
 37
0.0
 40
504.5199
 41
1.865779
 42
50.0
 43
0.0
 44
0.0
 50
0.0
 51
0.0
 71
     0
 72
   100
 73
     1
 74
     1
 75
     0
 76
     0
 77
     0
 78
     0
  0
ENDTAB
  0
TABLE
  2
LTYPE
 70
     1
  0
LTYPE
  2
CONTINUOUS
 70
     0
  3
Solid Line
 72
    65
 73
     0
 40
0.0
  0
ENDTAB
  0
TABLE
  2
LAYER
 70
     8
  0
LAYER
  2
0
 70
     0
 62
     7
  6
CONTINUOUS
  0
LAYER
  2
TEAM-NET1
 70
     0
 62
    12
  6
CONTINUOUS
  0
LAYER
  2
TEAM-BODY
 70
     0
 62
     2
  6
CONTINUOUS
  0
LAYER
  2
TEAM-MAS
 70
     0
 62
     9
  6
CONTINUOUS
  0
LAYER
  2
TEAM-TXT
 70
     0
 62
    11
  6
CONTINUOUS
  0
LAYER
  2
TEAM-DET1
 70
     0
 62
     4
  6
CONTINUOUS
  0
LAYER
  2
TEAM-DET3
 70
     0
 62
    14
  6
CONTINUOUS
  0
LAYER
  2
TEAM-INSP
 70
     0
 62
     5
  6
CONTINUOUS
  0
ENDTAB
  0
TABLE
  2
STYLE
 70
     2
  0
STYLE
  2
STANDARD
 70
     0
 40
0.0
 41
1.0
 50
0.0
 71
     0
 42
200.0
  3
txt
  4

  0
STYLE
  2
TEAM
 70
     0
 40
0.0
 41
0.8
 50
15.0
 71
     0
 42
7.0
  3
ROMANS.shx
  4

  0
ENDTAB
  0
TABLE
  2
VIEW
 70
     0
  0
ENDTAB
  0
TABLE
  2
UCS
 70
     0
  0
ENDTAB
  0
TABLE
  2
APPID
 70
     1
  0
APPID
  2
ACAD
 70
     0
  0
ENDTAB
  0
TABLE
  2
DIMSTYLE
 70
     1
  0
DIMSTYLE
  2
TEAM
 70
     0
  3

  4

  5

  6

  7

 40
1.0
 41
20.0
 42
10.0
 43
1.0
 44
1.0
 45
0.0
 46
0.0
 47
0.0
 48
0.0
140
35.0
141
1.0
142
0.0
143
25.4
144
1.0
145
0.0
146
1.0
147
15.0
 71
     0
 72
     0
 73
     0
 74
     0
 75
     0
 76
     0
 77
     0
 78
     0
170
     0
171
     2
172
     0
173
     0
174
     0
175
     0
176
     9
177
     9
178
    11
  0
ENDTAB
  0
ENDSEC
  0
SECTION
  2
BLOCKS
  0
BLOCK
  8
0
  2
$MODEL_SPACE
 70
     0
 10
0.0
 20
0.0
 30
0.0
  3
$MODEL_SPACE
  1

  0
ENDBLK
  5
399
  8
0
  0
BLOCK
 67
     1
  8
0
  2
$PAPER_SPACE
 70
     0
 10
0.0
 20
0.0
 30
0.0
  3
$PAPER_SPACE
  1

  0
ENDBLK
  5
397
 67
     1
  8
0
  0
ENDSEC
  0
SECTION
  2
ENTITIES
  0
CIRCLE
  5
20
  8
TEAM-INSP
 10
0.0
 20
0.0
 30
0.0
 40
10.0
  0
POLYLINE
  5
22
  8
TEAM-NET1
 66
     1
 10
0.0
 20
0.0
 30
0.0
 70
    16
 71
     2
 72
    37
  0
VERTEX
  5
23
  8
TEAM-NET1
 10
-195.0
 20
-250.0
 30
655.0
 70
    64
  0
VERTEX
  5
24
  8
TEAM-NET1
 10
-195.596599
 20
-234.810671
 30
655.0
 70
    64
  0
VERTEX
  5
25
  8
TEAM-NET1
 10
-194.19043
 20
-219.674809
 30
655.0
 70
    64
  0
VERTEX
  5
26
  8
TEAM-NET1
 10
-190.805919
 20
-204.855338
 30
655.0
 70
    64
  0
VERTEX
  5
27
  8
TEAM-NET1
 10
-185.501859
 20
-190.609686
 30
655.0
 70
    64
  0
VERTEX
  5
28
  8
TEAM-NET1
 10
-178.370387
 20
-177.185316
 30
655.0
 70
    64
  0
VERTEX
  5
29
  8
TEAM-NET1
 10
-169.535382
 20
-164.81542
 30
655.0
 70
    64
  0
VERTEX
  5
2A
  8
TEAM-NET1
 10
-159.150318
 20
-153.714876
 30
655.0
 70
    64
  0
VERTEX
  5
2B
  8
TEAM-NET1
 10
-147.395593
 20
-144.076511
 30
655.0
 70
    64
  0
VERTEX
  5
2C
  8
TEAM-NET1
 10
-134.475398
 20
-136.067753
 30
655.0
 70
    64
  0
VERTEX
  5
2D
  8
TEAM-NET1
 10
-120.614169
 20
-129.827722
 30
655.0
 70
    64
  0
VERTEX
  5
2E
  8
TEAM-NET1
 10
-106.05269
 20
-125.464813
 30
655.0
 70
    64
  0
VERTEX
  5
2F
  8
TEAM-NET1
 10
-91.043908
 20
-123.054815
 30
655.0
 70
    64
  0
VERTEX
  5
30
  8
TEAM-NET1
 10
-75.925126
 20
-121.378271
 30
655.0
 70
    64
  0
VERTEX
  5
31
  8
TEAM-NET1
 10
-60.779024
 20
-119.966083
 30
655.0
 70
    64
  0
VERTEX
  5
32
  8
TEAM-NET1
 10
-45.606981
 20
-118.86709
 30
655.0
 70
    64
  0
VERTEX
  5
33
  8
TEAM-NET1
 10
-30.415473
 20
-118.081759
 30
655.0
 70
    64
  0
VERTEX
  5
34
  8
TEAM-NET1
 10
-15.210982
 20
-117.610427
 30
655.0
 70
    64
  0
VERTEX
  5
35
  8
TEAM-NET1
 10
0.0
 20
-117.453294
 30
655.0
 70
    64
  0
VERTEX
  5
36
  8
TEAM-NET1
 10
15.210982
 20
-117.610427
 30
655.0
 70
    64
  0
VERTEX
  5
37
  8
TEAM-NET1
 10
30.415473
 20
-118.081759
 30
655.0
 70
    64
  0
VERTEX
  5
38
  8
TEAM-NET1
 10
45.606981
 20
-118.86709
 30
655.0
 70
    64
  0
VERTEX
  5
39
  8
TEAM-NET1
 10
60.779024
 20
-119.966083
 30
655.0
 70
    64
  0
VERTEX
  5
3A
  8
TEAM-NET1
 10
75.925126
 20
-121.378271
 30
655.0
 70
    64
  0
VERTEX
  5
3B
  8
TEAM-NET1
 10
91.043908
 20
-123.054815
 30
655.0
 70
    64
  0
VERTEX
  5
3C
  8
TEAM-NET1
 10
106.05269
 20
-125.464813
 30
655.0
 70
    64
  0
VERTEX
  5
3D
  8
TEAM-NET1
 10
120.614169
 20
-129.827722
 30
655.0
 70
    64
  0
VERTEX
  5
3E
  8
TEAM-NET1
 10
134.475398
 20
-136.067753
 30
655.0
 70
    64
  0
VERTEX
  5
3F
  8
TEAM-NET1
 10
147.395593
 20
-144.076511
 30
655.0
 70
    64
  0
VERTEX
  5
40
  8
TEAM-NET1
 10
159.150318
 20
-153.714876
 30
655.0
 70
    64
  0
VERTEX
  5
41
  8
TEAM-NET1
 10
169.535382
 20
-164.81542
 30
655.0
 70
    64
  0
VERTEX
  5
42
  8
TEAM-NET1
 10
178.370387
 20
-177.185316
 30
655.0
 70
    64
  0
VERTEX
  5
43
  8
TEAM-NET1
 10
185.501859
 20
-190.609686
 30
655.0
 70
    64
  0
VERTEX
  5
44
  8
TEAM-NET1
 10
190.805919
 20
-204.855338
 30
655.0
 70
    64
  0
VERTEX
  5
45
  8
TEAM-NET1
 10
194.19043
 20
-219.674809
 30
655.0
 70
    64
  0
VERTEX
  5
46
  8
TEAM-NET1
 10
195.596599
 20
-234.810671
 30
655.0
 70
    64
  0
VERTEX
  5
47
  8
TEAM-NET1
 10
195.0
 20
-250.0
 30
655.0
 70
    64
  0
VERTEX
  5
48
  8
TEAM-NET1
 10
-244.712117
 20
-240.110753
 30
770.0
 70
    64
  0
VERTEX
  5
49
  8
TEAM-NET1
 10
-243.237916
 20
-221.901297
 30
770.0
 70
    64
  0
VERTEX
  5
4A
  8
TEAM-NET1
 10
-239.608887
 20
-203.996334
 30
770.0
 70
    64
  0
VERTEX
  5
4B
  8
TEAM-NET1
 10
-233.876524
 20
-186.649935
 30
770.0
 70
    64
  0
VERTEX
  5
4C
  8
TEAM-NET1
 10
-226.12217
 20
-170.108244
 30
770.0
 70
    64
  0
VERTEX
  5
4D
  8
TEAM-NET1
 10
-216.455859
 20
-154.605986
 30
770.0
 70
    64
  0
VERTEX
  5
4E
  8
TEAM-NET1
 10
-205.014755
 20
-140.363139
 30
770.0
 70
    64
  0
VERTEX
  5
4F
  8
TEAM-NET1
 10
-191.961208
 20
-127.581807
 30
770.0
 70
    64
  0
VERTEX
  5
50
  8
TEAM-NET1
 10
-177.480445
 20
-116.443357
 30
770.0
 70
    64
  0
VERTEX
  5
51
  8
TEAM-NET1
 10
-161.777949
 20
-107.105843
 30
770.0
 70
    64
  0
VERTEX
  5
52
  8
TEAM-NET1
 10
-145.076537
 20
-99.701764
 30
770.0
 70
    64
  0
VERTEX
  5
53
  8
TEAM-NET1
 10
-127.613202
 20
-94.336183
 30
770.0
 70
    64
  0
VERTEX
  5
54
  8
TEAM-NET1
 10
-109.635746
 20
-91.085237
 30
770.0
 70
    64
  0
VERTEX
  5
55
  8
TEAM-NET1
 10
-91.399257
 20
-90.0
 30
770.0
 70
    64
  0
VERTEX
  5
56
  8
TEAM-NET1
 10
-73.119405
 20
-90.0
 30
770.0
 70
    64
  0
VERTEX
  5
57
  8
TEAM-NET1
 10
-54.839554
 20
-90.0
 30
770.0
 70
    64
  0
VERTEX
  5
58
  8
TEAM-NET1
 10
-36.559703
 20
-90.0
 30
770.0
 70
    64
  0
VERTEX
  5
59
  8
TEAM-NET1
 10
-18.279851
 20
-90.0
 30
770.0
 70
    64
  0
VERTEX
  5
5A
  8
TEAM-NET1
 10
0.0
 20
-90.0
 30
770.0
 70
    64
  0
VERTEX
  5
5B
  8
TEAM-NET1
 10
18.279851
 20
-90.0
 30
770.0
 70
    64
  0
VERTEX
  5
5C
  8
TEAM-NET1
 10
36.559703
 20
-90.0
 30
770.0
 70
    64
  0
VERTEX
  5
5D
  8
TEAM-NET1
 10
54.839554
 20
-90.0
 30
770.0
 70
    64
  0
VERTEX
  5
5E
  8
TEAM-NET1
 10
73.119405
 20
-90.0
 30
770.0
 70
    64
  0
VERTEX
  5
5F
  8
TEAM-NET1
 10
91.399257
 20
-90.0
 30
770.0
 70
    64
  0
VERTEX
  5
60
  8
TEAM-NET1
 10
109.635746
 20
-91.085237
 30
770.0
 70
    64
  0
VERTEX
  5
61
  8
TEAM-NET1
 10
127.613202
 20
-94.336183
 30
770.0
 70
    64
  0
VERTEX
  5
62
  8
TEAM-NET1
 10
145.076537
 20
-99.701764
 30
770.0
 70
    64
  0
VERTEX
  5
63
  8
TEAM-NET1
 10
161.777949
 20
-107.105843
 30
770.0
 70
    64
  0
VERTEX
  5
64
  8
TEAM-NET1
 10
177.480445
 20
-116.443357
 30
770.0
 70
    64
  0
VERTEX
  5
65
  8
TEAM-NET1
 10
191.961208
 20
-127.581807
 30
770.0
 70
    64
  0
VERTEX
  5
66
  8
TEAM-NET1
 10
205.014755
 20
-140.363139
 30
770.0
 70
    64
  0
VERTEX
  5
67
  8
TEAM-NET1
 10
216.455859
 20
-154.605986
 30
770.0
 70
    64
  0
VERTEX
  5
68
  8
TEAM-NET1
 10
226.12217
 20
-170.108244
 30
770.0
 70
    64
  0
VERTEX
  5
69
  8
TEAM-NET1
 10
233.876524
 20
-186.649935
 30
770.0
 70
    64
  0
VERTEX
  5
6A
  8
TEAM-NET1
 10
239.608887
 20
-203.996334
 30
770.0
 70
    64
  0
VERTEX
  5
6B
  8
TEAM-NET1
 10
243.237916
 20
-221.901297
 30
770.0
 70
    64
  0
VERTEX
  5
6C
  8
TEAM-NET1
 10
244.712117
 20
-240.110753
 30
770.0
 70
    64
  0
SEQEND
  5
6E
  8
TEAM-NET1
  0
POLYLINE
  5
6F
  8
TEAM-NET1
 66
     1
 10
0.0
 20
0.0
 30
0.0
 70
    16
 71
     2
 72
    37
  0
VERTEX
  5
70
  8
TEAM-NET1
 10
-195.0
 20
-250.0
 30
655.0
 70
    64
  0
VERTEX
  5
71
  8
TEAM-NET1
 10
-193.689522
 20
-264.008948
 30
655.0
 70
    64
  0
VERTEX
  5
72
  8
TEAM-NET1
 10
-189.900744
 20
-277.562364
 30
655.0
 70
    64
  0
VERTEX
  5
73
  8
TEAM-NET1
 10
-183.97973
 20
-290.333492
 30
655.0
 70
    64
  0
VERTEX
  5
74
  8
TEAM-NET1
 10
-176.325778
 20
-302.151848
 30
655.0
 70
    64
  0
VERTEX
  5
75
  8
TEAM-NET1
 10
-167.296754
 20
-312.959419
 30
655.0
 70
    64
  0
VERTEX
  5
76
  8
TEAM-NET1
 10
-157.181558
 20
-322.760547
 30
655.0
 70
    64
  0
VERTEX
  5
77
  8
TEAM-NET1
 10
-146.204865
 20
-331.587969
 30
655.0
 70
    64
  0
VERTEX
  5
78
  8
TEAM-NET1
 10
-134.538707
 20
-339.484876
 30
655.0
 70
    64
  0
VERTEX
  5
79
  8
TEAM-NET1
 10
-122.319911
 20
-346.494424
 30
655.0
 70
    64
  0
VERTEX
  5
7A
  8
TEAM-NET1
 10
-109.653275
 20
-352.65963
 30
655.0
 70
    64
  0
VERTEX
  5
7B
  8
TEAM-NET1
 10
-96.620015
 20
-358.018316
 30
655.0
 70
    64
  0
VERTEX
  5
7C
  8
TEAM-NET1
 10
-83.304211
 20
-362.598018
 30
655.0
 70
    64
  0
VERTEX
  5
7D
  8
TEAM-NET1
 10
-69.744991
 20
-366.432211
 30
655.0
 70
    64
  0
VERTEX
  5
7E
  8
TEAM-NET1
 10
-56.001898
 20
-369.539725
 30
655.0
 70
    64
  0
VERTEX
  5
7F
  8
TEAM-NET1
 10
-42.118555
 20
-371.938719
 30
655.0
 70
    64
  0
VERTEX
  5
80
  8
TEAM-NET1
 10
-28.132265
 20
-373.642601
 30
655.0
 70
    64
  0
VERTEX
  5
81
  8
TEAM-NET1
 10
-14.082273
 20
-374.661167
 30
655.0
 70
    64
  0
VERTEX
  5
82
  8
TEAM-NET1
 10
0.000437
 20
-374.99983
 30
655.0
 70
    64
  0
VERTEX
  5
83
  8
TEAM-NET1
 10
14.089191
 20
-374.660833
 30
655.0
 70
    64
  0
VERTEX
  5
84
  8
TEAM-NET1
 10
28.141023
 20
-373.641753
 30
655.0
 70
    64
  0
VERTEX
  5
85
  8
TEAM-NET1
 10
42.128227
 20
-371.937294
 30
655.0
 70
    64
  0
VERTEX
  5
86
  8
TEAM-NET1
 10
56.007494
 20
-369.538614
 30
655.0
 70
    64
  0
VERTEX
  5
87
  8
TEAM-NET1
 10
69.749133
 20
-366.431156
 30
655.0
 70
    64
  0
VERTEX
  5
88
  8
TEAM-NET1
 10
83.30417
 20
-362.598035
 30
655.0
 70
    64
  0
VERTEX
  5
89
  8
TEAM-NET1
 10
96.619867
 20
-358.018369
 30
655.0
 70
    64
  0
VERTEX
  5
8A
  8
TEAM-NET1
 10
109.653272
 20
-352.659633
 30
655.0
 70
    64
  0
VERTEX
  5
8B
  8
TEAM-NET1
 10
122.319902
 20
-346.49443
 30
655.0
 70
    64
  0
VERTEX
  5
8C
  8
TEAM-NET1
 10
134.538702
 20
-339.484874
 30
655.0
 70
    64
  0
VERTEX
  5
8D
  8
TEAM-NET1
 10
146.204861
 20
-331.587976
 30
655.0
 70
    64
  0
VERTEX
  5
8E
  8
TEAM-NET1
 10
157.181561
 20
-322.760546
 30
655.0
 70
    64
  0
VERTEX
  5
8F
  8
TEAM-NET1
 10
167.296752
 20
-312.959417
 30
655.0
 70
    64
  0
VERTEX
  5
90
  8
TEAM-NET1
 10
176.325779
 20
-302.151844
 30
655.0
 70
    64
  0
VERTEX
  5
91
  8
TEAM-NET1
 10
183.97973
 20
-290.333492
 30
655.0
 70
    64
  0
VERTEX
  5
92
  8
TEAM-NET1
 10
189.900743
 20
-277.562364
 30
655.0
 70
    64
  0
VERTEX
  5
93
  8
TEAM-NET1
 10
193.689519
 20
-264.008946
 30
655.0
 70
    64
  0
VERTEX
  5
94
  8
TEAM-NET1
 10
195.0
 20
-250.0
 30
655.0
 70
    64
  0
VERTEX
  5
95
  8
TEAM-NET1
 10
-244.712117
 20
-240.110753
 30
770.0
 70
    64
  0
VERTEX
  5
96
  8
TEAM-NET1
 10
-244.725795
 20
-259.651652
 30
770.0
 70
    64
  0
VERTEX
  5
97
  8
TEAM-NET1
 10
-242.496938
 20
-279.065028
 30
770.0
 70
    64
  0
VERTEX
  5
98
  8
TEAM-NET1
 10
-238.054994
 20
-298.094376
 30
770.0
 70
    64
  0
VERTEX
  5
99
  8
TEAM-NET1
 10
-231.458654
 20
-316.488267
 30
770.0
 70
    64
  0
VERTEX
  5
9A
  8
TEAM-NET1
 10
-222.795073
 20
-334.003669
 30
770.0
 70
    64
  0
VERTEX
  5
9B
  8
TEAM-NET1
 10
-212.17872
 20
-350.409156
 30
770.0
 70
    64
  0
VERTEX
  5
9C
  8
TEAM-NET1
 10
-199.749867
 20
-365.487967
 30
770.0
 70
    64
  0
VERTEX
  5
9D
  8
TEAM-NET1
 10
-185.672732
 20
-379.040871
 30
770.0
 70
    64
  0
VERTEX
  5
9E
  8
TEAM-NET1
 10
-170.133311
 20
-390.888797
 30
770.0
 70
    64
  0
VERTEX
  5
9F
  8
TEAM-NET1
 10
-153.336923
 20
-400.875202
 30
770.0
 70
    64
  0
VERTEX
  5
A0
  8
TEAM-NET1
 10
-135.505492
 20
-408.868138
 30
770.0
 70
    64
  0
VERTEX
  5
A1
  8
TEAM-NET1
 10
-116.874621
 20
-414.761998
 30
770.0
 70
    64
  0
VERTEX
  5
A2
  8
TEAM-NET1
 10
-97.690473
 20
-418.478908
 30
770.0
 70
    64
  0
VERTEX
  5
A3
  8
TEAM-NET1
 10
-78.206523
 20
-419.969757
 30
770.0
 70
    64
  0
VERTEX
  5
A4
  8
TEAM-NET1
 10
-58.655035
 20
-420.0
 30
770.0
 70
    64
  0
VERTEX
  5
A5
  8
TEAM-NET1
 10
-39.103357
 20
-420.0
 30
770.0
 70
    64
  0
VERTEX
  5
A6
  8
TEAM-NET1
 10
-19.551678
 20
-420.0
 30
770.0
 70
    64
  0
VERTEX
  5
A7
  8
TEAM-NET1
 10
0.0
 20
-420.0
 30
770.0
 70
    64
  0
VERTEX
  5
A8
  8
TEAM-NET1
 10
19.551678
 20
-420.0
 30
770.0
 70
    64
  0
VERTEX
  5
A9
  8
TEAM-NET1
 10
39.103357
 20
-420.0
 30
770.0
 70
    64
  0
VERTEX
  5
AA
  8
TEAM-NET1
 10
58.655035
 20
-420.0
 30
770.0
 70
    64
  0
VERTEX
  5
AB
  8
TEAM-NET1
 10
78.206523
 20
-419.969757
 30
770.0
 70
    64
  0
VERTEX
  5
AC
  8
TEAM-NET1
 10
97.690473
 20
-418.478908
 30
770.0
 70
    64
  0
VERTEX
  5
AD
  8
TEAM-NET1
 10
116.874621
 20
-414.761998
 30
770.0
 70
    64
  0
VERTEX
  5
AE
  8
TEAM-NET1
 10
135.505492
 20
-408.868138
 30
770.0
 70
    64
  0
VERTEX
  5
AF
  8
TEAM-NET1
 10
153.336923
 20
-400.875202
 30
770.0
 70
    64
  0
VERTEX
  5
B0
  8
TEAM-NET1
 10
170.133311
 20
-390.888797
 30
770.0
 70
    64
  0
VERTEX
  5
B1
  8
TEAM-NET1
 10
185.672732
 20
-379.040871
 30
770.0
 70
    64
  0
VERTEX
  5
B2
  8
TEAM-NET1
 10
199.749867
 20
-365.487967
 30
770.0
 70
    64
  0
VERTEX
  5
B3
  8
TEAM-NET1
 10
212.17872
 20
-350.409156
 30
770.0
 70
    64
  0
VERTEX
  5
B4
  8
TEAM-NET1
 10
222.795073
 20
-334.003669
 30
770.0
 70
    64
  0
VERTEX
  5
B5
  8
TEAM-NET1
 10
231.458654
 20
-316.488267
 30
770.0
 70
    64
  0
VERTEX
  5
B6
  8
TEAM-NET1
 10
238.054994
 20
-298.094376
 30
770.0
 70
    64
  0
VERTEX
  5
B7
  8
TEAM-NET1
 10
242.496938
 20
-279.065028
 30
770.0
 70
    64
  0
VERTEX
  5
B8
  8
TEAM-NET1
 10
244.725795
 20
-259.651652
 30
770.0
 70
    64
  0
VERTEX
  5
B9
  8
TEAM-NET1
 10
244.712117
 20
-240.110753
 30
770.0
 70
    64
  0
SEQEND
  5
BA
  8
TEAM-NET1
  0
CIRCLE
  5
BB
  8
TEAM-DET3
 39
20.0
 10
0.0
 20
-159.455229
 30
635.0
 40
26.0
  0
CIRCLE
  5
BD
  8
TEAM-DET1
 39
20.0
 10
0.0
 20
-159.455229
 30
635.0
 40
21.0
  0
POLYLINE
  5
BF
  8
TEAM-DET3
 66
     1
 10
0.0
 20
0.0
 30
655.0
 70
   128
  0
VERTEX
  5
39F
  8
TEAM-DET3
 10
-195.0
 20
-250.0
 30
655.0
  0
VERTEX
  5
3A0
  8
TEAM-DET3
 10
-194.289102
 20
-260.32332
 30
655.0
  0
VERTEX
  5
3A1
  8
TEAM-DET3
 10
-192.125364
 20
-270.727769
 30
655.0
  0
VERTEX
  5
3A2
  8
TEAM-DET3
 10
-188.428534
 20
-281.255435
 30
655.0
  0
VERTEX
  5
3A3
  8
TEAM-DET3
 10
-183.096971
 20
-291.887029
 30
655.0
  0
VERTEX
  5
3A4
  8
TEAM-DET3
 10
-176.03833
 20
-302.537636
 30
655.0
  0
VERTEX
  5
3A5
  8
TEAM-DET3
 10
-167.195597
 20
-313.067682
 30
655.0
  0
VERTEX
  5
3A6
  8
TEAM-DET3
 10
-156.561233
 20
-323.303372
 30
655.0
  0
VERTEX
  5
3A7
  8
TEAM-DET3
 10
-144.179097
 20
-333.056955
 30
655.0
  0
VERTEX
  5
3A8
  8
TEAM-DET3
 10
-130.140625
 20
-342.141782
 30
655.0
  0
VERTEX
  5
3A9
  8
TEAM-DET3
 10
-114.578239
 20
-350.383035
 30
655.0
  0
VERTEX
  5
3AA
  8
TEAM-DET3
 10
-97.65799
 20
-357.624766
 30
655.0
  0
VERTEX
  5
3AB
  8
TEAM-DET3
 10
-79.571868
 20
-363.733256
 30
655.0
  0
VERTEX
  5
3AC
  8
TEAM-DET3
 10
-60.531616
 20
-368.598449
 30
655.0
  0
VERTEX
  5
3AD
  8
TEAM-DET3
 10
-40.763749
 20
-372.134571
 30
655.0
  0
VERTEX
  5
3AE
  8
TEAM-DET3
 10
-20.505304
 20
-374.280491
 30
655.0
  0
VERTEX
  5
3AF
  8
TEAM-DET3
 10
0.0
 20
-374.99983
 30
655.0
  0
VERTEX
  5
3B0
  8
TEAM-DET3
 10
20.505303
 20
-374.280488
 30
655.0
  0
VERTEX
  5
3B1
  8
TEAM-DET3
 10
40.763748
 20
-372.134569
 30
655.0
  0
VERTEX
  5
3B2
  8
TEAM-DET3
 10
60.531617
 20
-368.598452
 30
655.0
  0
VERTEX
  5
3B3
  8
TEAM-DET3
 10
79.571869
 20
-363.733258
 30
655.0
  0
VERTEX
  5
3B4
  8
TEAM-DET3
 10
97.657989
 20
-357.624764
 30
655.0
  0
VERTEX
  5
3B5
  8
TEAM-DET3
 10
114.578236
 20
-350.383033
 30
655.0
  0
VERTEX
  5
3B6
  8
TEAM-DET3
 10
130.140627
 20
-342.141783
 30
655.0
  0
VERTEX
  5
3B7
  8
TEAM-DET3
 10
144.179103
 20
-333.056957
 30
655.0
  0
VERTEX
  5
3B8
  8
TEAM-DET3
 10
156.561235
 20
-323.303371
 30
655.0
  0
VERTEX
  5
3B9
  8
TEAM-DET3
 10
167.195592
 20
-313.067683
 30
655.0
  0
VERTEX
  5
3BA
  8
TEAM-DET3
 10
176.038325
 20
-302.53764
 30
655.0
  0
VERTEX
  5
3BB
  8
TEAM-DET3
 10
183.096976
 20
-291.887024
 30
655.0
  0
VERTEX
  5
3BC
  8
TEAM-DET3
 10
188.428534
 20
-281.255428
 30
655.0
  0
VERTEX
  5
3BD
  8
TEAM-DET3
 10
192.125364
 20
-270.727773
 30
655.0
  0
VERTEX
  5
3BE
  8
TEAM-DET3
 10
194.289109
 20
-260.323325
 30
655.0
  0
VERTEX
  5
3BF
  8
TEAM-DET3
 10
195.0
 20
-250.0
 30
655.0
  0
SEQEND
  5
3C0
  8
TEAM-DET3
  0
POLYLINE
  5
C0
  8
TEAM-DET3
 66
     1
 10
0.0
 20
0.0
 30
655.0
  0
VERTEX
  5
3C1
  8
TEAM-DET3
 10
195.0
 20
-250.0
 30
655.0
 42
0.421181
  0
VERTEX
  5
3C2
  8
TEAM-DET3
 10
89.689101
 20
-122.936143
 30
655.0
 42
0.061132
  0
VERTEX
  5
3C3
  8
TEAM-DET3
 10
-89.689101
 20
-122.936143
 30
655.0
 42
0.421181
  0
VERTEX
  5
3C4
  8
TEAM-DET3
 10
-195.0
 20
-250.0
 30
655.0
  0
SEQEND
  5
3C5
  8
TEAM-DET3
  0
POLYLINE
  5
C1
  8
TEAM-NET1
 66
     1
 10
0.0
 20
0.0
 30
0.0
 70
    16
 71
     2
 72
    37
  0
VERTEX
  5
C2
  8
TEAM-NET1
 10
-195.0
 20
-250.0
 30
655.0
 70
    64
  0
VERTEX
  5
C3
  8
TEAM-NET1
 10
-195.596599
 20
-234.810671
 30
655.0
 70
    64
  0
VERTEX
  5
C4
  8
TEAM-NET1
 10
-194.19043
 20
-219.674809
 30
655.0
 70
    64
  0
VERTEX
  5
C5
  8
TEAM-NET1
 10
-190.805919
 20
-204.855338
 30
655.0
 70
    64
  0
VERTEX
  5
C6
  8
TEAM-NET1
 10
-185.501859
 20
-190.609686
 30
655.0
 70
    64
  0
VERTEX
  5
C7
  8
TEAM-NET1
 10
-178.370387
 20
-177.185316
 30
655.0
 70
    64
  0
VERTEX
  5
C8
  8
TEAM-NET1
 10
-169.535382
 20
-164.81542
 30
655.0
 70
    64
  0
VERTEX
  5
C9
  8
TEAM-NET1
 10
-159.150318
 20
-153.714876
 30
655.0
 70
    64
  0
VERTEX
  5
CA
  8
TEAM-NET1
 10
-147.395593
 20
-144.076511
 30
655.0
 70
    64
  0
VERTEX
  5
CB
  8
TEAM-NET1
 10
-134.475398
 20
-136.067753
 30
655.0
 70
    64
  0
VERTEX
  5
CC
  8
TEAM-NET1
 10
-120.614169
 20
-129.827722
 30
655.0
 70
    64
  0
VERTEX
  5
CD
  8
TEAM-NET1
 10
-106.05269
 20
-125.464813
 30
655.0
 70
    64
  0
VERTEX
  5
CE
  8
TEAM-NET1
 10
-91.043908
 20
-123.054815
 30
655.0
 70
    64
  0
VERTEX
  5
CF
  8
TEAM-NET1
 10
-75.925126
 20
-121.378271
 30
655.0
 70
    64
  0
VERTEX
  5
D0
  8
TEAM-NET1
 10
-60.779024
 20
-119.966083
 30
655.0
 70
    64
  0
VERTEX
  5
D1
  8
TEAM-NET1
 10
-45.606981
 20
-118.86709
 30
655.0
 70
    64
  0
VERTEX
  5
D2
  8
TEAM-NET1
 10
-30.415473
 20
-118.081759
 30
655.0
 70
    64
  0
VERTEX
  5
D3
  8
TEAM-NET1
 10
-15.210982
 20
-117.610427
 30
655.0
 70
    64
  0
VERTEX
  5
D4
  8
TEAM-NET1
 10
0.0
 20
-117.453294
 30
655.0
 70
    64
  0
VERTEX
  5
D5
  8
TEAM-NET1
 10
15.210982
 20
-117.610427
 30
655.0
 70
    64
  0
VERTEX
  5
D6
  8
TEAM-NET1
 10
30.415473
 20
-118.081759
 30
655.0
 70
    64
  0
VERTEX
  5
D7
  8
TEAM-NET1
 10
45.606981
 20
-118.86709
 30
655.0
 70
    64
  0
VERTEX
  5
D8
  8
TEAM-NET1
 10
60.779024
 20
-119.966083
 30
655.0
 70
    64
  0
VERTEX
  5
D9
  8
TEAM-NET1
 10
75.925126
 20
-121.378271
 30
655.0
 70
    64
  0
VERTEX
  5
DA
  8
TEAM-NET1
 10
91.043908
 20
-123.054815
 30
655.0
 70
    64
  0
VERTEX
  5
DB
  8
TEAM-NET1
 10
106.05269
 20
-125.464813
 30
655.0
 70
    64
  0
VERTEX
  5
DC
  8
TEAM-NET1
 10
120.614169
 20
-129.827722
 30
655.0
 70
    64
  0
VERTEX
  5
DD
  8
TEAM-NET1
 10
134.475398
 20
-136.067753
 30
655.0
 70
    64
  0
VERTEX
  5
DE
  8
TEAM-NET1
 10
147.395593
 20
-144.076511
 30
655.0
 70
    64
  0
VERTEX
  5
DF
  8
TEAM-NET1
 10
159.150318
 20
-153.714876
 30
655.0
 70
    64
  0
VERTEX
  5
E0
  8
TEAM-NET1
 10
169.535382
 20
-164.81542
 30
655.0
 70
    64
  0
VERTEX
  5
E1
  8
TEAM-NET1
 10
178.370387
 20
-177.185316
 30
655.0
 70
    64
  0
VERTEX
  5
E2
  8
TEAM-NET1
 10
185.501859
 20
-190.609686
 30
655.0
 70
    64
  0
VERTEX
  5
E3
  8
TEAM-NET1
 10
190.805919
 20
-204.855338
 30
655.0
 70
    64
  0
VERTEX
  5
E4
  8
TEAM-NET1
 10
194.19043
 20
-219.674809
 30
655.0
 70
    64
  0
VERTEX
  5
E5
  8
TEAM-NET1
 10
195.596599
 20
-234.810671
 30
655.0
 70
    64
  0
VERTEX
  5
E6
  8
TEAM-NET1
 10
195.0
 20
-250.0
 30
655.0
 70
    64
  0
VERTEX
  5
E7
  8
TEAM-NET1
 10
-195.0
 20
-250.0
 30
655.0
 70
    64
  0
VERTEX
  5
E8
  8
TEAM-NET1
 10
-193.689522
 20
-264.008948
 30
655.0
 70
    64
  0
VERTEX
  5
E9
  8
TEAM-NET1
 10
-189.900744
 20
-277.562364
 30
655.0
 70
    64
  0
VERTEX
  5
EA
  8
TEAM-NET1
 10
-183.97973
 20
-290.333492
 30
655.0
 70
    64
  0
VERTEX
  5
EB
  8
TEAM-NET1
 10
-176.325778
 20
-302.151848
 30
655.0
 70
    64
  0
VERTEX
  5
EC
  8
TEAM-NET1
 10
-167.296754
 20
-312.959419
 30
655.0
 70
    64
  0
VERTEX
  5
ED
  8
TEAM-NET1
 10
-157.181558
 20
-322.760547
 30
655.0
 70
    64
  0
VERTEX
  5
EE
  8
TEAM-NET1
 10
-146.204865
 20
-331.587969
 30
655.0
 70
    64
  0
VERTEX
  5
EF
  8
TEAM-NET1
 10
-134.538707
 20
-339.484876
 30
655.0
 70
    64
  0
VERTEX
  5
F0
  8
TEAM-NET1
 10
-122.319911
 20
-346.494424
 30
655.0
 70
    64
  0
VERTEX
  5
F1
  8
TEAM-NET1
 10
-109.653275
 20
-352.65963
 30
655.0
 70
    64
  0
VERTEX
  5
F2
  8
TEAM-NET1
 10
-96.620015
 20
-358.018316
 30
655.0
 70
    64
  0
VERTEX
  5
F3
  8
TEAM-NET1
 10
-83.304211
 20
-362.598018
 30
655.0
 70
    64
  0
VERTEX
  5
F4
  8
TEAM-NET1
 10
-69.744991
 20
-366.432211
 30
655.0
 70
    64
  0
VERTEX
  5
F5
  8
TEAM-NET1
 10
-56.001898
 20
-369.539725
 30
655.0
 70
    64
  0
VERTEX
  5
F6
  8
TEAM-NET1
 10
-42.118555
 20
-371.938719
 30
655.0
 70
    64
  0
VERTEX
  5
F7
  8
TEAM-NET1
 10
-28.132265
 20
-373.642601
 30
655.0
 70
    64
  0
VERTEX
  5
F8
  8
TEAM-NET1
 10
-14.082273
 20
-374.661167
 30
655.0
 70
    64
  0
VERTEX
  5
F9
  8
TEAM-NET1
 10
0.000437
 20
-374.99983
 30
655.0
 70
    64
  0
VERTEX
  5
FA
  8
TEAM-NET1
 10
14.089191
 20
-374.660833
 30
655.0
 70
    64
  0
VERTEX
  5
FB
  8
TEAM-NET1
 10
28.141023
 20
-373.641753
 30
655.0
 70
    64
  0
VERTEX
  5
FC
  8
TEAM-NET1
 10
42.128227
 20
-371.937294
 30
655.0
 70
    64
  0
VERTEX
  5
FD
  8
TEAM-NET1
 10
56.007494
 20
-369.538614
 30
655.0
 70
    64
  0
VERTEX
  5
FE
  8
TEAM-NET1
 10
69.749133
 20
-366.431156
 30
655.0
 70
    64
  0
VERTEX
  5
FF
  8
TEAM-NET1
 10
83.30417
 20
-362.598035
 30
655.0
 70
    64
  0
VERTEX
  5
100
  8
TEAM-NET1
 10
96.619867
 20
-358.018369
 30
655.0
 70
    64
  0
VERTEX
  5
101
  8
TEAM-NET1
 10
109.653272
 20
-352.659633
 30
655.0
 70
    64
  0
VERTEX
  5
102
  8
TEAM-NET1
 10
122.319902
 20
-346.49443
 30
655.0
 70
    64
  0
VERTEX
  5
103
  8
TEAM-NET1
 10
134.538702
 20
-339.484874
 30
655.0
 70
    64
  0
VERTEX
  5
104
  8
TEAM-NET1
 10
146.204861
 20
-331.587976
 30
655.0
 70
    64
  0
VERTEX
  5
105
  8
TEAM-NET1
 10
157.181561
 20
-322.760546
 30
655.0
 70
    64
  0
VERTEX
  5
106
  8
TEAM-NET1
 10
167.296752
 20
-312.959417
 30
655.0
 70
    64
  0
VERTEX
  5
107
  8
TEAM-NET1
 10
176.325779
 20
-302.151844
 30
655.0
 70
    64
  0
VERTEX
  5
108
  8
TEAM-NET1
 10
183.97973
 20
-290.333492
 30
655.0
 70
    64
  0
VERTEX
  5
109
  8
TEAM-NET1
 10
189.900743
 20
-277.562364
 30
655.0
 70
    64
  0
VERTEX
  5
10A
  8
TEAM-NET1
 10
193.689519
 20
-264.008946
 30
655.0
 70
    64
  0
VERTEX
  5
10B
  8
TEAM-NET1
 10
195.0
 20
-250.0
 30
655.0
 70
    64
  0
SEQEND
  5
10C
  8
TEAM-NET1
  0
POLYLINE
  5
10D
  8
TEAM-NET1
 66
     1
 10
0.0
 20
0.0
 30
0.0
 70
    16
 71
     2
 72
    37
  0
VERTEX
  5
10E
  8
TEAM-NET1
 10
-235.0
 20
0.0
 30
800.0
 70
    64
  0
VERTEX
  5
10F
  8
TEAM-NET1
 10
-221.944444
 20
0.0
 30
800.0
 70
    64
  0
VERTEX
  5
110
  8
TEAM-NET1
 10
-208.888889
 20
0.0
 30
800.0
 70
    64
  0
VERTEX
  5
111
  8
TEAM-NET1
 10
-195.833333
 20
0.0
 30
800.0
 70
    64
  0
VERTEX
  5
112
  8
TEAM-NET1
 10
-182.777778
 20
0.0
 30
800.0
 70
    64
  0
VERTEX
  5
113
  8
TEAM-NET1
 10
-169.722222
 20
0.0
 30
800.0
 70
    64
  0
VERTEX
  5
114
  8
TEAM-NET1
 10
-156.666667
 20
0.0
 30
800.0
 70
    64
  0
VERTEX
  5
115
  8
TEAM-NET1
 10
-143.611111
 20
0.0
 30
800.0
 70
    64
  0
VERTEX
  5
116
  8
TEAM-NET1
 10
-130.555556
 20
0.0
 30
800.0
 70
    64
  0
VERTEX
  5
117
  8
TEAM-NET1
 10
-117.5
 20
0.0
 30
800.0
 70
    64
  0
VERTEX
  5
118
  8
TEAM-NET1
 10
-104.444444
 20
0.0
 30
800.0
 70
    64
  0
VERTEX
  5
119
  8
TEAM-NET1
 10
-91.388889
 20
0.0
 30
800.0
 70
    64
  0
VERTEX
  5
11A
  8
TEAM-NET1
 10
-78.333333
 20
0.0
 30
800.0
 70
    64
  0
VERTEX
  5
11B
  8
TEAM-NET1
 10
-65.277778
 20
0.0
 30
800.0
 70
    64
  0
VERTEX
  5
11C
  8
TEAM-NET1
 10
-52.222222
 20
0.0
 30
800.0
 70
    64
  0
VERTEX
  5
11D
  8
TEAM-NET1
 10
-39.166667
 20
0.0
 30
800.0
 70
    64
  0
VERTEX
  5
11E
  8
TEAM-NET1
 10
-26.111111
 20
0.0
 30
800.0
 70
    64
  0
VERTEX
  5
11F
  8
TEAM-NET1
 10
-13.055556
 20
0.0
 30
800.0
 70
    64
  0
VERTEX
  5
120
  8
TEAM-NET1
 10
0.0
 20
0.0
 30
800.0
 70
    64
  0
VERTEX
  5
121
  8
TEAM-NET1
 10
13.055556
 20
0.0
 30
800.0
 70
    64
  0
VERTEX
  5
122
  8
TEAM-NET1
 10
26.111111
 20
0.0
 30
800.0
 70
    64
  0
VERTEX
  5
123
  8
TEAM-NET1
 10
39.166667
 20
0.0
 30
800.0
 70
    64
  0
VERTEX
  5
124
  8
TEAM-NET1
 10
52.222222
 20
0.0
 30
800.0
 70
    64
  0
VERTEX
  5
125
  8
TEAM-NET1
 10
65.277778
 20
0.0
 30
800.0
 70
    64
  0
VERTEX
  5
126
  8
TEAM-NET1
 10
78.333333
 20
0.0
 30
800.0
 70
    64
  0
VERTEX
  5
127
  8
TEAM-NET1
 10
91.388889
 20
0.0
 30
800.0
 70
    64
  0
VERTEX
  5
128
  8
TEAM-NET1
 10
104.444444
 20
0.0
 30
800.0
 70
    64
  0
VERTEX
  5
129
  8
TEAM-NET1
 10
117.5
 20
0.0
 30
800.0
 70
    64
  0
VERTEX
  5
12A
  8
TEAM-NET1
 10
130.555556
 20
0.0
 30
800.0
 70
    64
  0
VERTEX
  5
12B
  8
TEAM-NET1
 10
143.611111
 20
0.0
 30
800.0
 70
    64
  0
VERTEX
  5
12C
  8
TEAM-NET1
 10
156.666667
 20
0.0
 30
800.0
 70
    64
  0
VERTEX
  5
12D
  8
TEAM-NET1
 10
169.722222
 20
0.0
 30
800.0
 70
    64
  0
VERTEX
  5
12E
  8
TEAM-NET1
 10
182.777778
 20
0.0
 30
800.0
 70
    64
  0
VERTEX
  5
12F
  8
TEAM-NET1
 10
195.833333
 20
0.0
 30
800.0
 70
    64
  0
VERTEX
  5
130
  8
TEAM-NET1
 10
208.888889
 20
0.0
 30
800.0
 70
    64
  0
VERTEX
  5
131
  8
TEAM-NET1
 10
221.944444
 20
0.0
 30
800.0
 70
    64
  0
VERTEX
  5
132
  8
TEAM-NET1
 10
235.0
 20
0.0
 30
800.0
 70
    64
  0
VERTEX
  5
133
  8
TEAM-NET1
 10
-240.56137
 20
-215.274371
 30
770.0
 70
    64
  0
VERTEX
  5
134
  8
TEAM-NET1
 10
-236.855786
 20
-198.84063
 30
770.0
 70
    64
  0
VERTEX
  5
135
  8
TEAM-NET1
 10
-231.330828
 20
-182.926045
 30
770.0
 70
    64
  0
VERTEX
  5
136
  8
TEAM-NET1
 10
-224.056185
 20
-167.731351
 30
770.0
 70
    64
  0
VERTEX
  5
137
  8
TEAM-NET1
 10
-215.123612
 20
-153.448202
 30
770.0
 70
    64
  0
VERTEX
  5
138
  8
TEAM-NET1
 10
-204.645781
 20
-140.256757
 30
770.0
 70
    64
  0
VERTEX
  5
139
  8
TEAM-NET1
 10
-192.754849
 20
-128.323404
 30
770.0
 70
    64
  0
VERTEX
  5
13A
  8
TEAM-NET1
 10
-179.600802
 20
-117.79866
 30
770.0
 70
    64
  0
VERTEX
  5
13B
  8
TEAM-NET1
 10
-165.349556
 20
-108.815278
 30
770.0
 70
    64
  0
VERTEX
  5
13C
  8
TEAM-NET1
 10
-150.180865
 20
-101.486568
 30
770.0
 70
    64
  0
VERTEX
  5
13D
  8
TEAM-NET1
 10
-134.286057
 20
-95.904969
 30
770.0
 70
    64
  0
VERTEX
  5
13E
  8
TEAM-NET1
 10
-117.865617
 20
-92.140883
 30
770.0
 70
    64
  0
VERTEX
  5
13F
  8
TEAM-NET1
 10
-101.126662
 20
-90.241788
 30
770.0
 70
    64
  0
VERTEX
  5
140
  8
TEAM-NET1
 10
-84.276032
 20
-90.0
 30
770.0
 70
    64
  0
VERTEX
  5
141
  8
TEAM-NET1
 10
-67.420826
 20
-90.0
 30
770.0
 70
    64
  0
VERTEX
  5
142
  8
TEAM-NET1
 10
-50.565619
 20
-90.0
 30
770.0
 70
    64
  0
VERTEX
  5
143
  8
TEAM-NET1
 10
-33.710413
 20
-90.0
 30
770.0
 70
    64
  0
VERTEX
  5
144
  8
TEAM-NET1
 10
-16.855206
 20
-90.0
 30
770.0
 70
    64
  0
VERTEX
  5
145
  8
TEAM-NET1
 10
0.0
 20
-90.0
 30
770.0
 70
    64
  0
VERTEX
  5
146
  8
TEAM-NET1
 10
16.855206
 20
-90.0
 30
770.0
 70
    64
  0
VERTEX
  5
147
  8
TEAM-NET1
 10
33.710413
 20
-90.0
 30
770.0
 70
    64
  0
VERTEX
  5
148
  8
TEAM-NET1
 10
50.565619
 20
-90.0
 30
770.0
 70
    64
  0
VERTEX
  5
149
  8
TEAM-NET1
 10
67.420826
 20
-90.0
 30
770.0
 70
    64
  0
VERTEX
  5
14A
  8
TEAM-NET1
 10
84.276032
 20
-90.0
 30
770.0
 70
    64
  0
VERTEX
  5
14B
  8
TEAM-NET1
 10
101.126662
 20
-90.241788
 30
770.0
 70
    64
  0
VERTEX
  5
14C
  8
TEAM-NET1
 10
117.865617
 20
-92.140883
 30
770.0
 70
    64
  0
VERTEX
  5
14D
  8
TEAM-NET1
 10
134.286057
 20
-95.904969
 30
770.0
 70
    64
  0
VERTEX
  5
14E
  8
TEAM-NET1
 10
150.180865
 20
-101.486568
 30
770.0
 70
    64
  0
VERTEX
  5
14F
  8
TEAM-NET1
 10
165.349556
 20
-108.815278
 30
770.0
 70
    64
  0
VERTEX
  5
150
  8
TEAM-NET1
 10
179.600802
 20
-117.79866
 30
770.0
 70
    64
  0
VERTEX
  5
151
  8
TEAM-NET1
 10
192.754849
 20
-128.323404
 30
770.0
 70
    64
  0
VERTEX
  5
152
  8
TEAM-NET1
 10
204.645781
 20
-140.256757
 30
770.0
 70
    64
  0
VERTEX
  5
153
  8
TEAM-NET1
 10
215.123612
 20
-153.448202
 30
770.0
 70
    64
  0
VERTEX
  5
154
  8
TEAM-NET1
 10
224.056185
 20
-167.731351
 30
770.0
 70
    64
  0
VERTEX
  5
155
  8
TEAM-NET1
 10
231.330828
 20
-182.926045
 30
770.0
 70
    64
  0
VERTEX
  5
156
  8
TEAM-NET1
 10
236.855786
 20
-198.84063
 30
770.0
 70
    64
  0
VERTEX
  5
157
  8
TEAM-NET1
 10
240.56137
 20
-215.274371
 30
770.0
 70
    64
  0
SEQEND
  5
158
  8
TEAM-NET1
  0
POLYLINE
  5
159
  8
TEAM-NET1
 66
     1
 10
0.0
 20
0.0
 30
0.0
 70
    16
 71
     2
 72
    37
  0
VERTEX
  5
15A
  8
TEAM-NET1
 10
-235.0
 20
0.0
 30
800.0
 70
    64
  0
VERTEX
  5
15B
  8
TEAM-NET1
 10
-221.944444
 20
0.0
 30
800.0
 70
    64
  0
VERTEX
  5
15C
  8
TEAM-NET1
 10
-208.888889
 20
0.0
 30
800.0
 70
    64
  0
VERTEX
  5
15D
  8
TEAM-NET1
 10
-195.833333
 20
0.0
 30
800.0
 70
    64
  0
VERTEX
  5
15E
  8
TEAM-NET1
 10
-182.777778
 20
0.0
 30
800.0
 70
    64
  0
VERTEX
  5
15F
  8
TEAM-NET1
 10
-169.722222
 20
0.0
 30
800.0
 70
    64
  0
VERTEX
  5
160
  8
TEAM-NET1
 10
-156.666667
 20
0.0
 30
800.0
 70
    64
  0
VERTEX
  5
161
  8
TEAM-NET1
 10
-143.611111
 20
0.0
 30
800.0
 70
    64
  0
VERTEX
  5
162
  8
TEAM-NET1
 10
-130.555556
 20
0.0
 30
800.0
 70
    64
  0
VERTEX
  5
163
  8
TEAM-NET1
 10
-117.5
 20
0.0
 30
800.0
 70
    64
  0
VERTEX
  5
164
  8
TEAM-NET1
 10
-104.444444
 20
0.0
 30
800.0
 70
    64
  0
VERTEX
  5
165
  8
TEAM-NET1
 10
-91.388889
 20
0.0
 30
800.0
 70
    64
  0
VERTEX
  5
166
  8
TEAM-NET1
 10
-78.333333
 20
0.0
 30
800.0
 70
    64
  0
VERTEX
  5
167
  8
TEAM-NET1
 10
-65.277778
 20
0.0
 30
800.0
 70
    64
  0
VERTEX
  5
168
  8
TEAM-NET1
 10
-52.222222
 20
0.0
 30
800.0
 70
    64
  0
VERTEX
  5
169
  8
TEAM-NET1
 10
-39.166667
 20
0.0
 30
800.0
 70
    64
  0
VERTEX
  5
16A
  8
TEAM-NET1
 10
-26.111111
 20
0.0
 30
800.0
 70
    64
  0
VERTEX
  5
16B
  8
TEAM-NET1
 10
-13.055556
 20
0.0
 30
800.0
 70
    64
  0
VERTEX
  5
16C
  8
TEAM-NET1
 10
0.0
 20
0.0
 30
800.0
 70
    64
  0
VERTEX
  5
16D
  8
TEAM-NET1
 10
13.055556
 20
0.0
 30
800.0
 70
    64
  0
VERTEX
  5
16E
  8
TEAM-NET1
 10
26.111111
 20
0.0
 30
800.0
 70
    64
  0
VERTEX
  5
16F
  8
TEAM-NET1
 10
39.166667
 20
0.0
 30
800.0
 70
    64
  0
VERTEX
  5
170
  8
TEAM-NET1
 10
52.222222
 20
0.0
 30
800.0
 70
    64
  0
VERTEX
  5
171
  8
TEAM-NET1
 10
65.277778
 20
0.0
 30
800.0
 70
    64
  0
VERTEX
  5
172
  8
TEAM-NET1
 10
78.333333
 20
0.0
 30
800.0
 70
    64
  0
VERTEX
  5
173
  8
TEAM-NET1
 10
91.388889
 20
0.0
 30
800.0
 70
    64
  0
VERTEX
  5
174
  8
TEAM-NET1
 10
104.444444
 20
0.0
 30
800.0
 70
    64
  0
VERTEX
  5
175
  8
TEAM-NET1
 10
117.5
 20
0.0
 30
800.0
 70
    64
  0
VERTEX
  5
176
  8
TEAM-NET1
 10
130.555556
 20
0.0
 30
800.0
 70
    64
  0
VERTEX
  5
177
  8
TEAM-NET1
 10
143.611111
 20
0.0
 30
800.0
 70
    64
  0
VERTEX
  5
178
  8
TEAM-NET1
 10
156.666667
 20
0.0
 30
800.0
 70
    64
  0
VERTEX
  5
179
  8
TEAM-NET1
 10
169.722222
 20
0.0
 30
800.0
 70
    64
  0
VERTEX
  5
17A
  8
TEAM-NET1
 10
182.777778
 20
0.0
 30
800.0
 70
    64
  0
VERTEX
  5
17B
  8
TEAM-NET1
 10
195.833333
 20
0.0
 30
800.0
 70
    64
  0
VERTEX
  5
17C
  8
TEAM-NET1
 10
208.888889
 20
0.0
 30
800.0
 70
    64
  0
VERTEX
  5
17D
  8
TEAM-NET1
 10
221.944444
 20
0.0
 30
800.0
 70
    64
  0
VERTEX
  5
17E
  8
TEAM-NET1
 10
235.0
 20
0.0
 30
800.0
 70
    64
  0
VERTEX
  5
17F
  8
TEAM-NET1
 10
-235.0
 20
0.0
 30
770.0
 70
    64
  0
VERTEX
  5
180
  8
TEAM-NET1
 10
-221.944444
 20
0.0
 30
770.0
 70
    64
  0
VERTEX
  5
181
  8
TEAM-NET1
 10
-208.888889
 20
0.0
 30
770.0
 70
    64
  0
VERTEX
  5
182
  8
TEAM-NET1
 10
-195.833333
 20
0.0
 30
770.0
 70
    64
  0
VERTEX
  5
183
  8
TEAM-NET1
 10
-182.777778
 20
0.0
 30
770.0
 70
    64
  0
VERTEX
  5
184
  8
TEAM-NET1
 10
-169.722222
 20
0.0
 30
770.0
 70
    64
  0
VERTEX
  5
185
  8
TEAM-NET1
 10
-156.666667
 20
0.0
 30
770.0
 70
    64
  0
VERTEX
  5
186
  8
TEAM-NET1
 10
-143.611111
 20
0.0
 30
770.0
 70
    64
  0
VERTEX
  5
187
  8
TEAM-NET1
 10
-130.555556
 20
0.0
 30
770.0
 70
    64
  0
VERTEX
  5
188
  8
TEAM-NET1
 10
-117.5
 20
0.0
 30
770.0
 70
    64
  0
VERTEX
  5
189
  8
TEAM-NET1
 10
-104.444444
 20
0.0
 30
770.0
 70
    64
  0
VERTEX
  5
18A
  8
TEAM-NET1
 10
-91.388889
 20
0.0
 30
770.0
 70
    64
  0
VERTEX
  5
18B
  8
TEAM-NET1
 10
-78.333333
 20
0.0
 30
770.0
 70
    64
  0
VERTEX
  5
18C
  8
TEAM-NET1
 10
-65.277778
 20
0.0
 30
770.0
 70
    64
  0
VERTEX
  5
18D
  8
TEAM-NET1
 10
-52.222222
 20
0.0
 30
770.0
 70
    64
  0
VERTEX
  5
18E
  8
TEAM-NET1
 10
-39.166667
 20
0.0
 30
770.0
 70
    64
  0
VERTEX
  5
18F
  8
TEAM-NET1
 10
-26.111111
 20
0.0
 30
770.0
 70
    64
  0
VERTEX
  5
190
  8
TEAM-NET1
 10
-13.055556
 20
0.0
 30
770.0
 70
    64
  0
VERTEX
  5
191
  8
TEAM-NET1
 10
0.0
 20
0.0
 30
770.0
 70
    64
  0
VERTEX
  5
192
  8
TEAM-NET1
 10
13.055556
 20
0.0
 30
770.0
 70
    64
  0
VERTEX
  5
193
  8
TEAM-NET1
 10
26.111111
 20
0.0
 30
770.0
 70
    64
  0
VERTEX
  5
194
  8
TEAM-NET1
 10
39.166667
 20
0.0
 30
770.0
 70
    64
  0
VERTEX
  5
195
  8
TEAM-NET1
 10
52.222222
 20
0.0
 30
770.0
 70
    64
  0
VERTEX
  5
196
  8
TEAM-NET1
 10
65.277778
 20
0.0
 30
770.0
 70
    64
  0
VERTEX
  5
197
  8
TEAM-NET1
 10
78.333333
 20
0.0
 30
770.0
 70
    64
  0
VERTEX
  5
198
  8
TEAM-NET1
 10
91.388889
 20
0.0
 30
770.0
 70
    64
  0
VERTEX
  5
199
  8
TEAM-NET1
 10
104.444444
 20
0.0
 30
770.0
 70
    64
  0
VERTEX
  5
19A
  8
TEAM-NET1
 10
117.5
 20
0.0
 30
770.0
 70
    64
  0
VERTEX
  5
19B
  8
TEAM-NET1
 10
130.555556
 20
0.0
 30
770.0
 70
    64
  0
VERTEX
  5
19C
  8
TEAM-NET1
 10
143.611111
 20
0.0
 30
770.0
 70
    64
  0
VERTEX
  5
19D
  8
TEAM-NET1
 10
156.666667
 20
0.0
 30
770.0
 70
    64
  0
VERTEX
  5
19E
  8
TEAM-NET1
 10
169.722222
 20
0.0
 30
770.0
 70
    64
  0
VERTEX
  5
19F
  8
TEAM-NET1
 10
182.777778
 20
0.0
 30
770.0
 70
    64
  0
VERTEX
  5
1A0
  8
TEAM-NET1
 10
195.833333
 20
0.0
 30
770.0
 70
    64
  0
VERTEX
  5
1A1
  8
TEAM-NET1
 10
208.888889
 20
0.0
 30
770.0
 70
    64
  0
VERTEX
  5
1A2
  8
TEAM-NET1
 10
221.944444
 20
0.0
 30
770.0
 70
    64
  0
VERTEX
  5
1A3
  8
TEAM-NET1
 10
235.0
 20
0.0
 30
770.0
 70
    64
  0
SEQEND
  5
1A4
  8
TEAM-NET1
  0
POLYLINE
  5
1A5
  8
TEAM-NET1
 66
     1
 10
0.0
 20
0.0
 30
0.0
 70
    16
 71
     2
 72
    37
  0
VERTEX
  5
1A6
  8
TEAM-NET1
 10
235.0
 20
0.0
 30
770.0
 70
    64
  0
VERTEX
  5
1A7
  8
TEAM-NET1
 10
240.883589
 20
-35.205005
 30
770.0
 70
    64
  0
VERTEX
  5
1A8
  8
TEAM-NET1
 10
246.767178
 20
-70.410009
 30
770.0
 70
    64
  0
VERTEX
  5
1A9
  8
TEAM-NET1
 10
252.650767
 20
-105.615014
 30
770.0
 70
    64
  0
VERTEX
  5
1AA
  8
TEAM-NET1
 10
258.534356
 20
-140.820018
 30
770.0
 70
    64
  0
VERTEX
  5
1AB
  8
TEAM-NET1
 10
264.417945
 20
-176.025023
 30
770.0
 70
    64
  0
VERTEX
  5
1AC
  8
TEAM-NET1
 10
270.301534
 20
-211.230027
 30
770.0
 70
    64
  0
VERTEX
  5
1AD
  8
TEAM-NET1
 10
275.0
 20
-246.533381
 30
770.0
 70
    64
  0
VERTEX
  5
1AE
  8
TEAM-NET1
 10
272.409222
 20
-282.087369
 30
770.0
 70
    64
  0
VERTEX
  5
1AF
  8
TEAM-NET1
 10
263.577628
 20
-316.621904
 30
770.0
 70
    64
  0
VERTEX
  5
1B0
  8
TEAM-NET1
 10
248.75572
 20
-349.040141
 30
770.0
 70
    64
  0
VERTEX
  5
1B1
  8
TEAM-NET1
 10
228.414327
 20
-378.312292
 30
770.0
 70
    64
  0
VERTEX
  5
1B2
  8
TEAM-NET1
 10
203.199608
 20
-403.508503
 30
770.0
 70
    64
  0
VERTEX
  5
1B3
  8
TEAM-NET1
 10
173.912529
 20
-423.828397
 30
770.0
 70
    64
  0
VERTEX
  5
1B4
  8
TEAM-NET1
 10
141.483416
 20
-438.626497
 30
770.0
 70
    64
  0
VERTEX
  5
1B5
  8
TEAM-NET1
 10
106.942406
 20
-447.43273
 30
770.0
 70
    64
  0
VERTEX
  5
1B6
  8
TEAM-NET1
 10
71.386524
 20
-450.0
 30
770.0
 70
    64
  0
VERTEX
  5
1B7
  8
TEAM-NET1
 10
35.693262
 20
-450.0
 30
770.0
 70
    64
  0
VERTEX
  5
1B8
  8
TEAM-NET1
 10
0.0
 20
-450.0
 30
770.0
 70
    64
  0
VERTEX
  5
1B9
  8
TEAM-NET1
 10
-35.693262
 20
-450.0
 30
770.0
 70
    64
  0
VERTEX
  5
1BA
  8
TEAM-NET1
 10
-71.386524
 20
-450.0
 30
770.0
 70
    64
  0
VERTEX
  5
1BB
  8
TEAM-NET1
 10
-106.942406
 20
-447.43273
 30
770.0
 70
    64
  0
VERTEX
  5
1BC
  8
TEAM-NET1
 10
-141.483416
 20
-438.626497
 30
770.0
 70
    64
  0
VERTEX
  5
1BD
  8
TEAM-NET1
 10
-173.912529
 20
-423.828397
 30
770.0
 70
    64
  0
VERTEX
  5
1BE
  8
TEAM-NET1
 10
-203.199608
 20
-403.508503
 30
770.0
 70
    64
  0
VERTEX
  5
1BF
  8
TEAM-NET1
 10
-228.414327
 20
-378.312292
 30
770.0
 70
    64
  0
VERTEX
  5
1C0
  8
TEAM-NET1
 10
-248.75572
 20
-349.040141
 30
770.0
 70
    64
  0
VERTEX
  5
1C1
  8
TEAM-NET1
 10
-263.577628
 20
-316.621904
 30
770.0
 70
    64
  0
VERTEX
  5
1C2
  8
TEAM-NET1
 10
-272.409222
 20
-282.087369
 30
770.0
 70
    64
  0
VERTEX
  5
1C3
  8
TEAM-NET1
 10
-275.0
 20
-246.533381
 30
770.0
 70
    64
  0
VERTEX
  5
1C4
  8
TEAM-NET1
 10
-270.301534
 20
-211.230027
 30
770.0
 70
    64
  0
VERTEX
  5
1C5
  8
TEAM-NET1
 10
-264.417945
 20
-176.025023
 30
770.0
 70
    64
  0
VERTEX
  5
1C6
  8
TEAM-NET1
 10
-258.534356
 20
-140.820018
 30
770.0
 70
    64
  0
VERTEX
  5
1C7
  8
TEAM-NET1
 10
-252.650767
 20
-105.615014
 30
770.0
 70
    64
  0
VERTEX
  5
1C8
  8
TEAM-NET1
 10
-246.767178
 20
-70.410009
 30
770.0
 70
    64
  0
VERTEX
  5
1C9
  8
TEAM-NET1
 10
-240.883589
 20
-35.205005
 30
770.0
 70
    64
  0
VERTEX
  5
1CA
  8
TEAM-NET1
 10
-235.0
 20
0.0
 30
770.0
 70
    64
  0
VERTEX
  5
1CB
  8
TEAM-NET1
 10
235.0
 20
0.0
 30
800.0
 70
    64
  0
VERTEX
  5
1CC
  8
TEAM-NET1
 10
240.883589
 20
-35.205005
 30
800.0
 70
    64
  0
VERTEX
  5
1CD
  8
TEAM-NET1
 10
246.767178
 20
-70.410009
 30
800.0
 70
    64
  0
VERTEX
  5
1CE
  8
TEAM-NET1
 10
252.650767
 20
-105.615014
 30
800.0
 70
    64
  0
VERTEX
  5
1CF
  8
TEAM-NET1
 10
258.534356
 20
-140.820018
 30
800.0
 70
    64
  0
VERTEX
  5
1D0
  8
TEAM-NET1
 10
264.417945
 20
-176.025023
 30
800.0
 70
    64
  0
VERTEX
  5
1D1
  8
TEAM-NET1
 10
270.301534
 20
-211.230027
 30
800.0
 70
    64
  0
VERTEX
  5
1D2
  8
TEAM-NET1
 10
275.0
 20
-246.533381
 30
800.0
 70
    64
  0
VERTEX
  5
1D3
  8
TEAM-NET1
 10
272.409222
 20
-282.087369
 30
800.0
 70
    64
  0
VERTEX
  5
1D4
  8
TEAM-NET1
 10
263.577628
 20
-316.621904
 30
800.0
 70
    64
  0
VERTEX
  5
1D5
  8
TEAM-NET1
 10
248.75572
 20
-349.040141
 30
800.0
 70
    64
  0
VERTEX
  5
1D6
  8
TEAM-NET1
 10
228.414327
 20
-378.312292
 30
800.0
 70
    64
  0
VERTEX
  5
1D7
  8
TEAM-NET1
 10
203.199608
 20
-403.508503
 30
800.0
 70
    64
  0
VERTEX
  5
1D8
  8
TEAM-NET1
 10
173.912529
 20
-423.828397
 30
800.0
 70
    64
  0
VERTEX
  5
1D9
  8
TEAM-NET1
 10
141.483416
 20
-438.626497
 30
800.0
 70
    64
  0
VERTEX
  5
1DA
  8
TEAM-NET1
 10
106.942406
 20
-447.43273
 30
800.0
 70
    64
  0
VERTEX
  5
1DB
  8
TEAM-NET1
 10
71.386524
 20
-450.0
 30
800.0
 70
    64
  0
VERTEX
  5
1DC
  8
TEAM-NET1
 10
35.693262
 20
-450.0
 30
800.0
 70
    64
  0
VERTEX
  5
1DD
  8
TEAM-NET1
 10
0.0
 20
-450.0
 30
800.0
 70
    64
  0
VERTEX
  5
1DE
  8
TEAM-NET1
 10
-35.693262
 20
-450.0
 30
800.0
 70
    64
  0
VERTEX
  5
1DF
  8
TEAM-NET1
 10
-71.386524
 20
-450.0
 30
800.0
 70
    64
  0
VERTEX
  5
1E0
  8
TEAM-NET1
 10
-106.942406
 20
-447.43273
 30
800.0
 70
    64
  0
VERTEX
  5
1E1
  8
TEAM-NET1
 10
-141.483416
 20
-438.626497
 30
800.0
 70
    64
  0
VERTEX
  5
1E2
  8
TEAM-NET1
 10
-173.912529
 20
-423.828397
 30
800.0
 70
    64
  0
VERTEX
  5
1E3
  8
TEAM-NET1
 10
-203.199608
 20
-403.508503
 30
800.0
 70
    64
  0
VERTEX
  5
1E4
  8
TEAM-NET1
 10
-228.414327
 20
-378.312292
 30
800.0
 70
    64
  0
VERTEX
  5
1E5
  8
TEAM-NET1
 10
-248.75572
 20
-349.040141
 30
800.0
 70
    64
  0
VERTEX
  5
1E6
  8
TEAM-NET1
 10
-263.577628
 20
-316.621904
 30
800.0
 70
    64
  0
VERTEX
  5
1E7
  8
TEAM-NET1
 10
-272.409222
 20
-282.087369
 30
800.0
 70
    64
  0
VERTEX
  5
1E8
  8
TEAM-NET1
 10
-275.0
 20
-246.533381
 30
800.0
 70
    64
  0
VERTEX
  5
1E9
  8
TEAM-NET1
 10
-270.301534
 20
-211.230027
 30
800.0
 70
    64
  0
VERTEX
  5
1EA
  8
TEAM-NET1
 10
-264.417945
 20
-176.025023
 30
800.0
 70
    64
  0
VERTEX
  5
1EB
  8
TEAM-NET1
 10
-258.534356
 20
-140.820018
 30
800.0
 70
    64
  0
VERTEX
  5
1EC
  8
TEAM-NET1
 10
-252.650767
 20
-105.615014
 30
800.0
 70
    64
  0
VERTEX
  5
1ED
  8
TEAM-NET1
 10
-246.767178
 20
-70.410009
 30
800.0
 70
    64
  0
VERTEX
  5
1EE
  8
TEAM-NET1
 10
-240.883589
 20
-35.205005
 30
800.0
 70
    64
  0
VERTEX
  5
1EF
  8
TEAM-NET1
 10
-235.0
 20
0.0
 30
800.0
 70
    64
  0
SEQEND
  5
1F0
  8
TEAM-NET1
  0
POLYLINE
  5
1F1
  8
TEAM-NET1
 66
     1
 10
0.0
 20
0.0
 30
0.0
 70
    16
 71
     2
 72
    37
  0
VERTEX
  5
1F2
  8
TEAM-NET1
 10
-244.712117
 20
-240.110753
 30
770.0
 70
    64
  0
VERTEX
  5
1F3
  8
TEAM-NET1
 10
-244.725795
 20
-259.651652
 30
770.0
 70
    64
  0
VERTEX
  5
1F4
  8
TEAM-NET1
 10
-242.496938
 20
-279.065028
 30
770.0
 70
    64
  0
VERTEX
  5
1F5
  8
TEAM-NET1
 10
-238.054994
 20
-298.094376
 30
770.0
 70
    64
  0
VERTEX
  5
1F6
  8
TEAM-NET1
 10
-231.458654
 20
-316.488267
 30
770.0
 70
    64
  0
VERTEX
  5
1F7
  8
TEAM-NET1
 10
-222.795073
 20
-334.003669
 30
770.0
 70
    64
  0
VERTEX
  5
1F8
  8
TEAM-NET1
 10
-212.17872
 20
-350.409156
 30
770.0
 70
    64
  0
VERTEX
  5
1F9
  8
TEAM-NET1
 10
-199.749867
 20
-365.487967
 30
770.0
 70
    64
  0
VERTEX
  5
1FA
  8
TEAM-NET1
 10
-185.672732
 20
-379.040871
 30
770.0
 70
    64
  0
VERTEX
  5
1FB
  8
TEAM-NET1
 10
-170.133311
 20
-390.888797
 30
770.0
 70
    64
  0
VERTEX
  5
1FC
  8
TEAM-NET1
 10
-153.336923
 20
-400.875202
 30
770.0
 70
    64
  0
VERTEX
  5
1FD
  8
TEAM-NET1
 10
-135.505492
 20
-408.868138
 30
770.0
 70
    64
  0
VERTEX
  5
1FE
  8
TEAM-NET1
 10
-116.874621
 20
-414.761998
 30
770.0
 70
    64
  0
VERTEX
  5
1FF
  8
TEAM-NET1
 10
-97.690473
 20
-418.478908
 30
770.0
 70
    64
  0
VERTEX
  5
200
  8
TEAM-NET1
 10
-78.206523
 20
-419.969757
 30
770.0
 70
    64
  0
VERTEX
  5
201
  8
TEAM-NET1
 10
-58.655035
 20
-420.0
 30
770.0
 70
    64
  0
VERTEX
  5
202
  8
TEAM-NET1
 10
-39.103357
 20
-420.0
 30
770.0
 70
    64
  0
VERTEX
  5
203
  8
TEAM-NET1
 10
-19.551678
 20
-420.0
 30
770.0
 70
    64
  0
VERTEX
  5
204
  8
TEAM-NET1
 10
0.0
 20
-420.0
 30
770.0
 70
    64
  0
VERTEX
  5
205
  8
TEAM-NET1
 10
19.551678
 20
-420.0
 30
770.0
 70
    64
  0
VERTEX
  5
206
  8
TEAM-NET1
 10
39.103357
 20
-420.0
 30
770.0
 70
    64
  0
VERTEX
  5
207
  8
TEAM-NET1
 10
58.655035
 20
-420.0
 30
770.0
 70
    64
  0
VERTEX
  5
208
  8
TEAM-NET1
 10
78.206523
 20
-419.969757
 30
770.0
 70
    64
  0
VERTEX
  5
209
  8
TEAM-NET1
 10
97.690473
 20
-418.478908
 30
770.0
 70
    64
  0
VERTEX
  5
20A
  8
TEAM-NET1
 10
116.874621
 20
-414.761998
 30
770.0
 70
    64
  0
VERTEX
  5
20B
  8
TEAM-NET1
 10
135.505492
 20
-408.868138
 30
770.0
 70
    64
  0
VERTEX
  5
20C
  8
TEAM-NET1
 10
153.336923
 20
-400.875202
 30
770.0
 70
    64
  0
VERTEX
  5
20D
  8
TEAM-NET1
 10
170.133311
 20
-390.888797
 30
770.0
 70
    64
  0
VERTEX
  5
20E
  8
TEAM-NET1
 10
185.672732
 20
-379.040871
 30
770.0
 70
    64
  0
VERTEX
  5
20F
  8
TEAM-NET1
 10
199.749867
 20
-365.487967
 30
770.0
 70
    64
  0
VERTEX
  5
210
  8
TEAM-NET1
 10
212.17872
 20
-350.409156
 30
770.0
 70
    64
  0
VERTEX
  5
211
  8
TEAM-NET1
 10
222.795073
 20
-334.003669
 30
770.0
 70
    64
  0
VERTEX
  5
212
  8
TEAM-NET1
 10
231.458654
 20
-316.488267
 30
770.0
 70
    64
  0
VERTEX
  5
213
  8
TEAM-NET1
 10
238.054994
 20
-298.094376
 30
770.0
 70
    64
  0
VERTEX
  5
214
  8
TEAM-NET1
 10
242.496938
 20
-279.065028
 30
770.0
 70
    64
  0
VERTEX
  5
215
  8
TEAM-NET1
 10
244.725795
 20
-259.651652
 30
770.0
 70
    64
  0
VERTEX
  5
216
  8
TEAM-NET1
 10
244.712117
 20
-240.110753
 30
770.0
 70
    64
  0
VERTEX
  5
217
  8
TEAM-NET1
 10
-244.712117
 20
-240.110753
 30
800.0
 70
    64
  0
VERTEX
  5
218
  8
TEAM-NET1
 10
-244.725795
 20
-259.651652
 30
800.0
 70
    64
  0
VERTEX
  5
219
  8
TEAM-NET1
 10
-242.496938
 20
-279.065028
 30
800.0
 70
    64
  0
VERTEX
  5
21A
  8
TEAM-NET1
 10
-238.054994
 20
-298.094376
 30
800.0
 70
    64
  0
VERTEX
  5
21B
  8
TEAM-NET1
 10
-231.458654
 20
-316.488267
 30
800.0
 70
    64
  0
VERTEX
  5
21C
  8
TEAM-NET1
 10
-222.795073
 20
-334.003669
 30
800.0
 70
    64
  0
VERTEX
  5
21D
  8
TEAM-NET1
 10
-212.17872
 20
-350.409156
 30
800.0
 70
    64
  0
VERTEX
  5
21E
  8
TEAM-NET1
 10
-199.749867
 20
-365.487967
 30
800.0
 70
    64
  0
VERTEX
  5
21F
  8
TEAM-NET1
 10
-185.672732
 20
-379.040871
 30
800.0
 70
    64
  0
VERTEX
  5
220
  8
TEAM-NET1
 10
-170.133311
 20
-390.888797
 30
800.0
 70
    64
  0
VERTEX
  5
221
  8
TEAM-NET1
 10
-153.336923
 20
-400.875202
 30
800.0
 70
    64
  0
VERTEX
  5
222
  8
TEAM-NET1
 10
-135.505492
 20
-408.868138
 30
800.0
 70
    64
  0
VERTEX
  5
223
  8
TEAM-NET1
 10
-116.874621
 20
-414.761998
 30
800.0
 70
    64
  0
VERTEX
  5
224
  8
TEAM-NET1
 10
-97.690473
 20
-418.478908
 30
800.0
 70
    64
  0
VERTEX
  5
225
  8
TEAM-NET1
 10
-78.206523
 20
-419.969757
 30
800.0
 70
    64
  0
VERTEX
  5
226
  8
TEAM-NET1
 10
-58.655035
 20
-420.0
 30
800.0
 70
    64
  0
VERTEX
  5
227
  8
TEAM-NET1
 10
-39.103357
 20
-420.0
 30
800.0
 70
    64
  0
VERTEX
  5
228
  8
TEAM-NET1
 10
-19.551678
 20
-420.0
 30
800.0
 70
    64
  0
VERTEX
  5
229
  8
TEAM-NET1
 10
0.0
 20
-420.0
 30
800.0
 70
    64
  0
VERTEX
  5
22A
  8
TEAM-NET1
 10
19.551678
 20
-420.0
 30
800.0
 70
    64
  0
VERTEX
  5
22B
  8
TEAM-NET1
 10
39.103357
 20
-420.0
 30
800.0
 70
    64
  0
VERTEX
  5
22C
  8
TEAM-NET1
 10
58.655035
 20
-420.0
 30
800.0
 70
    64
  0
VERTEX
  5
22D
  8
TEAM-NET1
 10
78.206523
 20
-419.969757
 30
800.0
 70
    64
  0
VERTEX
  5
22E
  8
TEAM-NET1
 10
97.690473
 20
-418.478908
 30
800.0
 70
    64
  0
VERTEX
  5
22F
  8
TEAM-NET1
 10
116.874621
 20
-414.761998
 30
800.0
 70
    64
  0
VERTEX
  5
230
  8
TEAM-NET1
 10
135.505492
 20
-408.868138
 30
800.0
 70
    64
  0
VERTEX
  5
231
  8
TEAM-NET1
 10
153.336923
 20
-400.875202
 30
800.0
 70
    64
  0
VERTEX
  5
232
  8
TEAM-NET1
 10
170.133311
 20
-390.888797
 30
800.0
 70
    64
  0
VERTEX
  5
233
  8
TEAM-NET1
 10
185.672732
 20
-379.040871
 30
800.0
 70
    64
  0
VERTEX
  5
234
  8
TEAM-NET1
 10
199.749867
 20
-365.487967
 30
800.0
 70
    64
  0
VERTEX
  5
235
  8
TEAM-NET1
 10
212.17872
 20
-350.409156
 30
800.0
 70
    64
  0
VERTEX
  5
236
  8
TEAM-NET1
 10
222.795073
 20
-334.003669
 30
800.0
 70
    64
  0
VERTEX
  5
237
  8
TEAM-NET1
 10
231.458654
 20
-316.488267
 30
800.0
 70
    64
  0
VERTEX
  5
238
  8
TEAM-NET1
 10
238.054994
 20
-298.094376
 30
800.0
 70
    64
  0
VERTEX
  5
239
  8
TEAM-NET1
 10
242.496938
 20
-279.065028
 30
800.0
 70
    64
  0
VERTEX
  5
23A
  8
TEAM-NET1
 10
244.725795
 20
-259.651652
 30
800.0
 70
    64
  0
VERTEX
  5
23B
  8
TEAM-NET1
 10
244.712117
 20
-240.110753
 30
800.0
 70
    64
  0
SEQEND
  5
23C
  8
TEAM-NET1
  0
POLYLINE
  5
23D
  8
TEAM-NET1
 66
     1
 10
0.0
 20
0.0
 30
0.0
 70
    16
 71
     2
 72
    37
  0
VERTEX
  5
23E
  8
TEAM-NET1
 10
-240.56137
 20
-215.274371
 30
770.0
 70
    64
  0
VERTEX
  5
23F
  8
TEAM-NET1
 10
-236.855786
 20
-198.84063
 30
770.0
 70
    64
  0
VERTEX
  5
240
  8
TEAM-NET1
 10
-231.330828
 20
-182.926045
 30
770.0
 70
    64
  0
VERTEX
  5
241
  8
TEAM-NET1
 10
-224.056185
 20
-167.731351
 30
770.0
 70
    64
  0
VERTEX
  5
242
  8
TEAM-NET1
 10
-215.123612
 20
-153.448202
 30
770.0
 70
    64
  0
VERTEX
  5
243
  8
TEAM-NET1
 10
-204.645781
 20
-140.256757
 30
770.0
 70
    64
  0
VERTEX
  5
244
  8
TEAM-NET1
 10
-192.754849
 20
-128.323404
 30
770.0
 70
    64
  0
VERTEX
  5
245
  8
TEAM-NET1
 10
-179.600802
 20
-117.79866
 30
770.0
 70
    64
  0
VERTEX
  5
246
  8
TEAM-NET1
 10
-165.349556
 20
-108.815278
 30
770.0
 70
    64
  0
VERTEX
  5
247
  8
TEAM-NET1
 10
-150.180865
 20
-101.486568
 30
770.0
 70
    64
  0
VERTEX
  5
248
  8
TEAM-NET1
 10
-134.286057
 20
-95.904969
 30
770.0
 70
    64
  0
VERTEX
  5
249
  8
TEAM-NET1
 10
-117.865617
 20
-92.140883
 30
770.0
 70
    64
  0
VERTEX
  5
24A
  8
TEAM-NET1
 10
-101.126662
 20
-90.241788
 30
770.0
 70
    64
  0
VERTEX
  5
24B
  8
TEAM-NET1
 10
-84.276032
 20
-90.0
 30
770.0
 70
    64
  0
VERTEX
  5
24C
  8
TEAM-NET1
 10
-67.420826
 20
-90.0
 30
770.0
 70
    64
  0
VERTEX
  5
24D
  8
TEAM-NET1
 10
-50.565619
 20
-90.0
 30
770.0
 70
    64
  0
VERTEX
  5
24E
  8
TEAM-NET1
 10
-33.710413
 20
-90.0
 30
770.0
 70
    64
  0
VERTEX
  5
24F
  8
TEAM-NET1
 10
-16.855206
 20
-90.0
 30
770.0
 70
    64
  0
VERTEX
  5
250
  8
TEAM-NET1
 10
0.0
 20
-90.0
 30
770.0
 70
    64
  0
VERTEX
  5
251
  8
TEAM-NET1
 10
16.855206
 20
-90.0
 30
770.0
 70
    64
  0
VERTEX
  5
252
  8
TEAM-NET1
 10
33.710413
 20
-90.0
 30
770.0
 70
    64
  0
VERTEX
  5
253
  8
TEAM-NET1
 10
50.565619
 20
-90.0
 30
770.0
 70
    64
  0
VERTEX
  5
254
  8
TEAM-NET1
 10
67.420826
 20
-90.0
 30
770.0
 70
    64
  0
VERTEX
  5
255
  8
TEAM-NET1
 10
84.276032
 20
-90.0
 30
770.0
 70
    64
  0
VERTEX
  5
256
  8
TEAM-NET1
 10
101.126662
 20
-90.241788
 30
770.0
 70
    64
  0
VERTEX
  5
257
  8
TEAM-NET1
 10
117.865617
 20
-92.140883
 30
770.0
 70
    64
  0
VERTEX
  5
258
  8
TEAM-NET1
 10
134.286057
 20
-95.904969
 30
770.0
 70
    64
  0
VERTEX
  5
259
  8
TEAM-NET1
 10
150.180865
 20
-101.486568
 30
770.0
 70
    64
  0
VERTEX
  5
25A
  8
TEAM-NET1
 10
165.349556
 20
-108.815278
 30
770.0
 70
    64
  0
VERTEX
  5
25B
  8
TEAM-NET1
 10
179.600802
 20
-117.79866
 30
770.0
 70
    64
  0
VERTEX
  5
25C
  8
TEAM-NET1
 10
192.754849
 20
-128.323404
 30
770.0
 70
    64
  0
VERTEX
  5
25D
  8
TEAM-NET1
 10
204.645781
 20
-140.256757
 30
770.0
 70
    64
  0
VERTEX
  5
25E
  8
TEAM-NET1
 10
215.123612
 20
-153.448202
 30
770.0
 70
    64
  0
VERTEX
  5
25F
  8
TEAM-NET1
 10
224.056185
 20
-167.731351
 30
770.0
 70
    64
  0
VERTEX
  5
260
  8
TEAM-NET1
 10
231.330828
 20
-182.926045
 30
770.0
 70
    64
  0
VERTEX
  5
261
  8
TEAM-NET1
 10
236.855786
 20
-198.84063
 30
770.0
 70
    64
  0
VERTEX
  5
262
  8
TEAM-NET1
 10
240.56137
 20
-215.274371
 30
770.0
 70
    64
  0
VERTEX
  5
263
  8
TEAM-NET1
 10
-240.56137
 20
-215.274371
 30
800.0
 70
    64
  0
VERTEX
  5
264
  8
TEAM-NET1
 10
-236.855786
 20
-198.84063
 30
800.0
 70
    64
  0
VERTEX
  5
265
  8
TEAM-NET1
 10
-231.330828
 20
-182.926045
 30
800.0
 70
    64
  0
VERTEX
  5
266
  8
TEAM-NET1
 10
-224.056185
 20
-167.731351
 30
800.0
 70
    64
  0
VERTEX
  5
267
  8
TEAM-NET1
 10
-215.123612
 20
-153.448202
 30
800.0
 70
    64
  0
VERTEX
  5
268
  8
TEAM-NET1
 10
-204.645781
 20
-140.256757
 30
800.0
 70
    64
  0
VERTEX
  5
269
  8
TEAM-NET1
 10
-192.754849
 20
-128.323404
 30
800.0
 70
    64
  0
VERTEX
  5
26A
  8
TEAM-NET1
 10
-179.600802
 20
-117.79866
 30
800.0
 70
    64
  0
VERTEX
  5
26B
  8
TEAM-NET1
 10
-165.349556
 20
-108.815278
 30
800.0
 70
    64
  0
VERTEX
  5
26C
  8
TEAM-NET1
 10
-150.180865
 20
-101.486568
 30
800.0
 70
    64
  0
VERTEX
  5
26D
  8
TEAM-NET1
 10
-134.286057
 20
-95.904969
 30
800.0
 70
    64
  0
VERTEX
  5
26E
  8
TEAM-NET1
 10
-117.865617
 20
-92.140883
 30
800.0
 70
    64
  0
VERTEX
  5
26F
  8
TEAM-NET1
 10
-101.126662
 20
-90.241788
 30
800.0
 70
    64
  0
VERTEX
  5
270
  8
TEAM-NET1
 10
-84.276032
 20
-90.0
 30
800.0
 70
    64
  0
VERTEX
  5
271
  8
TEAM-NET1
 10
-67.420826
 20
-90.0
 30
800.0
 70
    64
  0
VERTEX
  5
272
  8
TEAM-NET1
 10
-50.565619
 20
-90.0
 30
800.0
 70
    64
  0
VERTEX
  5
273
  8
TEAM-NET1
 10
-33.710413
 20
-90.0
 30
800.0
 70
    64
  0
VERTEX
  5
274
  8
TEAM-NET1
 10
-16.855206
 20
-90.0
 30
800.0
 70
    64
  0
VERTEX
  5
275
  8
TEAM-NET1
 10
0.0
 20
-90.0
 30
800.0
 70
    64
  0
VERTEX
  5
276
  8
TEAM-NET1
 10
16.855206
 20
-90.0
 30
800.0
 70
    64
  0
VERTEX
  5
277
  8
TEAM-NET1
 10
33.710413
 20
-90.0
 30
800.0
 70
    64
  0
VERTEX
  5
278
  8
TEAM-NET1
 10
50.565619
 20
-90.0
 30
800.0
 70
    64
  0
VERTEX
  5
279
  8
TEAM-NET1
 10
67.420826
 20
-90.0
 30
800.0
 70
    64
  0
VERTEX
  5
27A
  8
TEAM-NET1
 10
84.276032
 20
-90.0
 30
800.0
 70
    64
  0
VERTEX
  5
27B
  8
TEAM-NET1
 10
101.126662
 20
-90.241788
 30
800.0
 70
    64
  0
VERTEX
  5
27C
  8
TEAM-NET1
 10
117.865617
 20
-92.140883
 30
800.0
 70
    64
  0
VERTEX
  5
27D
  8
TEAM-NET1
 10
134.286057
 20
-95.904969
 30
800.0
 70
    64
  0
VERTEX
  5
27E
  8
TEAM-NET1
 10
150.180865
 20
-101.486568
 30
800.0
 70
    64
  0
VERTEX
  5
27F
  8
TEAM-NET1
 10
165.349556
 20
-108.815278
 30
800.0
 70
    64
  0
VERTEX
  5
280
  8
TEAM-NET1
 10
179.600802
 20
-117.79866
 30
800.0
 70
    64
  0
VERTEX
  5
281
  8
TEAM-NET1
 10
192.754849
 20
-128.323404
 30
800.0
 70
    64
  0
VERTEX
  5
282
  8
TEAM-NET1
 10
204.645781
 20
-140.256757
 30
800.0
 70
    64
  0
VERTEX
  5
283
  8
TEAM-NET1
 10
215.123612
 20
-153.448202
 30
800.0
 70
    64
  0
VERTEX
  5
284
  8
TEAM-NET1
 10
224.056185
 20
-167.731351
 30
800.0
 70
    64
  0
VERTEX
  5
285
  8
TEAM-NET1
 10
231.330828
 20
-182.926045
 30
800.0
 70
    64
  0
VERTEX
  5
286
  8
TEAM-NET1
 10
236.855786
 20
-198.84063
 30
800.0
 70
    64
  0
VERTEX
  5
287
  8
TEAM-NET1
 10
240.56137
 20
-215.274371
 30
800.0
 70
    64
  0
SEQEND
  5
288
  8
TEAM-NET1
  0
POLYLINE
  5
289
  8
TEAM-DET3
 66
     1
 10
0.0
 20
0.0
 30
770.0
  0
VERTEX
  5
3C6
  8
TEAM-DET3
 10
244.712117
 20
-240.110753
 30
770.0
 42
0.405682
  0
VERTEX
  5
3C7
  8
TEAM-DET3
 10
92.61326
 20
-90.0
 30
770.0
  0
VERTEX
  5
3C8
  8
TEAM-DET3
 10
-92.61326
 20
-90.0
 30
770.0
 42
0.405682
  0
VERTEX
  5
3C9
  8
TEAM-DET3
 10
-244.712117
 20
-240.110753
 30
770.0
  0
SEQEND
  5
3CA
  8
TEAM-DET3
  0
LINE
  5
28A
  8
TEAM-BODY
 10
-235.0
 20
0.0
 30
770.0
 11
235.0
 21
0.0
 31
770.0
  0
POLYLINE
  5
28C
  8
TEAM-DET3
 66
     1
 10
0.0
 20
0.0
 30
770.0
  0
VERTEX
  5
3CB
  8
TEAM-DET3
 10
-244.712117
 20
-240.110753
 30
770.0
 42
0.431366
  0
VERTEX
  5
3CC
  8
TEAM-DET3
 10
-75.0
 20
-420.0
 30
770.0
  0
VERTEX
  5
3CD
  8
TEAM-DET3
 10
75.0
 20
-420.0
 30
770.0
 42
0.431366
  0
VERTEX
  5
3CE
  8
TEAM-DET3
 10
244.712117
 20
-240.110753
 30
770.0
  0
SEQEND
  5
3CF
  8
TEAM-DET3
  0
POLYLINE
  5
28D
  8
TEAM-BODY
 66
     1
 10
0.0
 20
0.0
 30
770.0
  0
VERTEX
  5
3D0
  8
TEAM-BODY
 10
235.0
 20
0.0
 30
770.0
  0
VERTEX
  5
3D1
  8
TEAM-BODY
 10
275.0
 20
-239.343734
 30
770.0
  0
VERTEX
  5
3D2
  8
TEAM-BODY
 10
275.0
 20
-250.0
 30
770.0
 42
-0.414214
  0
VERTEX
  5
3D3
  8
TEAM-BODY
 10
75.0
 20
-450.0
 30
770.0
  0
VERTEX
  5
3D4
  8
TEAM-BODY
 10
-75.0
 20
-450.0
 30
770.0
 42
-0.414214
  0
VERTEX
  5
3D5
  8
TEAM-BODY
 10
-275.0
 20
-250.0
 30
770.0
  0
VERTEX
  5
3D6
  8
TEAM-BODY
 10
-275.0
 20
-239.343734
 30
770.0
  0
VERTEX
  5
3D7
  8
TEAM-BODY
 10
-235.0
 20
0.0
 30
770.0
  0
SEQEND
  5
3D8
  8
TEAM-BODY
  0
LINE
  5
28E
  8
TEAM-BODY
 10
-235.0
 20
0.0
 30
800.0
 11
235.0
 21
0.0
 31
800.0
  0
POLYLINE
  5
28F
  8
TEAM-BODY
 66
     1
 10
0.0
 20
0.0
 30
800.0
  0
VERTEX
  5
3D9
  8
TEAM-BODY
 10
240.56137
 20
-215.274371
 30
800.0
 42
0.366503
  0
VERTEX
  5
3DA
  8
TEAM-BODY
 10
92.61326
 20
-90.0
 30
800.0
  0
VERTEX
  5
3DB
  8
TEAM-BODY
 10
-92.61326
 20
-90.0
 30
800.0
 42
0.366503
  0
VERTEX
  5
3DC
  8
TEAM-BODY
 10
-240.56137
 20
-215.274371
 30
800.0
  0
SEQEND
  5
3DD
  8
TEAM-BODY
  0
TEXT
  5
290
  8
TEAM-TXT
 10
-236.843127
 20
-255.665202
 30
800.0
 40
30.0
  1
team 412101
 41
0.8
 51
15.0
  7
TEAM
  0
POLYLINE
  5
293
  8
TEAM-NET1
 66
     1
 10
0.0
 20
0.0
 30
0.0
 70
    16
 71
     2
 72
    37
  0
VERTEX
  5
294
  8
TEAM-NET1
 10
-235.0
 20
0.0
 30
800.0
 70
    64
  0
VERTEX
  5
295
  8
TEAM-NET1
 10
-240.883589
 20
-35.205005
 30
800.0
 70
    64
  0
VERTEX
  5
296
  8
TEAM-NET1
 10
-246.767178
 20
-70.410009
 30
800.0
 70
    64
  0
VERTEX
  5
297
  8
TEAM-NET1
 10
-252.650767
 20
-105.615014
 30
800.0
 70
    64
  0
VERTEX
  5
298
  8
TEAM-NET1
 10
-258.534356
 20
-140.820018
 30
800.0
 70
    64
  0
VERTEX
  5
299
  8
TEAM-NET1
 10
-264.417945
 20
-176.025023
 30
800.0
 70
    64
  0
VERTEX
  5
29A
  8
TEAM-NET1
 10
-270.301534
 20
-211.230027
 30
800.0
 70
    64
  0
VERTEX
  5
29B
  8
TEAM-NET1
 10
-275.0
 20
-246.533381
 30
800.0
 70
    64
  0
VERTEX
  5
29C
  8
TEAM-NET1
 10
-272.409222
 20
-282.087369
 30
800.0
 70
    64
  0
VERTEX
  5
29D
  8
TEAM-NET1
 10
-263.577628
 20
-316.621904
 30
800.0
 70
    64
  0
VERTEX
  5
29E
  8
TEAM-NET1
 10
-248.75572
 20
-349.040141
 30
800.0
 70
    64
  0
VERTEX
  5
29F
  8
TEAM-NET1
 10
-228.414327
 20
-378.312292
 30
800.0
 70
    64
  0
VERTEX
  5
2A0
  8
TEAM-NET1
 10
-203.199608
 20
-403.508503
 30
800.0
 70
    64
  0
VERTEX
  5
2A1
  8
TEAM-NET1
 10
-173.912529
 20
-423.828397
 30
800.0
 70
    64
  0
VERTEX
  5
2A2
  8
TEAM-NET1
 10
-141.483416
 20
-438.626497
 30
800.0
 70
    64
  0
VERTEX
  5
2A3
  8
TEAM-NET1
 10
-106.942406
 20
-447.43273
 30
800.0
 70
    64
  0
VERTEX
  5
2A4
  8
TEAM-NET1
 10
-71.386524
 20
-450.0
 30
800.0
 70
    64
  0
VERTEX
  5
2A5
  8
TEAM-NET1
 10
-35.693262
 20
-450.0
 30
800.0
 70
    64
  0
VERTEX
  5
2A6
  8
TEAM-NET1
 10
0.0
 20
-450.0
 30
800.0
 70
    64
  0
VERTEX
  5
2A7
  8
TEAM-NET1
 10
35.693262
 20
-450.0
 30
800.0
 70
    64
  0
VERTEX
  5
2A8
  8
TEAM-NET1
 10
71.386524
 20
-450.0
 30
800.0
 70
    64
  0
VERTEX
  5
2A9
  8
TEAM-NET1
 10
106.942406
 20
-447.43273
 30
800.0
 70
    64
  0
VERTEX
  5
2AA
  8
TEAM-NET1
 10
141.483416
 20
-438.626497
 30
800.0
 70
    64
  0
VERTEX
  5
2AB
  8
TEAM-NET1
 10
173.912529
 20
-423.828397
 30
800.0
 70
    64
  0
VERTEX
  5
2AC
  8
TEAM-NET1
 10
203.199608
 20
-403.508503
 30
800.0
 70
    64
  0
VERTEX
  5
2AD
  8
TEAM-NET1
 10
228.414327
 20
-378.312292
 30
800.0
 70
    64
  0
VERTEX
  5
2AE
  8
TEAM-NET1
 10
248.75572
 20
-349.040141
 30
800.0
 70
    64
  0
VERTEX
  5
2AF
  8
TEAM-NET1
 10
263.577628
 20
-316.621904
 30
800.0
 70
    64
  0
VERTEX
  5
2B0
  8
TEAM-NET1
 10
272.409222
 20
-282.087369
 30
800.0
 70
    64
  0
VERTEX
  5
2B1
  8
TEAM-NET1
 10
275.0
 20
-246.533381
 30
800.0
 70
    64
  0
VERTEX
  5
2B2
  8
TEAM-NET1
 10
270.301534
 20
-211.230027
 30
800.0
 70
    64
  0
VERTEX
  5
2B3
  8
TEAM-NET1
 10
264.417945
 20
-176.025023
 30
800.0
 70
    64
  0
VERTEX
  5
2B4
  8
TEAM-NET1
 10
258.534356
 20
-140.820018
 30
800.0
 70
    64
  0
VERTEX
  5
2B5
  8
TEAM-NET1
 10
252.650767
 20
-105.615014
 30
800.0
 70
    64
  0
VERTEX
  5
2B6
  8
TEAM-NET1
 10
246.767178
 20
-70.410009
 30
800.0
 70
    64
  0
VERTEX
  5
2B7
  8
TEAM-NET1
 10
240.883589
 20
-35.205005
 30
800.0
 70
    64
  0
VERTEX
  5
2B8
  8
TEAM-NET1
 10
235.0
 20
0.0
 30
800.0
 70
    64
  0
VERTEX
  5
2B9
  8
TEAM-NET1
 10
-244.712117
 20
-240.110753
 30
800.0
 70
    64
  0
VERTEX
  5
2BA
  8
TEAM-NET1
 10
-244.725795
 20
-259.651652
 30
800.0
 70
    64
  0
VERTEX
  5
2BB
  8
TEAM-NET1
 10
-242.496938
 20
-279.065028
 30
800.0
 70
    64
  0
VERTEX
  5
2BC
  8
TEAM-NET1
 10
-238.054994
 20
-298.094376
 30
800.0
 70
    64
  0
VERTEX
  5
2BD
  8
TEAM-NET1
 10
-231.458654
 20
-316.488267
 30
800.0
 70
    64
  0
VERTEX
  5
2BE
  8
TEAM-NET1
 10
-222.795073
 20
-334.003669
 30
800.0
 70
    64
  0
VERTEX
  5
2BF
  8
TEAM-NET1
 10
-212.17872
 20
-350.409156
 30
800.0
 70
    64
  0
VERTEX
  5
2C0
  8
TEAM-NET1
 10
-199.749867
 20
-365.487967
 30
800.0
 70
    64
  0
VERTEX
  5
2C1
  8
TEAM-NET1
 10
-185.672732
 20
-379.040871
 30
800.0
 70
    64
  0
VERTEX
  5
2C2
  8
TEAM-NET1
 10
-170.133311
 20
-390.888797
 30
800.0
 70
    64
  0
VERTEX
  5
2C3
  8
TEAM-NET1
 10
-153.336923
 20
-400.875202
 30
800.0
 70
    64
  0
VERTEX
  5
2C4
  8
TEAM-NET1
 10
-135.505492
 20
-408.868138
 30
800.0
 70
    64
  0
VERTEX
  5
2C5
  8
TEAM-NET1
 10
-116.874621
 20
-414.761998
 30
800.0
 70
    64
  0
VERTEX
  5
2C6
  8
TEAM-NET1
 10
-97.690473
 20
-418.478908
 30
800.0
 70
    64
  0
VERTEX
  5
2C7
  8
TEAM-NET1
 10
-78.206523
 20
-419.969757
 30
800.0
 70
    64
  0
VERTEX
  5
2C8
  8
TEAM-NET1
 10
-58.655035
 20
-420.0
 30
800.0
 70
    64
  0
VERTEX
  5
2C9
  8
TEAM-NET1
 10
-39.103357
 20
-420.0
 30
800.0
 70
    64
  0
VERTEX
  5
2CA
  8
TEAM-NET1
 10
-19.551678
 20
-420.0
 30
800.0
 70
    64
  0
VERTEX
  5
2CB
  8
TEAM-NET1
 10
0.0
 20
-420.0
 30
800.0
 70
    64
  0
VERTEX
  5
2CC
  8
TEAM-NET1
 10
19.551678
 20
-420.0
 30
800.0
 70
    64
  0
VERTEX
  5
2CD
  8
TEAM-NET1
 10
39.103357
 20
-420.0
 30
800.0
 70
    64
  0
VERTEX
  5
2CE
  8
TEAM-NET1
 10
58.655035
 20
-420.0
 30
800.0
 70
    64
  0
VERTEX
  5
2CF
  8
TEAM-NET1
 10
78.206523
 20
-419.969757
 30
800.0
 70
    64
  0
VERTEX
  5
2D0
  8
TEAM-NET1
 10
97.690473
 20
-418.478908
 30
800.0
 70
    64
  0
VERTEX
  5
2D1
  8
TEAM-NET1
 10
116.874621
 20
-414.761998
 30
800.0
 70
    64
  0
VERTEX
  5
2D2
  8
TEAM-NET1
 10
135.505492
 20
-408.868138
 30
800.0
 70
    64
  0
VERTEX
  5
2D3
  8
TEAM-NET1
 10
153.336923
 20
-400.875202
 30
800.0
 70
    64
  0
VERTEX
  5
2D4
  8
TEAM-NET1
 10
170.133311
 20
-390.888797
 30
800.0
 70
    64
  0
VERTEX
  5
2D5
  8
TEAM-NET1
 10
185.672732
 20
-379.040871
 30
800.0
 70
    64
  0
VERTEX
  5
2D6
  8
TEAM-NET1
 10
199.749867
 20
-365.487967
 30
800.0
 70
    64
  0
VERTEX
  5
2D7
  8
TEAM-NET1
 10
212.17872
 20
-350.409156
 30
800.0
 70
    64
  0
VERTEX
  5
2D8
  8
TEAM-NET1
 10
222.795073
 20
-334.003669
 30
800.0
 70
    64
  0
VERTEX
  5
2D9
  8
TEAM-NET1
 10
231.458654
 20
-316.488267
 30
800.0
 70
    64
  0
VERTEX
  5
2DA
  8
TEAM-NET1
 10
238.054994
 20
-298.094376
 30
800.0
 70
    64
  0
VERTEX
  5
2DB
  8
TEAM-NET1
 10
242.496938
 20
-279.065028
 30
800.0
 70
    64
  0
VERTEX
  5
2DC
  8
TEAM-NET1
 10
244.725795
 20
-259.651652
 30
800.0
 70
    64
  0
VERTEX
  5
2DD
  8
TEAM-NET1
 10
244.712117
 20
-240.110753
 30
800.0
 70
    64
  0
SEQEND
  5
2DE
  8
TEAM-NET1
  0
POLYLINE
  5
2DF
  8
TEAM-BODY
 66
     1
 10
0.0
 20
0.0
 30
800.0
  0
VERTEX
  5
3DE
  8
TEAM-BODY
 10
-244.712117
 20
-240.110753
 30
800.0
 42
0.431366
  0
VERTEX
  5
3DF
  8
TEAM-BODY
 10
-75.0
 20
-420.0
 30
800.0
  0
VERTEX
  5
3E0
  8
TEAM-BODY
 10
75.0
 20
-420.0
 30
800.0
 42
0.431366
  0
VERTEX
  5
3E1
  8
TEAM-BODY
 10
244.712117
 20
-240.110753
 30
800.0
  0
SEQEND
  5
3E2
  8
TEAM-BODY
  0
POLYLINE
  5
2E0
  8
TEAM-BODY
 66
     1
 10
0.0
 20
0.0
 30
800.0
  0
VERTEX
  5
3E3
  8
TEAM-BODY
 10
235.0
 20
0.0
 30
800.0
  0
VERTEX
  5
3E4
  8
TEAM-BODY
 10
275.0
 20
-239.343734
 30
800.0
  0
VERTEX
  5
3E5
  8
TEAM-BODY
 10
275.0
 20
-250.0
 30
800.0
 42
-0.414214
  0
VERTEX
  5
3E6
  8
TEAM-BODY
 10
75.0
 20
-450.0
 30
800.0
  0
VERTEX
  5
3E7
  8
TEAM-BODY
 10
-75.0
 20
-450.0
 30
800.0
 42
-0.414214
  0
VERTEX
  5
3E8
  8
TEAM-BODY
 10
-275.0
 20
-250.0
 30
800.0
  0
VERTEX
  5
3E9
  8
TEAM-BODY
 10
-275.0
 20
-239.343734
 30
800.0
  0
VERTEX
  5
3EA
  8
TEAM-BODY
 10
-235.0
 20
0.0
 30
800.0
  0
SEQEND
  5
3EB
  8
TEAM-BODY
  0
LINE
  5
2E1
  8
TEAM-DET1
 10
22.888298
 20
-81.320179
 30
800.0
 11
30.616284
 21
-51.279999
 31
800.0
  0
LINE
  5
2E2
  8
TEAM-DET1
 10
-22.888298
 20
-81.320179
 30
800.0
 11
-30.616284
 21
-51.279999
 31
800.0
  0
LINE
  5
2E3
  8
TEAM-DET1
 10
-64.51262
 20
-25.0
 30
800.0
 11
-209.935173
 21
-25.0
 31
800.0
  0
ARC
  5
2E4
  8
TEAM-DET1
 10
-64.51262
 20
-60.0
 30
800.0
 40
35.0
 50
14.426799
 51
90.0
  0
ARC
  5
2E5
  8
TEAM-DET1
 10
64.51262
 20
-60.0
 30
800.0
 40
35.0
 50
90.0
 51
165.573201
  0
LINE
  5
2E6
  8
TEAM-DET1
 10
209.935173
 20
-25.0
 30
800.0
 11
64.51262
 21
-25.0
 31
800.0
  0
LINE
  5
2E7
  8
TEAM-BODY
 10
-26.742104
 20
-86.40849
 30
800.0
 11
-35.458618
 21
-52.525713
 31
800.0
  0
LINE
  5
2E8
  8
TEAM-BODY
 10
26.742104
 20
-86.40849
 30
800.0
 11
35.458618
 21
-52.525713
 31
800.0
  0
LINE
  5
2E9
  8
TEAM-BODY
 10
-64.51262
 20
-30.0
 30
800.0
 11
-184.322337
 21
-30.0
 31
800.0
  0
ARC
  5
2EA
  8
TEAM-BODY
 10
-64.51262
 20
-60.0
 30
800.0
 40
30.0
 50
14.426799
 51
90.0
  0
ARC
  5
2EB
  8
TEAM-BODY
 10
64.51262
 20
-60.0
 30
800.0
 40
30.0
 50
90.0
 51
165.573201
  0
LINE
  5
2EC
  8
TEAM-BODY
 10
184.322337
 20
-30.0
 30
800.0
 11
64.51262
 21
-30.0
 31
800.0
  0
ARC
  5
2ED
  8
TEAM-DET1
 10
0.0
 20
-1182.74051
 30
800.0
 40
1101.658123
 50
88.809524
 51
91.190476
  0
ARC
  5
2EE
  8
TEAM-DET1
 10
-210.280946
 20
-63.228447
 30
800.0
 40
38.230011
 50
89.481777
 51
146.068305
  0
ARC
  5
2EF
  8
TEAM-DET1
 10
210.280946
 20
-63.228447
 30
800.0
 40
38.230011
 50
33.931695
 51
90.518223
  0
ARC
  5
2F0
  8
TEAM-BODY
 10
184.322337
 20
-60.0
 30
800.0
 40
30.0
 50
9.060464
 51
90.0
  0
LINE
  5
2F1
  8
TEAM-BODY
 10
245.0
 20
-250.0
 30
800.0
 11
213.948018
 21
-55.275699
 31
800.0
  0
ARC
  5
2F2
  8
TEAM-BODY
 10
-184.322337
 20
-60.0
 30
800.0
 40
30.0
 50
90.0
 51
170.939536
  0
LINE
  5
2F3
  8
TEAM-BODY
 10
-245.0
 20
-250.0
 30
800.0
 11
-213.948018
 21
-55.275699
 31
800.0
  0
ENDSEC
  0
EOF
