  0
SECTION
  2
HEADER
  9
$ACADVER
  1
AC1009
  9
$INSBASE
 10
0.0
 20
0.0
 30
0.0
  9
$EXTMIN
 10
-260.01613
 20
-313.222859
 30
-810.024717
  9
$EXTMAX
 10
268.594979
 20
10.009864
 30
0.024721
  9
$LIMMIN
 10
-260.01613
 20
-313.222859
  9
$LIMMAX
 10
268.594979
 20
10.009864
  9
$ORTHOMODE
 70
     1
  9
$REGENMODE
 70
     1
  9
$FILLMODE
 70
     1
  9
$QTEXTMODE
 70
     0
  9
$MIRRTEXT
 70
     0
  9
$DRAGMODE
 70
     2
  9
$LTSCALE
 40
50.0
  9
$OSMODE
 70
     7
  9
$ATTMODE
 70
     1
  9
$TEXTSIZE
 40
200.0
  9
$TRACEWID
 40
1.0
  9
$TEXTSTYLE
  7
STANDARD
  9
$CLAYER
  8
TEAM-MAS
  9
$CELTYPE
  6
BYLAYER
  9
$CECOLOR
 62
   256
  9
$DIMSCALE
 40
1.0
  9
$DIMASZ
 40
20.0
  9
$DIMEXO
 40
10.0
  9
$DIMDLI
 40
1.0
  9
$DIMRND
 40
0.0
  9
$DIMDLE
 40
0.0
  9
$DIMEXE
 40
1.0
  9
$DIMTP
 40
0.0
  9
$DIMTM
 40
0.0
  9
$DIMTXT
 40
35.0
  9
$DIMCEN
 40
1.0
  9
$DIMTSZ
 40
0.0
  9
$DIMTOL
 70
     0
  9
$DIMLIM
 70
     0
  9
$DIMTIH
 70
     0
  9
$DIMTOH
 70
     0
  9
$DIMSE1
 70
     0
  9
$DIMSE2
 70
     0
  9
$DIMTAD
 70
     0
  9
$DIMZIN
 70
     0
  9
$DIMBLK
  1

  9
$DIMASO
 70
     1
  9
$DIMSHO
 70
     0
  9
$DIMPOST
  1

  9
$DIMAPOST
  1

  9
$DIMALT
 70
     0
  9
$DIMALTD
 70
     2
  9
$DIMALTF
 40
25.4
  9
$DIMLFAC
 40
1.0
  9
$DIMTOFL
 70
     0
  9
$DIMTVP
 40
0.0
  9
$DIMTIX
 70
     0
  9
$DIMSOXD
 70
     0
  9
$DIMSAH
 70
     0
  9
$DIMBLK1
  1

  9
$DIMBLK2
  1

  9
$DIMSTYLE
  2
TEAM
  9
$DIMCLRD
 70
     9
  9
$DIMCLRE
 70
     9
  9
$DIMCLRT
 70
    11
  9
$DIMTFAC
 40
1.0
  9
$DIMGAP
 40
7.0
  9
$LUNITS
 70
     2
  9
$LUPREC
 70
     1
  9
$SKETCHINC
 40
1.0
  9
$FILLETRAD
 40
44.0
  9
$AUNITS
 70
     0
  9
$AUPREC
 70
     0
  9
$MENU
  1
ROPLANS
  9
$ELEVATION
 40
810.0
  9
$PELEVATION
 40
0.0
  9
$THICKNESS
 40
0.0
  9
$LIMCHECK
 70
     0
  9
$BLIPMODE
 70
     1
  9
$CHAMFERA
 40
0.0
  9
$CHAMFERB
 40
0.0
  9
$SKPOLY
 70
     0
  9
$TDCREATE
 40
2450392.957851
  9
$TDUPDATE
 40
2455981.928629
  9
$TDINDWG
 40
3.777306
  9
$TDUSRTIMER
 40
3.777306
  9
$USRTIMER
 70
     1
  9
$ANGBASE
 50
0.0
  9
$ANGDIR
 70
     0
  9
$PDMODE
 70
     0
  9
$PDSIZE
 40
0.0
  9
$PLINEWID
 40
0.0
  9
$COORDS
 70
     2
  9
$SPLFRAME
 70
     0
  9
$SPLINETYPE
 70
     6
  9
$SPLINESEGS
 70
     8
  9
$ATTDIA
 70
     0
  9
$ATTREQ
 70
     0
  9
$HANDLING
 70
     1
  9
$HANDSEED
  5
36D
  9
$SURFTAB1
 70
    36
  9
$SURFTAB2
 70
    36
  9
$SURFTYPE
 70
     6
  9
$SURFU
 70
     6
  9
$SURFV
 70
     6
  9
$UCSNAME
  2

  9
$UCSORG
 10
0.0
 20
0.0
 30
0.0
  9
$UCSXDIR
 10
1.0
 20
0.0
 30
0.0
  9
$UCSYDIR
 10
0.0
 20
1.0
 30
0.0
  9
$PUCSNAME
  2

  9
$PUCSORG
 10
0.0
 20
0.0
 30
0.0
  9
$PUCSXDIR
 10
1.0
 20
0.0
 30
0.0
  9
$PUCSYDIR
 10
0.0
 20
1.0
 30
0.0
  9
$USERI1
 70
     0
  9
$USERI2
 70
     0
  9
$USERI3
 70
     0
  9
$USERI4
 70
     0
  9
$USERI5
 70
     0
  9
$USERR1
 40
0.0
  9
$USERR2
 40
0.0
  9
$USERR3
 40
0.0
  9
$USERR4
 40
0.0
  9
$USERR5
 40
0.0
  9
$WORLDVIEW
 70
     1
  9
$SHADEDGE
 70
     0
  9
$SHADEDIF
 70
    70
  9
$TILEMODE
 70
     1
  9
$MAXACTVP
 70
    16
  9
$PLIMCHECK
 70
     0
  9
$PEXTMIN
 10
-0.805942
 20
0.005011
 30
0.0
  9
$PEXTMAX
 10
20.250094
 20
11.356329
 30
0.0
  9
$PLIMMIN
 10
0.0
 20
0.0
  9
$PLIMMAX
 10
12.0
 20
9.0
  9
$UNITMODE
 70
     0
  9
$VISRETAIN
 70
     0
  9
$PLINEGEN
 70
     0
  9
$PSLTSCALE
 70
     0
  0
ENDSEC
  0
SECTION
  2
TABLES
  0
TABLE
  2
VPORT
 70
     2
  0
VPORT
  2
*ACTIVE
 70
     0
 10
0.0
 20
0.0
 11
1.0
 21
1.0
 12
4.289425
 22
-151.606497
 13
0.0
 23
0.0
 14
1.0
 24
1.0
 15
50.0
 25
50.0
 16
0.0
 26
0.0
 36
1.0
 17
0.0
 27
0.0
 37
0.0
 40
325.259261
 41
1.903766
 42
50.0
 43
0.0
 44
0.0
 50
0.0
 51
0.0
 71
     0
 72
   100
 73
     1
 74
     1
 75
     0
 76
     0
 77
     0
 78
     0
  0
ENDTAB
  0
TABLE
  2
LTYPE
 70
     1
  0
LTYPE
  2
CONTINUOUS
 70
     0
  3
Solid Line
 72
    65
 73
     0
 40
0.0
  0
ENDTAB
  0
TABLE
  2
LAYER
 70
     6
  0
LAYER
  2
0
 70
     0
 62
     7
  6
CONTINUOUS
  0
LAYER
  2
TEAM-MAS
 70
     0
 62
     9
  6
CONTINUOUS
  0
LAYER
  2
TEAM-TXT
 70
     0
 62
    11
  6
CONTINUOUS
  0
LAYER
  2
TEAM-DET1
 70
     0
 62
     4
  6
CONTINUOUS
  0
LAYER
  2
TEAM-NET
 70
     0
 62
    15
  6
CONTINUOUS
  0
LAYER
  2
TEAM-INSP
 70
     0
 62
     5
  6
CONTINUOUS
  0
ENDTAB
  0
TABLE
  2
STYLE
 70
     2
  0
STYLE
  2
STANDARD
 70
     0
 40
0.0
 41
1.0
 50
0.0
 71
     0
 42
200.0
  3
txt
  4

  0
STYLE
  2
TEAM
 70
     0
 40
0.0
 41
0.8
 50
15.0
 71
     0
 42
7.0
  3
ROMANS.shx
  4

  0
ENDTAB
  0
TABLE
  2
VIEW
 70
     0
  0
ENDTAB
  0
TABLE
  2
UCS
 70
     0
  0
ENDTAB
  0
TABLE
  2
APPID
 70
     1
  0
APPID
  2
ACAD
 70
     0
  0
ENDTAB
  0
TABLE
  2
DIMSTYLE
 70
     1
  0
DIMSTYLE
  2
TEAM
 70
     0
  3

  4

  5

  6

  7

 40
1.0
 41
20.0
 42
10.0
 43
1.0
 44
1.0
 45
0.0
 46
0.0
 47
0.0
 48
0.0
140
35.0
141
1.0
142
0.0
143
25.4
144
1.0
145
0.0
146
1.0
147
7.0
 71
     0
 72
     0
 73
     0
 74
     0
 75
     0
 76
     0
 77
     0
 78
     0
170
     0
171
     2
172
     0
173
     0
174
     0
175
     0
176
     9
177
     9
178
    11
  0
ENDTAB
  0
ENDSEC
  0
SECTION
  2
BLOCKS
  0
BLOCK
  8
0
  2
$MODEL_SPACE
 70
     0
 10
0.0
 20
0.0
 30
0.0
  3
$MODEL_SPACE
  1

  0
ENDBLK
  5
366
  8
0
  0
BLOCK
 67
     1
  8
0
  2
$PAPER_SPACE
 70
     0
 10
0.0
 20
0.0
 30
0.0
  3
$PAPER_SPACE
  1

  0
ENDBLK
  5
364
 67
     1
  8
0
  0
ENDSEC
  0
SECTION
  2
ENTITIES
  0
CIRCLE
  5
20
  8
TEAM-INSP
 10
0.0
 20
0.0
 30
-810.0
 40
10.0
  0
LINE
  5
22
  8
TEAM-DET1
 39
-12.0
 10
260.0
 20
2.0
 30
0.0
 11
118.0
 21
2.0
 31
0.0
  0
LINE
  5
24
  8
TEAM-DET1
 39
-12.0
 10
260.0
 20
2.0
 30
0.0
 11
260.0
 21
-10.0
 31
0.0
  0
LINE
  5
25
  8
TEAM-DET1
 39
-12.0
 10
118.0
 20
2.0
 30
0.0
 11
118.0
 21
-10.0
 31
0.0
  0
LINE
  5
26
  8
TEAM-DET1
 39
-12.0
 10
260.0
 20
-10.0
 30
0.0
 11
118.0
 21
-10.0
 31
0.0
  0
LINE
  5
27
  8
TEAM-DET1
 39
-12.0
 10
118.0
 20
-8.0
 30
0.0
 11
-118.0
 21
-8.0
 31
0.0
  0
LINE
  5
28
  8
TEAM-DET1
 39
-12.0
 10
118.0
 20
0.0
 30
0.0
 11
-118.0
 21
0.0
 31
0.0
  0
LINE
  5
29
  8
TEAM-DET1
 39
-12.0
 10
-260.0
 20
2.0
 30
0.0
 11
-260.0
 21
-10.0
 31
0.0
  0
LINE
  5
2A
  8
TEAM-DET1
 39
-12.0
 10
-118.0
 20
-10.0
 30
0.0
 11
-260.0
 21
-10.0
 31
0.0
  0
LINE
  5
2B
  8
TEAM-DET1
 39
-12.0
 10
-118.0
 20
2.0
 30
0.0
 11
-260.0
 21
2.0
 31
0.0
  0
LINE
  5
2C
  8
TEAM-DET1
 39
-12.0
 10
-118.0
 20
2.0
 30
0.0
 11
-118.0
 21
-10.0
 31
0.0
  0
LINE
  5
2D
  8
TEAM-DET1
 39
-12.0
 10
-112.0
 20
-283.0
 30
0.0
 11
-124.0
 21
-283.0
 31
0.0
  0
LINE
  5
2E
  8
TEAM-DET1
 39
-12.0
 10
-112.0
 20
-205.532047
 30
0.0
 11
-112.0
 21
-283.0
 31
0.0
  0
LINE
  5
2F
  8
TEAM-DET1
 39
-12.0
 10
-124.0
 20
-205.532047
 30
0.0
 11
-124.0
 21
-283.0
 31
0.0
  0
LINE
  5
30
  8
TEAM-DET1
 39
-12.0
 10
-124.0
 20
-205.532047
 30
0.0
 11
-112.0
 21
-205.532047
 31
0.0
  0
LINE
  5
31
  8
TEAM-DET1
 39
-12.0
 10
-120.0
 20
-10.0
 30
0.0
 11
-120.0
 21
-204.700429
 31
0.0
  0
LINE
  5
32
  8
TEAM-DET1
 39
-12.0
 10
120.0
 20
-10.0
 30
0.0
 11
120.0
 21
-204.700429
 31
0.0
  0
LINE
  5
33
  8
TEAM-DET1
 39
-12.0
 10
124.0
 20
-205.532047
 30
0.0
 11
112.0
 21
-205.532047
 31
0.0
  0
LINE
  5
34
  8
TEAM-DET1
 39
-12.0
 10
124.0
 20
-205.532047
 30
0.0
 11
124.0
 21
-283.0
 31
0.0
  0
LINE
  5
35
  8
TEAM-DET1
 39
-12.0
 10
112.0
 20
-205.532047
 30
0.0
 11
112.0
 21
-283.0
 31
0.0
  0
LINE
  5
36
  8
TEAM-DET1
 39
-12.0
 10
112.0
 20
-283.0
 30
0.0
 11
124.0
 21
-283.0
 31
0.0
  0
LINE
  5
37
  8
TEAM-DET1
 39
-12.0
 10
116.0
 20
-190.0
 30
0.0
 11
-116.0
 21
-190.0
 31
0.0
  0
LINE
  5
38
  8
TEAM-DET1
 39
-12.0
 10
116.0
 20
-188.0
 30
0.0
 11
-116.0
 21
-188.0
 31
0.0
  0
LINE
  5
39
  8
TEAM-DET1
 39
-12.0
 10
116.0
 20
-125.0
 30
0.0
 11
-116.0
 21
-125.0
 31
0.0
  0
LINE
  5
3A
  8
TEAM-DET1
 39
-12.0
 10
116.0
 20
-60.0
 30
0.0
 11
-116.0
 21
-60.0
 31
0.0
  0
LINE
  5
3B
  8
TEAM-DET1
 39
-12.0
 10
116.0
 20
-58.0
 30
0.0
 11
-116.0
 21
-58.0
 31
0.0
  0
LINE
  5
3C
  8
TEAM-DET1
 39
-12.0
 10
116.0
 20
-123.0
 30
0.0
 11
-116.0
 21
-123.0
 31
0.0
  0
LINE
  5
3D
  8
TEAM-DET1
 39
-12.0
 10
116.0
 20
-8.0
 30
0.0
 11
116.0
 21
-204.700429
 31
0.0
  0
LINE
  5
3E
  8
TEAM-DET1
 39
-12.0
 10
-116.0
 20
-8.0
 30
0.0
 11
-116.0
 21
-204.700429
 31
0.0
  0
POLYLINE
  5
3F
  8
TEAM-NET
 66
     1
 10
0.0
 20
0.0
 30
0.0
 70
    16
 71
     2
 72
    37
  0
VERTEX
  5
40
  8
TEAM-NET
 10
116.0
 20
-60.0
 30
0.0
 70
    64
  0
VERTEX
  5
41
  8
TEAM-NET
 10
109.555556
 20
-60.0
 30
0.0
 70
    64
  0
VERTEX
  5
42
  8
TEAM-NET
 10
103.111111
 20
-60.0
 30
0.0
 70
    64
  0
VERTEX
  5
43
  8
TEAM-NET
 10
96.666667
 20
-60.0
 30
0.0
 70
    64
  0
VERTEX
  5
44
  8
TEAM-NET
 10
90.222222
 20
-60.0
 30
0.0
 70
    64
  0
VERTEX
  5
45
  8
TEAM-NET
 10
83.777778
 20
-60.0
 30
0.0
 70
    64
  0
VERTEX
  5
46
  8
TEAM-NET
 10
77.333333
 20
-60.0
 30
0.0
 70
    64
  0
VERTEX
  5
47
  8
TEAM-NET
 10
70.888889
 20
-60.0
 30
0.0
 70
    64
  0
VERTEX
  5
48
  8
TEAM-NET
 10
64.444444
 20
-60.0
 30
0.0
 70
    64
  0
VERTEX
  5
49
  8
TEAM-NET
 10
58.0
 20
-60.0
 30
0.0
 70
    64
  0
VERTEX
  5
4A
  8
TEAM-NET
 10
51.555556
 20
-60.0
 30
0.0
 70
    64
  0
VERTEX
  5
4B
  8
TEAM-NET
 10
45.111111
 20
-60.0
 30
0.0
 70
    64
  0
VERTEX
  5
4C
  8
TEAM-NET
 10
38.666667
 20
-60.0
 30
0.0
 70
    64
  0
VERTEX
  5
4D
  8
TEAM-NET
 10
32.222222
 20
-60.0
 30
0.0
 70
    64
  0
VERTEX
  5
4E
  8
TEAM-NET
 10
25.777778
 20
-60.0
 30
0.0
 70
    64
  0
VERTEX
  5
4F
  8
TEAM-NET
 10
19.333333
 20
-60.0
 30
0.0
 70
    64
  0
VERTEX
  5
50
  8
TEAM-NET
 10
12.888889
 20
-60.0
 30
0.0
 70
    64
  0
VERTEX
  5
51
  8
TEAM-NET
 10
6.444444
 20
-60.0
 30
0.0
 70
    64
  0
VERTEX
  5
52
  8
TEAM-NET
 10
0.0
 20
-60.0
 30
0.0
 70
    64
  0
VERTEX
  5
53
  8
TEAM-NET
 10
-6.444444
 20
-60.0
 30
0.0
 70
    64
  0
VERTEX
  5
54
  8
TEAM-NET
 10
-12.888889
 20
-60.0
 30
0.0
 70
    64
  0
VERTEX
  5
55
  8
TEAM-NET
 10
-19.333333
 20
-60.0
 30
0.0
 70
    64
  0
VERTEX
  5
56
  8
TEAM-NET
 10
-25.777778
 20
-60.0
 30
0.0
 70
    64
  0
VERTEX
  5
57
  8
TEAM-NET
 10
-32.222222
 20
-60.0
 30
0.0
 70
    64
  0
VERTEX
  5
58
  8
TEAM-NET
 10
-38.666667
 20
-60.0
 30
0.0
 70
    64
  0
VERTEX
  5
59
  8
TEAM-NET
 10
-45.111111
 20
-60.0
 30
0.0
 70
    64
  0
VERTEX
  5
5A
  8
TEAM-NET
 10
-51.555556
 20
-60.0
 30
0.0
 70
    64
  0
VERTEX
  5
5B
  8
TEAM-NET
 10
-58.0
 20
-60.0
 30
0.0
 70
    64
  0
VERTEX
  5
5C
  8
TEAM-NET
 10
-64.444444
 20
-60.0
 30
0.0
 70
    64
  0
VERTEX
  5
5D
  8
TEAM-NET
 10
-70.888889
 20
-60.0
 30
0.0
 70
    64
  0
VERTEX
  5
5E
  8
TEAM-NET
 10
-77.333333
 20
-60.0
 30
0.0
 70
    64
  0
VERTEX
  5
5F
  8
TEAM-NET
 10
-83.777778
 20
-60.0
 30
0.0
 70
    64
  0
VERTEX
  5
60
  8
TEAM-NET
 10
-90.222222
 20
-60.0
 30
0.0
 70
    64
  0
VERTEX
  5
61
  8
TEAM-NET
 10
-96.666667
 20
-60.0
 30
0.0
 70
    64
  0
VERTEX
  5
62
  8
TEAM-NET
 10
-103.111111
 20
-60.0
 30
0.0
 70
    64
  0
VERTEX
  5
63
  8
TEAM-NET
 10
-109.555556
 20
-60.0
 30
0.0
 70
    64
  0
VERTEX
  5
64
  8
TEAM-NET
 10
-116.0
 20
-60.0
 30
0.0
 70
    64
  0
VERTEX
  5
65
  8
TEAM-NET
 10
116.0
 20
-58.0
 30
0.0
 70
    64
  0
VERTEX
  5
66
  8
TEAM-NET
 10
109.555556
 20
-58.0
 30
0.0
 70
    64
  0
VERTEX
  5
67
  8
TEAM-NET
 10
103.111111
 20
-58.0
 30
0.0
 70
    64
  0
VERTEX
  5
68
  8
TEAM-NET
 10
96.666667
 20
-58.0
 30
0.0
 70
    64
  0
VERTEX
  5
69
  8
TEAM-NET
 10
90.222222
 20
-58.0
 30
0.0
 70
    64
  0
VERTEX
  5
6A
  8
TEAM-NET
 10
83.777778
 20
-58.0
 30
0.0
 70
    64
  0
VERTEX
  5
6B
  8
TEAM-NET
 10
77.333333
 20
-58.0
 30
0.0
 70
    64
  0
VERTEX
  5
6C
  8
TEAM-NET
 10
70.888889
 20
-58.0
 30
0.0
 70
    64
  0
VERTEX
  5
6D
  8
TEAM-NET
 10
64.444444
 20
-58.0
 30
0.0
 70
    64
  0
VERTEX
  5
6E
  8
TEAM-NET
 10
58.0
 20
-58.0
 30
0.0
 70
    64
  0
VERTEX
  5
6F
  8
TEAM-NET
 10
51.555556
 20
-58.0
 30
0.0
 70
    64
  0
VERTEX
  5
70
  8
TEAM-NET
 10
45.111111
 20
-58.0
 30
0.0
 70
    64
  0
VERTEX
  5
71
  8
TEAM-NET
 10
38.666667
 20
-58.0
 30
0.0
 70
    64
  0
VERTEX
  5
72
  8
TEAM-NET
 10
32.222222
 20
-58.0
 30
0.0
 70
    64
  0
VERTEX
  5
73
  8
TEAM-NET
 10
25.777778
 20
-58.0
 30
0.0
 70
    64
  0
VERTEX
  5
74
  8
TEAM-NET
 10
19.333333
 20
-58.0
 30
0.0
 70
    64
  0
VERTEX
  5
75
  8
TEAM-NET
 10
12.888889
 20
-58.0
 30
0.0
 70
    64
  0
VERTEX
  5
76
  8
TEAM-NET
 10
6.444444
 20
-58.0
 30
0.0
 70
    64
  0
VERTEX
  5
77
  8
TEAM-NET
 10
0.0
 20
-58.0
 30
0.0
 70
    64
  0
VERTEX
  5
78
  8
TEAM-NET
 10
-6.444444
 20
-58.0
 30
0.0
 70
    64
  0
VERTEX
  5
79
  8
TEAM-NET
 10
-12.888889
 20
-58.0
 30
0.0
 70
    64
  0
VERTEX
  5
7A
  8
TEAM-NET
 10
-19.333333
 20
-58.0
 30
0.0
 70
    64
  0
VERTEX
  5
7B
  8
TEAM-NET
 10
-25.777778
 20
-58.0
 30
0.0
 70
    64
  0
VERTEX
  5
7C
  8
TEAM-NET
 10
-32.222222
 20
-58.0
 30
0.0
 70
    64
  0
VERTEX
  5
7D
  8
TEAM-NET
 10
-38.666667
 20
-58.0
 30
0.0
 70
    64
  0
VERTEX
  5
7E
  8
TEAM-NET
 10
-45.111111
 20
-58.0
 30
0.0
 70
    64
  0
VERTEX
  5
7F
  8
TEAM-NET
 10
-51.555556
 20
-58.0
 30
0.0
 70
    64
  0
VERTEX
  5
80
  8
TEAM-NET
 10
-58.0
 20
-58.0
 30
0.0
 70
    64
  0
VERTEX
  5
81
  8
TEAM-NET
 10
-64.444444
 20
-58.0
 30
0.0
 70
    64
  0
VERTEX
  5
82
  8
TEAM-NET
 10
-70.888889
 20
-58.0
 30
0.0
 70
    64
  0
VERTEX
  5
83
  8
TEAM-NET
 10
-77.333333
 20
-58.0
 30
0.0
 70
    64
  0
VERTEX
  5
84
  8
TEAM-NET
 10
-83.777778
 20
-58.0
 30
0.0
 70
    64
  0
VERTEX
  5
85
  8
TEAM-NET
 10
-90.222222
 20
-58.0
 30
0.0
 70
    64
  0
VERTEX
  5
86
  8
TEAM-NET
 10
-96.666667
 20
-58.0
 30
0.0
 70
    64
  0
VERTEX
  5
87
  8
TEAM-NET
 10
-103.111111
 20
-58.0
 30
0.0
 70
    64
  0
VERTEX
  5
88
  8
TEAM-NET
 10
-109.555556
 20
-58.0
 30
0.0
 70
    64
  0
VERTEX
  5
89
  8
TEAM-NET
 10
-116.0
 20
-58.0
 30
0.0
 70
    64
  0
SEQEND
  5
8B
  8
TEAM-NET
  0
POLYLINE
  5
8C
  8
TEAM-NET
 66
     1
 10
0.0
 20
0.0
 30
0.0
 70
    16
 71
     2
 72
    37
  0
VERTEX
  5
8D
  8
TEAM-NET
 10
116.0
 20
-125.0
 30
0.0
 70
    64
  0
VERTEX
  5
8E
  8
TEAM-NET
 10
109.555556
 20
-125.0
 30
0.0
 70
    64
  0
VERTEX
  5
8F
  8
TEAM-NET
 10
103.111111
 20
-125.0
 30
0.0
 70
    64
  0
VERTEX
  5
90
  8
TEAM-NET
 10
96.666667
 20
-125.0
 30
0.0
 70
    64
  0
VERTEX
  5
91
  8
TEAM-NET
 10
90.222222
 20
-125.0
 30
0.0
 70
    64
  0
VERTEX
  5
92
  8
TEAM-NET
 10
83.777778
 20
-125.0
 30
0.0
 70
    64
  0
VERTEX
  5
93
  8
TEAM-NET
 10
77.333333
 20
-125.0
 30
0.0
 70
    64
  0
VERTEX
  5
94
  8
TEAM-NET
 10
70.888889
 20
-125.0
 30
0.0
 70
    64
  0
VERTEX
  5
95
  8
TEAM-NET
 10
64.444444
 20
-125.0
 30
0.0
 70
    64
  0
VERTEX
  5
96
  8
TEAM-NET
 10
58.0
 20
-125.0
 30
0.0
 70
    64
  0
VERTEX
  5
97
  8
TEAM-NET
 10
51.555556
 20
-125.0
 30
0.0
 70
    64
  0
VERTEX
  5
98
  8
TEAM-NET
 10
45.111111
 20
-125.0
 30
0.0
 70
    64
  0
VERTEX
  5
99
  8
TEAM-NET
 10
38.666667
 20
-125.0
 30
0.0
 70
    64
  0
VERTEX
  5
9A
  8
TEAM-NET
 10
32.222222
 20
-125.0
 30
0.0
 70
    64
  0
VERTEX
  5
9B
  8
TEAM-NET
 10
25.777778
 20
-125.0
 30
0.0
 70
    64
  0
VERTEX
  5
9C
  8
TEAM-NET
 10
19.333333
 20
-125.0
 30
0.0
 70
    64
  0
VERTEX
  5
9D
  8
TEAM-NET
 10
12.888889
 20
-125.0
 30
0.0
 70
    64
  0
VERTEX
  5
9E
  8
TEAM-NET
 10
6.444444
 20
-125.0
 30
0.0
 70
    64
  0
VERTEX
  5
9F
  8
TEAM-NET
 10
0.0
 20
-125.0
 30
0.0
 70
    64
  0
VERTEX
  5
A0
  8
TEAM-NET
 10
-6.444444
 20
-125.0
 30
0.0
 70
    64
  0
VERTEX
  5
A1
  8
TEAM-NET
 10
-12.888889
 20
-125.0
 30
0.0
 70
    64
  0
VERTEX
  5
A2
  8
TEAM-NET
 10
-19.333333
 20
-125.0
 30
0.0
 70
    64
  0
VERTEX
  5
A3
  8
TEAM-NET
 10
-25.777778
 20
-125.0
 30
0.0
 70
    64
  0
VERTEX
  5
A4
  8
TEAM-NET
 10
-32.222222
 20
-125.0
 30
0.0
 70
    64
  0
VERTEX
  5
A5
  8
TEAM-NET
 10
-38.666667
 20
-125.0
 30
0.0
 70
    64
  0
VERTEX
  5
A6
  8
TEAM-NET
 10
-45.111111
 20
-125.0
 30
0.0
 70
    64
  0
VERTEX
  5
A7
  8
TEAM-NET
 10
-51.555556
 20
-125.0
 30
0.0
 70
    64
  0
VERTEX
  5
A8
  8
TEAM-NET
 10
-58.0
 20
-125.0
 30
0.0
 70
    64
  0
VERTEX
  5
A9
  8
TEAM-NET
 10
-64.444444
 20
-125.0
 30
0.0
 70
    64
  0
VERTEX
  5
AA
  8
TEAM-NET
 10
-70.888889
 20
-125.0
 30
0.0
 70
    64
  0
VERTEX
  5
AB
  8
TEAM-NET
 10
-77.333333
 20
-125.0
 30
0.0
 70
    64
  0
VERTEX
  5
AC
  8
TEAM-NET
 10
-83.777778
 20
-125.0
 30
0.0
 70
    64
  0
VERTEX
  5
AD
  8
TEAM-NET
 10
-90.222222
 20
-125.0
 30
0.0
 70
    64
  0
VERTEX
  5
AE
  8
TEAM-NET
 10
-96.666667
 20
-125.0
 30
0.0
 70
    64
  0
VERTEX
  5
AF
  8
TEAM-NET
 10
-103.111111
 20
-125.0
 30
0.0
 70
    64
  0
VERTEX
  5
B0
  8
TEAM-NET
 10
-109.555556
 20
-125.0
 30
0.0
 70
    64
  0
VERTEX
  5
B1
  8
TEAM-NET
 10
-116.0
 20
-125.0
 30
0.0
 70
    64
  0
VERTEX
  5
B2
  8
TEAM-NET
 10
116.0
 20
-123.0
 30
0.0
 70
    64
  0
VERTEX
  5
B3
  8
TEAM-NET
 10
109.555556
 20
-123.0
 30
0.0
 70
    64
  0
VERTEX
  5
B4
  8
TEAM-NET
 10
103.111111
 20
-123.0
 30
0.0
 70
    64
  0
VERTEX
  5
B5
  8
TEAM-NET
 10
96.666667
 20
-123.0
 30
0.0
 70
    64
  0
VERTEX
  5
B6
  8
TEAM-NET
 10
90.222222
 20
-123.0
 30
0.0
 70
    64
  0
VERTEX
  5
B7
  8
TEAM-NET
 10
83.777778
 20
-123.0
 30
0.0
 70
    64
  0
VERTEX
  5
B8
  8
TEAM-NET
 10
77.333333
 20
-123.0
 30
0.0
 70
    64
  0
VERTEX
  5
B9
  8
TEAM-NET
 10
70.888889
 20
-123.0
 30
0.0
 70
    64
  0
VERTEX
  5
BA
  8
TEAM-NET
 10
64.444444
 20
-123.0
 30
0.0
 70
    64
  0
VERTEX
  5
BB
  8
TEAM-NET
 10
58.0
 20
-123.0
 30
0.0
 70
    64
  0
VERTEX
  5
BC
  8
TEAM-NET
 10
51.555556
 20
-123.0
 30
0.0
 70
    64
  0
VERTEX
  5
BD
  8
TEAM-NET
 10
45.111111
 20
-123.0
 30
0.0
 70
    64
  0
VERTEX
  5
BE
  8
TEAM-NET
 10
38.666667
 20
-123.0
 30
0.0
 70
    64
  0
VERTEX
  5
BF
  8
TEAM-NET
 10
32.222222
 20
-123.0
 30
0.0
 70
    64
  0
VERTEX
  5
C0
  8
TEAM-NET
 10
25.777778
 20
-123.0
 30
0.0
 70
    64
  0
VERTEX
  5
C1
  8
TEAM-NET
 10
19.333333
 20
-123.0
 30
0.0
 70
    64
  0
VERTEX
  5
C2
  8
TEAM-NET
 10
12.888889
 20
-123.0
 30
0.0
 70
    64
  0
VERTEX
  5
C3
  8
TEAM-NET
 10
6.444444
 20
-123.0
 30
0.0
 70
    64
  0
VERTEX
  5
C4
  8
TEAM-NET
 10
0.0
 20
-123.0
 30
0.0
 70
    64
  0
VERTEX
  5
C5
  8
TEAM-NET
 10
-6.444444
 20
-123.0
 30
0.0
 70
    64
  0
VERTEX
  5
C6
  8
TEAM-NET
 10
-12.888889
 20
-123.0
 30
0.0
 70
    64
  0
VERTEX
  5
C7
  8
TEAM-NET
 10
-19.333333
 20
-123.0
 30
0.0
 70
    64
  0
VERTEX
  5
C8
  8
TEAM-NET
 10
-25.777778
 20
-123.0
 30
0.0
 70
    64
  0
VERTEX
  5
C9
  8
TEAM-NET
 10
-32.222222
 20
-123.0
 30
0.0
 70
    64
  0
VERTEX
  5
CA
  8
TEAM-NET
 10
-38.666667
 20
-123.0
 30
0.0
 70
    64
  0
VERTEX
  5
CB
  8
TEAM-NET
 10
-45.111111
 20
-123.0
 30
0.0
 70
    64
  0
VERTEX
  5
CC
  8
TEAM-NET
 10
-51.555556
 20
-123.0
 30
0.0
 70
    64
  0
VERTEX
  5
CD
  8
TEAM-NET
 10
-58.0
 20
-123.0
 30
0.0
 70
    64
  0
VERTEX
  5
CE
  8
TEAM-NET
 10
-64.444444
 20
-123.0
 30
0.0
 70
    64
  0
VERTEX
  5
CF
  8
TEAM-NET
 10
-70.888889
 20
-123.0
 30
0.0
 70
    64
  0
VERTEX
  5
D0
  8
TEAM-NET
 10
-77.333333
 20
-123.0
 30
0.0
 70
    64
  0
VERTEX
  5
D1
  8
TEAM-NET
 10
-83.777778
 20
-123.0
 30
0.0
 70
    64
  0
VERTEX
  5
D2
  8
TEAM-NET
 10
-90.222222
 20
-123.0
 30
0.0
 70
    64
  0
VERTEX
  5
D3
  8
TEAM-NET
 10
-96.666667
 20
-123.0
 30
0.0
 70
    64
  0
VERTEX
  5
D4
  8
TEAM-NET
 10
-103.111111
 20
-123.0
 30
0.0
 70
    64
  0
VERTEX
  5
D5
  8
TEAM-NET
 10
-109.555556
 20
-123.0
 30
0.0
 70
    64
  0
VERTEX
  5
D6
  8
TEAM-NET
 10
-116.0
 20
-123.0
 30
0.0
 70
    64
  0
SEQEND
  5
D7
  8
TEAM-NET
  0
POLYLINE
  5
D8
  8
TEAM-NET
 66
     1
 10
0.0
 20
0.0
 30
0.0
 70
    16
 71
     2
 72
    37
  0
VERTEX
  5
D9
  8
TEAM-NET
 10
116.0
 20
-190.0
 30
0.0
 70
    64
  0
VERTEX
  5
DA
  8
TEAM-NET
 10
109.555556
 20
-190.0
 30
0.0
 70
    64
  0
VERTEX
  5
DB
  8
TEAM-NET
 10
103.111111
 20
-190.0
 30
0.0
 70
    64
  0
VERTEX
  5
DC
  8
TEAM-NET
 10
96.666667
 20
-190.0
 30
0.0
 70
    64
  0
VERTEX
  5
DD
  8
TEAM-NET
 10
90.222222
 20
-190.0
 30
0.0
 70
    64
  0
VERTEX
  5
DE
  8
TEAM-NET
 10
83.777778
 20
-190.0
 30
0.0
 70
    64
  0
VERTEX
  5
DF
  8
TEAM-NET
 10
77.333333
 20
-190.0
 30
0.0
 70
    64
  0
VERTEX
  5
E0
  8
TEAM-NET
 10
70.888889
 20
-190.0
 30
0.0
 70
    64
  0
VERTEX
  5
E1
  8
TEAM-NET
 10
64.444444
 20
-190.0
 30
0.0
 70
    64
  0
VERTEX
  5
E2
  8
TEAM-NET
 10
58.0
 20
-190.0
 30
0.0
 70
    64
  0
VERTEX
  5
E3
  8
TEAM-NET
 10
51.555556
 20
-190.0
 30
0.0
 70
    64
  0
VERTEX
  5
E4
  8
TEAM-NET
 10
45.111111
 20
-190.0
 30
0.0
 70
    64
  0
VERTEX
  5
E5
  8
TEAM-NET
 10
38.666667
 20
-190.0
 30
0.0
 70
    64
  0
VERTEX
  5
E6
  8
TEAM-NET
 10
32.222222
 20
-190.0
 30
0.0
 70
    64
  0
VERTEX
  5
E7
  8
TEAM-NET
 10
25.777778
 20
-190.0
 30
0.0
 70
    64
  0
VERTEX
  5
E8
  8
TEAM-NET
 10
19.333333
 20
-190.0
 30
0.0
 70
    64
  0
VERTEX
  5
E9
  8
TEAM-NET
 10
12.888889
 20
-190.0
 30
0.0
 70
    64
  0
VERTEX
  5
EA
  8
TEAM-NET
 10
6.444444
 20
-190.0
 30
0.0
 70
    64
  0
VERTEX
  5
EB
  8
TEAM-NET
 10
0.0
 20
-190.0
 30
0.0
 70
    64
  0
VERTEX
  5
EC
  8
TEAM-NET
 10
-6.444444
 20
-190.0
 30
0.0
 70
    64
  0
VERTEX
  5
ED
  8
TEAM-NET
 10
-12.888889
 20
-190.0
 30
0.0
 70
    64
  0
VERTEX
  5
EE
  8
TEAM-NET
 10
-19.333333
 20
-190.0
 30
0.0
 70
    64
  0
VERTEX
  5
EF
  8
TEAM-NET
 10
-25.777778
 20
-190.0
 30
0.0
 70
    64
  0
VERTEX
  5
F0
  8
TEAM-NET
 10
-32.222222
 20
-190.0
 30
0.0
 70
    64
  0
VERTEX
  5
F1
  8
TEAM-NET
 10
-38.666667
 20
-190.0
 30
0.0
 70
    64
  0
VERTEX
  5
F2
  8
TEAM-NET
 10
-45.111111
 20
-190.0
 30
0.0
 70
    64
  0
VERTEX
  5
F3
  8
TEAM-NET
 10
-51.555556
 20
-190.0
 30
0.0
 70
    64
  0
VERTEX
  5
F4
  8
TEAM-NET
 10
-58.0
 20
-190.0
 30
0.0
 70
    64
  0
VERTEX
  5
F5
  8
TEAM-NET
 10
-64.444444
 20
-190.0
 30
0.0
 70
    64
  0
VERTEX
  5
F6
  8
TEAM-NET
 10
-70.888889
 20
-190.0
 30
0.0
 70
    64
  0
VERTEX
  5
F7
  8
TEAM-NET
 10
-77.333333
 20
-190.0
 30
0.0
 70
    64
  0
VERTEX
  5
F8
  8
TEAM-NET
 10
-83.777778
 20
-190.0
 30
0.0
 70
    64
  0
VERTEX
  5
F9
  8
TEAM-NET
 10
-90.222222
 20
-190.0
 30
0.0
 70
    64
  0
VERTEX
  5
FA
  8
TEAM-NET
 10
-96.666667
 20
-190.0
 30
0.0
 70
    64
  0
VERTEX
  5
FB
  8
TEAM-NET
 10
-103.111111
 20
-190.0
 30
0.0
 70
    64
  0
VERTEX
  5
FC
  8
TEAM-NET
 10
-109.555556
 20
-190.0
 30
0.0
 70
    64
  0
VERTEX
  5
FD
  8
TEAM-NET
 10
-116.0
 20
-190.0
 30
0.0
 70
    64
  0
VERTEX
  5
FE
  8
TEAM-NET
 10
116.0
 20
-188.0
 30
0.0
 70
    64
  0
VERTEX
  5
FF
  8
TEAM-NET
 10
109.555556
 20
-188.0
 30
0.0
 70
    64
  0
VERTEX
  5
100
  8
TEAM-NET
 10
103.111111
 20
-188.0
 30
0.0
 70
    64
  0
VERTEX
  5
101
  8
TEAM-NET
 10
96.666667
 20
-188.0
 30
0.0
 70
    64
  0
VERTEX
  5
102
  8
TEAM-NET
 10
90.222222
 20
-188.0
 30
0.0
 70
    64
  0
VERTEX
  5
103
  8
TEAM-NET
 10
83.777778
 20
-188.0
 30
0.0
 70
    64
  0
VERTEX
  5
104
  8
TEAM-NET
 10
77.333333
 20
-188.0
 30
0.0
 70
    64
  0
VERTEX
  5
105
  8
TEAM-NET
 10
70.888889
 20
-188.0
 30
0.0
 70
    64
  0
VERTEX
  5
106
  8
TEAM-NET
 10
64.444444
 20
-188.0
 30
0.0
 70
    64
  0
VERTEX
  5
107
  8
TEAM-NET
 10
58.0
 20
-188.0
 30
0.0
 70
    64
  0
VERTEX
  5
108
  8
TEAM-NET
 10
51.555556
 20
-188.0
 30
0.0
 70
    64
  0
VERTEX
  5
109
  8
TEAM-NET
 10
45.111111
 20
-188.0
 30
0.0
 70
    64
  0
VERTEX
  5
10A
  8
TEAM-NET
 10
38.666667
 20
-188.0
 30
0.0
 70
    64
  0
VERTEX
  5
10B
  8
TEAM-NET
 10
32.222222
 20
-188.0
 30
0.0
 70
    64
  0
VERTEX
  5
10C
  8
TEAM-NET
 10
25.777778
 20
-188.0
 30
0.0
 70
    64
  0
VERTEX
  5
10D
  8
TEAM-NET
 10
19.333333
 20
-188.0
 30
0.0
 70
    64
  0
VERTEX
  5
10E
  8
TEAM-NET
 10
12.888889
 20
-188.0
 30
0.0
 70
    64
  0
VERTEX
  5
10F
  8
TEAM-NET
 10
6.444444
 20
-188.0
 30
0.0
 70
    64
  0
VERTEX
  5
110
  8
TEAM-NET
 10
0.0
 20
-188.0
 30
0.0
 70
    64
  0
VERTEX
  5
111
  8
TEAM-NET
 10
-6.444444
 20
-188.0
 30
0.0
 70
    64
  0
VERTEX
  5
112
  8
TEAM-NET
 10
-12.888889
 20
-188.0
 30
0.0
 70
    64
  0
VERTEX
  5
113
  8
TEAM-NET
 10
-19.333333
 20
-188.0
 30
0.0
 70
    64
  0
VERTEX
  5
114
  8
TEAM-NET
 10
-25.777778
 20
-188.0
 30
0.0
 70
    64
  0
VERTEX
  5
115
  8
TEAM-NET
 10
-32.222222
 20
-188.0
 30
0.0
 70
    64
  0
VERTEX
  5
116
  8
TEAM-NET
 10
-38.666667
 20
-188.0
 30
0.0
 70
    64
  0
VERTEX
  5
117
  8
TEAM-NET
 10
-45.111111
 20
-188.0
 30
0.0
 70
    64
  0
VERTEX
  5
118
  8
TEAM-NET
 10
-51.555556
 20
-188.0
 30
0.0
 70
    64
  0
VERTEX
  5
119
  8
TEAM-NET
 10
-58.0
 20
-188.0
 30
0.0
 70
    64
  0
VERTEX
  5
11A
  8
TEAM-NET
 10
-64.444444
 20
-188.0
 30
0.0
 70
    64
  0
VERTEX
  5
11B
  8
TEAM-NET
 10
-70.888889
 20
-188.0
 30
0.0
 70
    64
  0
VERTEX
  5
11C
  8
TEAM-NET
 10
-77.333333
 20
-188.0
 30
0.0
 70
    64
  0
VERTEX
  5
11D
  8
TEAM-NET
 10
-83.777778
 20
-188.0
 30
0.0
 70
    64
  0
VERTEX
  5
11E
  8
TEAM-NET
 10
-90.222222
 20
-188.0
 30
0.0
 70
    64
  0
VERTEX
  5
11F
  8
TEAM-NET
 10
-96.666667
 20
-188.0
 30
0.0
 70
    64
  0
VERTEX
  5
120
  8
TEAM-NET
 10
-103.111111
 20
-188.0
 30
0.0
 70
    64
  0
VERTEX
  5
121
  8
TEAM-NET
 10
-109.555556
 20
-188.0
 30
0.0
 70
    64
  0
VERTEX
  5
122
  8
TEAM-NET
 10
-116.0
 20
-188.0
 30
0.0
 70
    64
  0
SEQEND
  5
123
  8
TEAM-NET
  0
POLYLINE
  5
124
  8
TEAM-NET
 66
     1
 10
0.0
 20
0.0
 30
0.0
 70
    16
 71
     2
 72
    37
  0
VERTEX
  5
125
  8
TEAM-NET
 10
116.0
 20
-204.700429
 30
0.0
 70
    64
  0
VERTEX
  5
126
  8
TEAM-NET
 10
116.0
 20
-199.236529
 30
0.0
 70
    64
  0
VERTEX
  5
127
  8
TEAM-NET
 10
116.0
 20
-193.772628
 30
0.0
 70
    64
  0
VERTEX
  5
128
  8
TEAM-NET
 10
116.0
 20
-188.308727
 30
0.0
 70
    64
  0
VERTEX
  5
129
  8
TEAM-NET
 10
116.0
 20
-182.844826
 30
0.0
 70
    64
  0
VERTEX
  5
12A
  8
TEAM-NET
 10
116.0
 20
-177.380925
 30
0.0
 70
    64
  0
VERTEX
  5
12B
  8
TEAM-NET
 10
116.0
 20
-171.917025
 30
0.0
 70
    64
  0
VERTEX
  5
12C
  8
TEAM-NET
 10
116.0
 20
-166.453124
 30
0.0
 70
    64
  0
VERTEX
  5
12D
  8
TEAM-NET
 10
116.0
 20
-160.989223
 30
0.0
 70
    64
  0
VERTEX
  5
12E
  8
TEAM-NET
 10
116.0
 20
-155.525322
 30
0.0
 70
    64
  0
VERTEX
  5
12F
  8
TEAM-NET
 10
116.0
 20
-150.061421
 30
0.0
 70
    64
  0
VERTEX
  5
130
  8
TEAM-NET
 10
116.0
 20
-144.59752
 30
0.0
 70
    64
  0
VERTEX
  5
131
  8
TEAM-NET
 10
116.0
 20
-139.13362
 30
0.0
 70
    64
  0
VERTEX
  5
132
  8
TEAM-NET
 10
116.0
 20
-133.669719
 30
0.0
 70
    64
  0
VERTEX
  5
133
  8
TEAM-NET
 10
116.0
 20
-128.205818
 30
0.0
 70
    64
  0
VERTEX
  5
134
  8
TEAM-NET
 10
116.0
 20
-122.741917
 30
0.0
 70
    64
  0
VERTEX
  5
135
  8
TEAM-NET
 10
116.0
 20
-117.278016
 30
0.0
 70
    64
  0
VERTEX
  5
136
  8
TEAM-NET
 10
116.0
 20
-111.814116
 30
0.0
 70
    64
  0
VERTEX
  5
137
  8
TEAM-NET
 10
116.0
 20
-106.350215
 30
0.0
 70
    64
  0
VERTEX
  5
138
  8
TEAM-NET
 10
116.0
 20
-100.886314
 30
0.0
 70
    64
  0
VERTEX
  5
139
  8
TEAM-NET
 10
116.0
 20
-95.422413
 30
0.0
 70
    64
  0
VERTEX
  5
13A
  8
TEAM-NET
 10
116.0
 20
-89.958512
 30
0.0
 70
    64
  0
VERTEX
  5
13B
  8
TEAM-NET
 10
116.0
 20
-84.494611
 30
0.0
 70
    64
  0
VERTEX
  5
13C
  8
TEAM-NET
 10
116.0
 20
-79.030711
 30
0.0
 70
    64
  0
VERTEX
  5
13D
  8
TEAM-NET
 10
116.0
 20
-73.56681
 30
0.0
 70
    64
  0
VERTEX
  5
13E
  8
TEAM-NET
 10
116.0
 20
-68.102909
 30
0.0
 70
    64
  0
VERTEX
  5
13F
  8
TEAM-NET
 10
116.0
 20
-62.639008
 30
0.0
 70
    64
  0
VERTEX
  5
140
  8
TEAM-NET
 10
116.0
 20
-57.175107
 30
0.0
 70
    64
  0
VERTEX
  5
141
  8
TEAM-NET
 10
116.0
 20
-51.711207
 30
0.0
 70
    64
  0
VERTEX
  5
142
  8
TEAM-NET
 10
116.0
 20
-46.247306
 30
0.0
 70
    64
  0
VERTEX
  5
143
  8
TEAM-NET
 10
116.0
 20
-40.783405
 30
0.0
 70
    64
  0
VERTEX
  5
144
  8
TEAM-NET
 10
116.0
 20
-35.319504
 30
0.0
 70
    64
  0
VERTEX
  5
145
  8
TEAM-NET
 10
116.0
 20
-29.855603
 30
0.0
 70
    64
  0
VERTEX
  5
146
  8
TEAM-NET
 10
116.0
 20
-24.391702
 30
0.0
 70
    64
  0
VERTEX
  5
147
  8
TEAM-NET
 10
116.0
 20
-18.927802
 30
0.0
 70
    64
  0
VERTEX
  5
148
  8
TEAM-NET
 10
116.0
 20
-13.463901
 30
0.0
 70
    64
  0
VERTEX
  5
149
  8
TEAM-NET
 10
116.0
 20
-8.0
 30
0.0
 70
    64
  0
VERTEX
  5
14A
  8
TEAM-NET
 10
120.0
 20
-204.700429
 30
0.0
 70
    64
  0
VERTEX
  5
14B
  8
TEAM-NET
 10
120.0
 20
-199.292084
 30
0.0
 70
    64
  0
VERTEX
  5
14C
  8
TEAM-NET
 10
120.0
 20
-193.883739
 30
0.0
 70
    64
  0
VERTEX
  5
14D
  8
TEAM-NET
 10
120.0
 20
-188.475394
 30
0.0
 70
    64
  0
VERTEX
  5
14E
  8
TEAM-NET
 10
120.0
 20
-183.067048
 30
0.0
 70
    64
  0
VERTEX
  5
14F
  8
TEAM-NET
 10
120.0
 20
-177.658703
 30
0.0
 70
    64
  0
VERTEX
  5
150
  8
TEAM-NET
 10
120.0
 20
-172.250358
 30
0.0
 70
    64
  0
VERTEX
  5
151
  8
TEAM-NET
 10
120.0
 20
-166.842013
 30
0.0
 70
    64
  0
VERTEX
  5
152
  8
TEAM-NET
 10
120.0
 20
-161.433667
 30
0.0
 70
    64
  0
VERTEX
  5
153
  8
TEAM-NET
 10
120.0
 20
-156.025322
 30
0.0
 70
    64
  0
VERTEX
  5
154
  8
TEAM-NET
 10
120.0
 20
-150.616977
 30
0.0
 70
    64
  0
VERTEX
  5
155
  8
TEAM-NET
 10
120.0
 20
-145.208632
 30
0.0
 70
    64
  0
VERTEX
  5
156
  8
TEAM-NET
 10
120.0
 20
-139.800286
 30
0.0
 70
    64
  0
VERTEX
  5
157
  8
TEAM-NET
 10
120.0
 20
-134.391941
 30
0.0
 70
    64
  0
VERTEX
  5
158
  8
TEAM-NET
 10
120.0
 20
-128.983596
 30
0.0
 70
    64
  0
VERTEX
  5
159
  8
TEAM-NET
 10
120.0
 20
-123.575251
 30
0.0
 70
    64
  0
VERTEX
  5
15A
  8
TEAM-NET
 10
120.0
 20
-118.166905
 30
0.0
 70
    64
  0
VERTEX
  5
15B
  8
TEAM-NET
 10
120.0
 20
-112.75856
 30
0.0
 70
    64
  0
VERTEX
  5
15C
  8
TEAM-NET
 10
120.0
 20
-107.350215
 30
0.0
 70
    64
  0
VERTEX
  5
15D
  8
TEAM-NET
 10
120.0
 20
-101.941869
 30
0.0
 70
    64
  0
VERTEX
  5
15E
  8
TEAM-NET
 10
120.0
 20
-96.533524
 30
0.0
 70
    64
  0
VERTEX
  5
15F
  8
TEAM-NET
 10
120.0
 20
-91.125179
 30
0.0
 70
    64
  0
VERTEX
  5
160
  8
TEAM-NET
 10
120.0
 20
-85.716834
 30
0.0
 70
    64
  0
VERTEX
  5
161
  8
TEAM-NET
 10
120.0
 20
-80.308488
 30
0.0
 70
    64
  0
VERTEX
  5
162
  8
TEAM-NET
 10
120.0
 20
-74.900143
 30
0.0
 70
    64
  0
VERTEX
  5
163
  8
TEAM-NET
 10
120.0
 20
-69.491798
 30
0.0
 70
    64
  0
VERTEX
  5
164
  8
TEAM-NET
 10
120.0
 20
-64.083453
 30
0.0
 70
    64
  0
VERTEX
  5
165
  8
TEAM-NET
 10
120.0
 20
-58.675107
 30
0.0
 70
    64
  0
VERTEX
  5
166
  8
TEAM-NET
 10
120.0
 20
-53.266762
 30
0.0
 70
    64
  0
VERTEX
  5
167
  8
TEAM-NET
 10
120.0
 20
-47.858417
 30
0.0
 70
    64
  0
VERTEX
  5
168
  8
TEAM-NET
 10
120.0
 20
-42.450072
 30
0.0
 70
    64
  0
VERTEX
  5
169
  8
TEAM-NET
 10
120.0
 20
-37.041726
 30
0.0
 70
    64
  0
VERTEX
  5
16A
  8
TEAM-NET
 10
120.0
 20
-31.633381
 30
0.0
 70
    64
  0
VERTEX
  5
16B
  8
TEAM-NET
 10
120.0
 20
-26.225036
 30
0.0
 70
    64
  0
VERTEX
  5
16C
  8
TEAM-NET
 10
120.0
 20
-20.816691
 30
0.0
 70
    64
  0
VERTEX
  5
16D
  8
TEAM-NET
 10
120.0
 20
-15.408345
 30
0.0
 70
    64
  0
VERTEX
  5
16E
  8
TEAM-NET
 10
120.0
 20
-10.0
 30
0.0
 70
    64
  0
SEQEND
  5
16F
  8
TEAM-NET
  0
POLYLINE
  5
170
  8
TEAM-NET
 66
     1
 10
0.0
 20
0.0
 30
0.0
 70
    16
 71
     2
 72
    37
  0
VERTEX
  5
171
  8
TEAM-NET
 10
-120.0
 20
-204.700429
 30
0.0
 70
    64
  0
VERTEX
  5
172
  8
TEAM-NET
 10
-120.0
 20
-199.292084
 30
0.0
 70
    64
  0
VERTEX
  5
173
  8
TEAM-NET
 10
-120.0
 20
-193.883739
 30
0.0
 70
    64
  0
VERTEX
  5
174
  8
TEAM-NET
 10
-120.0
 20
-188.475394
 30
0.0
 70
    64
  0
VERTEX
  5
175
  8
TEAM-NET
 10
-120.0
 20
-183.067048
 30
0.0
 70
    64
  0
VERTEX
  5
176
  8
TEAM-NET
 10
-120.0
 20
-177.658703
 30
0.0
 70
    64
  0
VERTEX
  5
177
  8
TEAM-NET
 10
-120.0
 20
-172.250358
 30
0.0
 70
    64
  0
VERTEX
  5
178
  8
TEAM-NET
 10
-120.0
 20
-166.842013
 30
0.0
 70
    64
  0
VERTEX
  5
179
  8
TEAM-NET
 10
-120.0
 20
-161.433667
 30
0.0
 70
    64
  0
VERTEX
  5
17A
  8
TEAM-NET
 10
-120.0
 20
-156.025322
 30
0.0
 70
    64
  0
VERTEX
  5
17B
  8
TEAM-NET
 10
-120.0
 20
-150.616977
 30
0.0
 70
    64
  0
VERTEX
  5
17C
  8
TEAM-NET
 10
-120.0
 20
-145.208632
 30
0.0
 70
    64
  0
VERTEX
  5
17D
  8
TEAM-NET
 10
-120.0
 20
-139.800286
 30
0.0
 70
    64
  0
VERTEX
  5
17E
  8
TEAM-NET
 10
-120.0
 20
-134.391941
 30
0.0
 70
    64
  0
VERTEX
  5
17F
  8
TEAM-NET
 10
-120.0
 20
-128.983596
 30
0.0
 70
    64
  0
VERTEX
  5
180
  8
TEAM-NET
 10
-120.0
 20
-123.575251
 30
0.0
 70
    64
  0
VERTEX
  5
181
  8
TEAM-NET
 10
-120.0
 20
-118.166905
 30
0.0
 70
    64
  0
VERTEX
  5
182
  8
TEAM-NET
 10
-120.0
 20
-112.75856
 30
0.0
 70
    64
  0
VERTEX
  5
183
  8
TEAM-NET
 10
-120.0
 20
-107.350215
 30
0.0
 70
    64
  0
VERTEX
  5
184
  8
TEAM-NET
 10
-120.0
 20
-101.941869
 30
0.0
 70
    64
  0
VERTEX
  5
185
  8
TEAM-NET
 10
-120.0
 20
-96.533524
 30
0.0
 70
    64
  0
VERTEX
  5
186
  8
TEAM-NET
 10
-120.0
 20
-91.125179
 30
0.0
 70
    64
  0
VERTEX
  5
187
  8
TEAM-NET
 10
-120.0
 20
-85.716834
 30
0.0
 70
    64
  0
VERTEX
  5
188
  8
TEAM-NET
 10
-120.0
 20
-80.308488
 30
0.0
 70
    64
  0
VERTEX
  5
189
  8
TEAM-NET
 10
-120.0
 20
-74.900143
 30
0.0
 70
    64
  0
VERTEX
  5
18A
  8
TEAM-NET
 10
-120.0
 20
-69.491798
 30
0.0
 70
    64
  0
VERTEX
  5
18B
  8
TEAM-NET
 10
-120.0
 20
-64.083453
 30
0.0
 70
    64
  0
VERTEX
  5
18C
  8
TEAM-NET
 10
-120.0
 20
-58.675107
 30
0.0
 70
    64
  0
VERTEX
  5
18D
  8
TEAM-NET
 10
-120.0
 20
-53.266762
 30
0.0
 70
    64
  0
VERTEX
  5
18E
  8
TEAM-NET
 10
-120.0
 20
-47.858417
 30
0.0
 70
    64
  0
VERTEX
  5
18F
  8
TEAM-NET
 10
-120.0
 20
-42.450072
 30
0.0
 70
    64
  0
VERTEX
  5
190
  8
TEAM-NET
 10
-120.0
 20
-37.041726
 30
0.0
 70
    64
  0
VERTEX
  5
191
  8
TEAM-NET
 10
-120.0
 20
-31.633381
 30
0.0
 70
    64
  0
VERTEX
  5
192
  8
TEAM-NET
 10
-120.0
 20
-26.225036
 30
0.0
 70
    64
  0
VERTEX
  5
193
  8
TEAM-NET
 10
-120.0
 20
-20.816691
 30
0.0
 70
    64
  0
VERTEX
  5
194
  8
TEAM-NET
 10
-120.0
 20
-15.408345
 30
0.0
 70
    64
  0
VERTEX
  5
195
  8
TEAM-NET
 10
-120.0
 20
-10.0
 30
0.0
 70
    64
  0
VERTEX
  5
196
  8
TEAM-NET
 10
-116.0
 20
-204.700429
 30
0.0
 70
    64
  0
VERTEX
  5
197
  8
TEAM-NET
 10
-116.0
 20
-199.236529
 30
0.0
 70
    64
  0
VERTEX
  5
198
  8
TEAM-NET
 10
-116.0
 20
-193.772628
 30
0.0
 70
    64
  0
VERTEX
  5
199
  8
TEAM-NET
 10
-116.0
 20
-188.308727
 30
0.0
 70
    64
  0
VERTEX
  5
19A
  8
TEAM-NET
 10
-116.0
 20
-182.844826
 30
0.0
 70
    64
  0
VERTEX
  5
19B
  8
TEAM-NET
 10
-116.0
 20
-177.380925
 30
0.0
 70
    64
  0
VERTEX
  5
19C
  8
TEAM-NET
 10
-116.0
 20
-171.917025
 30
0.0
 70
    64
  0
VERTEX
  5
19D
  8
TEAM-NET
 10
-116.0
 20
-166.453124
 30
0.0
 70
    64
  0
VERTEX
  5
19E
  8
TEAM-NET
 10
-116.0
 20
-160.989223
 30
0.0
 70
    64
  0
VERTEX
  5
19F
  8
TEAM-NET
 10
-116.0
 20
-155.525322
 30
0.0
 70
    64
  0
VERTEX
  5
1A0
  8
TEAM-NET
 10
-116.0
 20
-150.061421
 30
0.0
 70
    64
  0
VERTEX
  5
1A1
  8
TEAM-NET
 10
-116.0
 20
-144.59752
 30
0.0
 70
    64
  0
VERTEX
  5
1A2
  8
TEAM-NET
 10
-116.0
 20
-139.13362
 30
0.0
 70
    64
  0
VERTEX
  5
1A3
  8
TEAM-NET
 10
-116.0
 20
-133.669719
 30
0.0
 70
    64
  0
VERTEX
  5
1A4
  8
TEAM-NET
 10
-116.0
 20
-128.205818
 30
0.0
 70
    64
  0
VERTEX
  5
1A5
  8
TEAM-NET
 10
-116.0
 20
-122.741917
 30
0.0
 70
    64
  0
VERTEX
  5
1A6
  8
TEAM-NET
 10
-116.0
 20
-117.278016
 30
0.0
 70
    64
  0
VERTEX
  5
1A7
  8
TEAM-NET
 10
-116.0
 20
-111.814116
 30
0.0
 70
    64
  0
VERTEX
  5
1A8
  8
TEAM-NET
 10
-116.0
 20
-106.350215
 30
0.0
 70
    64
  0
VERTEX
  5
1A9
  8
TEAM-NET
 10
-116.0
 20
-100.886314
 30
0.0
 70
    64
  0
VERTEX
  5
1AA
  8
TEAM-NET
 10
-116.0
 20
-95.422413
 30
0.0
 70
    64
  0
VERTEX
  5
1AB
  8
TEAM-NET
 10
-116.0
 20
-89.958512
 30
0.0
 70
    64
  0
VERTEX
  5
1AC
  8
TEAM-NET
 10
-116.0
 20
-84.494611
 30
0.0
 70
    64
  0
VERTEX
  5
1AD
  8
TEAM-NET
 10
-116.0
 20
-79.030711
 30
0.0
 70
    64
  0
VERTEX
  5
1AE
  8
TEAM-NET
 10
-116.0
 20
-73.56681
 30
0.0
 70
    64
  0
VERTEX
  5
1AF
  8
TEAM-NET
 10
-116.0
 20
-68.102909
 30
0.0
 70
    64
  0
VERTEX
  5
1B0
  8
TEAM-NET
 10
-116.0
 20
-62.639008
 30
0.0
 70
    64
  0
VERTEX
  5
1B1
  8
TEAM-NET
 10
-116.0
 20
-57.175107
 30
0.0
 70
    64
  0
VERTEX
  5
1B2
  8
TEAM-NET
 10
-116.0
 20
-51.711207
 30
0.0
 70
    64
  0
VERTEX
  5
1B3
  8
TEAM-NET
 10
-116.0
 20
-46.247306
 30
0.0
 70
    64
  0
VERTEX
  5
1B4
  8
TEAM-NET
 10
-116.0
 20
-40.783405
 30
0.0
 70
    64
  0
VERTEX
  5
1B5
  8
TEAM-NET
 10
-116.0
 20
-35.319504
 30
0.0
 70
    64
  0
VERTEX
  5
1B6
  8
TEAM-NET
 10
-116.0
 20
-29.855603
 30
0.0
 70
    64
  0
VERTEX
  5
1B7
  8
TEAM-NET
 10
-116.0
 20
-24.391702
 30
0.0
 70
    64
  0
VERTEX
  5
1B8
  8
TEAM-NET
 10
-116.0
 20
-18.927802
 30
0.0
 70
    64
  0
VERTEX
  5
1B9
  8
TEAM-NET
 10
-116.0
 20
-13.463901
 30
0.0
 70
    64
  0
VERTEX
  5
1BA
  8
TEAM-NET
 10
-116.0
 20
-8.0
 30
0.0
 70
    64
  0
SEQEND
  5
1BB
  8
TEAM-NET
  0
POLYLINE
  5
1BC
  8
TEAM-NET
 66
     1
 10
0.0
 20
0.0
 30
0.0
 70
    16
 71
     2
 72
    37
  0
VERTEX
  5
1BD
  8
TEAM-NET
 10
-124.0
 20
-205.532047
 30
0.0
 70
    64
  0
VERTEX
  5
1BE
  8
TEAM-NET
 10
-124.0
 20
-207.683934
 30
0.0
 70
    64
  0
VERTEX
  5
1BF
  8
TEAM-NET
 10
-124.0
 20
-209.835822
 30
0.0
 70
    64
  0
VERTEX
  5
1C0
  8
TEAM-NET
 10
-124.0
 20
-211.98771
 30
0.0
 70
    64
  0
VERTEX
  5
1C1
  8
TEAM-NET
 10
-124.0
 20
-214.139597
 30
0.0
 70
    64
  0
VERTEX
  5
1C2
  8
TEAM-NET
 10
-124.0
 20
-216.291485
 30
0.0
 70
    64
  0
VERTEX
  5
1C3
  8
TEAM-NET
 10
-124.0
 20
-218.443372
 30
0.0
 70
    64
  0
VERTEX
  5
1C4
  8
TEAM-NET
 10
-124.0
 20
-220.59526
 30
0.0
 70
    64
  0
VERTEX
  5
1C5
  8
TEAM-NET
 10
-124.0
 20
-222.747148
 30
0.0
 70
    64
  0
VERTEX
  5
1C6
  8
TEAM-NET
 10
-124.0
 20
-224.899035
 30
0.0
 70
    64
  0
VERTEX
  5
1C7
  8
TEAM-NET
 10
-124.0
 20
-227.050923
 30
0.0
 70
    64
  0
VERTEX
  5
1C8
  8
TEAM-NET
 10
-124.0
 20
-229.20281
 30
0.0
 70
    64
  0
VERTEX
  5
1C9
  8
TEAM-NET
 10
-124.0
 20
-231.354698
 30
0.0
 70
    64
  0
VERTEX
  5
1CA
  8
TEAM-NET
 10
-124.0
 20
-233.506585
 30
0.0
 70
    64
  0
VERTEX
  5
1CB
  8
TEAM-NET
 10
-124.0
 20
-235.658473
 30
0.0
 70
    64
  0
VERTEX
  5
1CC
  8
TEAM-NET
 10
-124.0
 20
-237.810361
 30
0.0
 70
    64
  0
VERTEX
  5
1CD
  8
TEAM-NET
 10
-124.0
 20
-239.962248
 30
0.0
 70
    64
  0
VERTEX
  5
1CE
  8
TEAM-NET
 10
-124.0
 20
-242.114136
 30
0.0
 70
    64
  0
VERTEX
  5
1CF
  8
TEAM-NET
 10
-124.0
 20
-244.266023
 30
0.0
 70
    64
  0
VERTEX
  5
1D0
  8
TEAM-NET
 10
-124.0
 20
-246.417911
 30
0.0
 70
    64
  0
VERTEX
  5
1D1
  8
TEAM-NET
 10
-124.0
 20
-248.569799
 30
0.0
 70
    64
  0
VERTEX
  5
1D2
  8
TEAM-NET
 10
-124.0
 20
-250.721686
 30
0.0
 70
    64
  0
VERTEX
  5
1D3
  8
TEAM-NET
 10
-124.0
 20
-252.873574
 30
0.0
 70
    64
  0
VERTEX
  5
1D4
  8
TEAM-NET
 10
-124.0
 20
-255.025461
 30
0.0
 70
    64
  0
VERTEX
  5
1D5
  8
TEAM-NET
 10
-124.0
 20
-257.177349
 30
0.0
 70
    64
  0
VERTEX
  5
1D6
  8
TEAM-NET
 10
-124.0
 20
-259.329237
 30
0.0
 70
    64
  0
VERTEX
  5
1D7
  8
TEAM-NET
 10
-124.0
 20
-261.481124
 30
0.0
 70
    64
  0
VERTEX
  5
1D8
  8
TEAM-NET
 10
-124.0
 20
-263.633012
 30
0.0
 70
    64
  0
VERTEX
  5
1D9
  8
TEAM-NET
 10
-124.0
 20
-265.784899
 30
0.0
 70
    64
  0
VERTEX
  5
1DA
  8
TEAM-NET
 10
-124.0
 20
-267.936787
 30
0.0
 70
    64
  0
VERTEX
  5
1DB
  8
TEAM-NET
 10
-124.0
 20
-270.088674
 30
0.0
 70
    64
  0
VERTEX
  5
1DC
  8
TEAM-NET
 10
-124.0
 20
-272.240562
 30
0.0
 70
    64
  0
VERTEX
  5
1DD
  8
TEAM-NET
 10
-124.0
 20
-274.39245
 30
0.0
 70
    64
  0
VERTEX
  5
1DE
  8
TEAM-NET
 10
-124.0
 20
-276.544337
 30
0.0
 70
    64
  0
VERTEX
  5
1DF
  8
TEAM-NET
 10
-124.0
 20
-278.696225
 30
0.0
 70
    64
  0
VERTEX
  5
1E0
  8
TEAM-NET
 10
-124.0
 20
-280.848112
 30
0.0
 70
    64
  0
VERTEX
  5
1E1
  8
TEAM-NET
 10
-124.0
 20
-283.0
 30
0.0
 70
    64
  0
VERTEX
  5
1E2
  8
TEAM-NET
 10
-112.0
 20
-205.532047
 30
0.0
 70
    64
  0
VERTEX
  5
1E3
  8
TEAM-NET
 10
-112.0
 20
-207.683934
 30
0.0
 70
    64
  0
VERTEX
  5
1E4
  8
TEAM-NET
 10
-112.0
 20
-209.835822
 30
0.0
 70
    64
  0
VERTEX
  5
1E5
  8
TEAM-NET
 10
-112.0
 20
-211.98771
 30
0.0
 70
    64
  0
VERTEX
  5
1E6
  8
TEAM-NET
 10
-112.0
 20
-214.139597
 30
0.0
 70
    64
  0
VERTEX
  5
1E7
  8
TEAM-NET
 10
-112.0
 20
-216.291485
 30
0.0
 70
    64
  0
VERTEX
  5
1E8
  8
TEAM-NET
 10
-112.0
 20
-218.443372
 30
0.0
 70
    64
  0
VERTEX
  5
1E9
  8
TEAM-NET
 10
-112.0
 20
-220.59526
 30
0.0
 70
    64
  0
VERTEX
  5
1EA
  8
TEAM-NET
 10
-112.0
 20
-222.747148
 30
0.0
 70
    64
  0
VERTEX
  5
1EB
  8
TEAM-NET
 10
-112.0
 20
-224.899035
 30
0.0
 70
    64
  0
VERTEX
  5
1EC
  8
TEAM-NET
 10
-112.0
 20
-227.050923
 30
0.0
 70
    64
  0
VERTEX
  5
1ED
  8
TEAM-NET
 10
-112.0
 20
-229.20281
 30
0.0
 70
    64
  0
VERTEX
  5
1EE
  8
TEAM-NET
 10
-112.0
 20
-231.354698
 30
0.0
 70
    64
  0
VERTEX
  5
1EF
  8
TEAM-NET
 10
-112.0
 20
-233.506585
 30
0.0
 70
    64
  0
VERTEX
  5
1F0
  8
TEAM-NET
 10
-112.0
 20
-235.658473
 30
0.0
 70
    64
  0
VERTEX
  5
1F1
  8
TEAM-NET
 10
-112.0
 20
-237.810361
 30
0.0
 70
    64
  0
VERTEX
  5
1F2
  8
TEAM-NET
 10
-112.0
 20
-239.962248
 30
0.0
 70
    64
  0
VERTEX
  5
1F3
  8
TEAM-NET
 10
-112.0
 20
-242.114136
 30
0.0
 70
    64
  0
VERTEX
  5
1F4
  8
TEAM-NET
 10
-112.0
 20
-244.266023
 30
0.0
 70
    64
  0
VERTEX
  5
1F5
  8
TEAM-NET
 10
-112.0
 20
-246.417911
 30
0.0
 70
    64
  0
VERTEX
  5
1F6
  8
TEAM-NET
 10
-112.0
 20
-248.569799
 30
0.0
 70
    64
  0
VERTEX
  5
1F7
  8
TEAM-NET
 10
-112.0
 20
-250.721686
 30
0.0
 70
    64
  0
VERTEX
  5
1F8
  8
TEAM-NET
 10
-112.0
 20
-252.873574
 30
0.0
 70
    64
  0
VERTEX
  5
1F9
  8
TEAM-NET
 10
-112.0
 20
-255.025461
 30
0.0
 70
    64
  0
VERTEX
  5
1FA
  8
TEAM-NET
 10
-112.0
 20
-257.177349
 30
0.0
 70
    64
  0
VERTEX
  5
1FB
  8
TEAM-NET
 10
-112.0
 20
-259.329237
 30
0.0
 70
    64
  0
VERTEX
  5
1FC
  8
TEAM-NET
 10
-112.0
 20
-261.481124
 30
0.0
 70
    64
  0
VERTEX
  5
1FD
  8
TEAM-NET
 10
-112.0
 20
-263.633012
 30
0.0
 70
    64
  0
VERTEX
  5
1FE
  8
TEAM-NET
 10
-112.0
 20
-265.784899
 30
0.0
 70
    64
  0
VERTEX
  5
1FF
  8
TEAM-NET
 10
-112.0
 20
-267.936787
 30
0.0
 70
    64
  0
VERTEX
  5
200
  8
TEAM-NET
 10
-112.0
 20
-270.088674
 30
0.0
 70
    64
  0
VERTEX
  5
201
  8
TEAM-NET
 10
-112.0
 20
-272.240562
 30
0.0
 70
    64
  0
VERTEX
  5
202
  8
TEAM-NET
 10
-112.0
 20
-274.39245
 30
0.0
 70
    64
  0
VERTEX
  5
203
  8
TEAM-NET
 10
-112.0
 20
-276.544337
 30
0.0
 70
    64
  0
VERTEX
  5
204
  8
TEAM-NET
 10
-112.0
 20
-278.696225
 30
0.0
 70
    64
  0
VERTEX
  5
205
  8
TEAM-NET
 10
-112.0
 20
-280.848112
 30
0.0
 70
    64
  0
VERTEX
  5
206
  8
TEAM-NET
 10
-112.0
 20
-283.0
 30
0.0
 70
    64
  0
SEQEND
  5
207
  8
TEAM-NET
  0
POLYLINE
  5
208
  8
TEAM-NET
 66
     1
 10
0.0
 20
0.0
 30
0.0
 70
    16
 71
     2
 72
    37
  0
VERTEX
  5
209
  8
TEAM-NET
 10
112.0
 20
-205.532047
 30
0.0
 70
    64
  0
VERTEX
  5
20A
  8
TEAM-NET
 10
112.0
 20
-207.683934
 30
0.0
 70
    64
  0
VERTEX
  5
20B
  8
TEAM-NET
 10
112.0
 20
-209.835822
 30
0.0
 70
    64
  0
VERTEX
  5
20C
  8
TEAM-NET
 10
112.0
 20
-211.98771
 30
0.0
 70
    64
  0
VERTEX
  5
20D
  8
TEAM-NET
 10
112.0
 20
-214.139597
 30
0.0
 70
    64
  0
VERTEX
  5
20E
  8
TEAM-NET
 10
112.0
 20
-216.291485
 30
0.0
 70
    64
  0
VERTEX
  5
20F
  8
TEAM-NET
 10
112.0
 20
-218.443372
 30
0.0
 70
    64
  0
VERTEX
  5
210
  8
TEAM-NET
 10
112.0
 20
-220.59526
 30
0.0
 70
    64
  0
VERTEX
  5
211
  8
TEAM-NET
 10
112.0
 20
-222.747148
 30
0.0
 70
    64
  0
VERTEX
  5
212
  8
TEAM-NET
 10
112.0
 20
-224.899035
 30
0.0
 70
    64
  0
VERTEX
  5
213
  8
TEAM-NET
 10
112.0
 20
-227.050923
 30
0.0
 70
    64
  0
VERTEX
  5
214
  8
TEAM-NET
 10
112.0
 20
-229.20281
 30
0.0
 70
    64
  0
VERTEX
  5
215
  8
TEAM-NET
 10
112.0
 20
-231.354698
 30
0.0
 70
    64
  0
VERTEX
  5
216
  8
TEAM-NET
 10
112.0
 20
-233.506585
 30
0.0
 70
    64
  0
VERTEX
  5
217
  8
TEAM-NET
 10
112.0
 20
-235.658473
 30
0.0
 70
    64
  0
VERTEX
  5
218
  8
TEAM-NET
 10
112.0
 20
-237.810361
 30
0.0
 70
    64
  0
VERTEX
  5
219
  8
TEAM-NET
 10
112.0
 20
-239.962248
 30
0.0
 70
    64
  0
VERTEX
  5
21A
  8
TEAM-NET
 10
112.0
 20
-242.114136
 30
0.0
 70
    64
  0
VERTEX
  5
21B
  8
TEAM-NET
 10
112.0
 20
-244.266023
 30
0.0
 70
    64
  0
VERTEX
  5
21C
  8
TEAM-NET
 10
112.0
 20
-246.417911
 30
0.0
 70
    64
  0
VERTEX
  5
21D
  8
TEAM-NET
 10
112.0
 20
-248.569799
 30
0.0
 70
    64
  0
VERTEX
  5
21E
  8
TEAM-NET
 10
112.0
 20
-250.721686
 30
0.0
 70
    64
  0
VERTEX
  5
21F
  8
TEAM-NET
 10
112.0
 20
-252.873574
 30
0.0
 70
    64
  0
VERTEX
  5
220
  8
TEAM-NET
 10
112.0
 20
-255.025461
 30
0.0
 70
    64
  0
VERTEX
  5
221
  8
TEAM-NET
 10
112.0
 20
-257.177349
 30
0.0
 70
    64
  0
VERTEX
  5
222
  8
TEAM-NET
 10
112.0
 20
-259.329237
 30
0.0
 70
    64
  0
VERTEX
  5
223
  8
TEAM-NET
 10
112.0
 20
-261.481124
 30
0.0
 70
    64
  0
VERTEX
  5
224
  8
TEAM-NET
 10
112.0
 20
-263.633012
 30
0.0
 70
    64
  0
VERTEX
  5
225
  8
TEAM-NET
 10
112.0
 20
-265.784899
 30
0.0
 70
    64
  0
VERTEX
  5
226
  8
TEAM-NET
 10
112.0
 20
-267.936787
 30
0.0
 70
    64
  0
VERTEX
  5
227
  8
TEAM-NET
 10
112.0
 20
-270.088674
 30
0.0
 70
    64
  0
VERTEX
  5
228
  8
TEAM-NET
 10
112.0
 20
-272.240562
 30
0.0
 70
    64
  0
VERTEX
  5
229
  8
TEAM-NET
 10
112.0
 20
-274.39245
 30
0.0
 70
    64
  0
VERTEX
  5
22A
  8
TEAM-NET
 10
112.0
 20
-276.544337
 30
0.0
 70
    64
  0
VERTEX
  5
22B
  8
TEAM-NET
 10
112.0
 20
-278.696225
 30
0.0
 70
    64
  0
VERTEX
  5
22C
  8
TEAM-NET
 10
112.0
 20
-280.848112
 30
0.0
 70
    64
  0
VERTEX
  5
22D
  8
TEAM-NET
 10
112.0
 20
-283.0
 30
0.0
 70
    64
  0
VERTEX
  5
22E
  8
TEAM-NET
 10
124.0
 20
-205.532047
 30
0.0
 70
    64
  0
VERTEX
  5
22F
  8
TEAM-NET
 10
124.0
 20
-207.683934
 30
0.0
 70
    64
  0
VERTEX
  5
230
  8
TEAM-NET
 10
124.0
 20
-209.835822
 30
0.0
 70
    64
  0
VERTEX
  5
231
  8
TEAM-NET
 10
124.0
 20
-211.98771
 30
0.0
 70
    64
  0
VERTEX
  5
232
  8
TEAM-NET
 10
124.0
 20
-214.139597
 30
0.0
 70
    64
  0
VERTEX
  5
233
  8
TEAM-NET
 10
124.0
 20
-216.291485
 30
0.0
 70
    64
  0
VERTEX
  5
234
  8
TEAM-NET
 10
124.0
 20
-218.443372
 30
0.0
 70
    64
  0
VERTEX
  5
235
  8
TEAM-NET
 10
124.0
 20
-220.59526
 30
0.0
 70
    64
  0
VERTEX
  5
236
  8
TEAM-NET
 10
124.0
 20
-222.747148
 30
0.0
 70
    64
  0
VERTEX
  5
237
  8
TEAM-NET
 10
124.0
 20
-224.899035
 30
0.0
 70
    64
  0
VERTEX
  5
238
  8
TEAM-NET
 10
124.0
 20
-227.050923
 30
0.0
 70
    64
  0
VERTEX
  5
239
  8
TEAM-NET
 10
124.0
 20
-229.20281
 30
0.0
 70
    64
  0
VERTEX
  5
23A
  8
TEAM-NET
 10
124.0
 20
-231.354698
 30
0.0
 70
    64
  0
VERTEX
  5
23B
  8
TEAM-NET
 10
124.0
 20
-233.506585
 30
0.0
 70
    64
  0
VERTEX
  5
23C
  8
TEAM-NET
 10
124.0
 20
-235.658473
 30
0.0
 70
    64
  0
VERTEX
  5
23D
  8
TEAM-NET
 10
124.0
 20
-237.810361
 30
0.0
 70
    64
  0
VERTEX
  5
23E
  8
TEAM-NET
 10
124.0
 20
-239.962248
 30
0.0
 70
    64
  0
VERTEX
  5
23F
  8
TEAM-NET
 10
124.0
 20
-242.114136
 30
0.0
 70
    64
  0
VERTEX
  5
240
  8
TEAM-NET
 10
124.0
 20
-244.266023
 30
0.0
 70
    64
  0
VERTEX
  5
241
  8
TEAM-NET
 10
124.0
 20
-246.417911
 30
0.0
 70
    64
  0
VERTEX
  5
242
  8
TEAM-NET
 10
124.0
 20
-248.569799
 30
0.0
 70
    64
  0
VERTEX
  5
243
  8
TEAM-NET
 10
124.0
 20
-250.721686
 30
0.0
 70
    64
  0
VERTEX
  5
244
  8
TEAM-NET
 10
124.0
 20
-252.873574
 30
0.0
 70
    64
  0
VERTEX
  5
245
  8
TEAM-NET
 10
124.0
 20
-255.025461
 30
0.0
 70
    64
  0
VERTEX
  5
246
  8
TEAM-NET
 10
124.0
 20
-257.177349
 30
0.0
 70
    64
  0
VERTEX
  5
247
  8
TEAM-NET
 10
124.0
 20
-259.329237
 30
0.0
 70
    64
  0
VERTEX
  5
248
  8
TEAM-NET
 10
124.0
 20
-261.481124
 30
0.0
 70
    64
  0
VERTEX
  5
249
  8
TEAM-NET
 10
124.0
 20
-263.633012
 30
0.0
 70
    64
  0
VERTEX
  5
24A
  8
TEAM-NET
 10
124.0
 20
-265.784899
 30
0.0
 70
    64
  0
VERTEX
  5
24B
  8
TEAM-NET
 10
124.0
 20
-267.936787
 30
0.0
 70
    64
  0
VERTEX
  5
24C
  8
TEAM-NET
 10
124.0
 20
-270.088674
 30
0.0
 70
    64
  0
VERTEX
  5
24D
  8
TEAM-NET
 10
124.0
 20
-272.240562
 30
0.0
 70
    64
  0
VERTEX
  5
24E
  8
TEAM-NET
 10
124.0
 20
-274.39245
 30
0.0
 70
    64
  0
VERTEX
  5
24F
  8
TEAM-NET
 10
124.0
 20
-276.544337
 30
0.0
 70
    64
  0
VERTEX
  5
250
  8
TEAM-NET
 10
124.0
 20
-278.696225
 30
0.0
 70
    64
  0
VERTEX
  5
251
  8
TEAM-NET
 10
124.0
 20
-280.848112
 30
0.0
 70
    64
  0
VERTEX
  5
252
  8
TEAM-NET
 10
124.0
 20
-283.0
 30
0.0
 70
    64
  0
SEQEND
  5
253
  8
TEAM-NET
  0
POLYLINE
  5
254
  8
TEAM-NET
 66
     1
 10
0.0
 20
0.0
 30
0.0
 70
    16
 71
     2
 72
    37
  0
VERTEX
  5
255
  8
TEAM-NET
 10
118.0
 20
-8.0
 30
0.0
 70
    64
  0
VERTEX
  5
256
  8
TEAM-NET
 10
111.444444
 20
-8.0
 30
0.0
 70
    64
  0
VERTEX
  5
257
  8
TEAM-NET
 10
104.888889
 20
-8.0
 30
0.0
 70
    64
  0
VERTEX
  5
258
  8
TEAM-NET
 10
98.333333
 20
-8.0
 30
0.0
 70
    64
  0
VERTEX
  5
259
  8
TEAM-NET
 10
91.777778
 20
-8.0
 30
0.0
 70
    64
  0
VERTEX
  5
25A
  8
TEAM-NET
 10
85.222222
 20
-8.0
 30
0.0
 70
    64
  0
VERTEX
  5
25B
  8
TEAM-NET
 10
78.666667
 20
-8.0
 30
0.0
 70
    64
  0
VERTEX
  5
25C
  8
TEAM-NET
 10
72.111111
 20
-8.0
 30
0.0
 70
    64
  0
VERTEX
  5
25D
  8
TEAM-NET
 10
65.555556
 20
-8.0
 30
0.0
 70
    64
  0
VERTEX
  5
25E
  8
TEAM-NET
 10
59.0
 20
-8.0
 30
0.0
 70
    64
  0
VERTEX
  5
25F
  8
TEAM-NET
 10
52.444444
 20
-8.0
 30
0.0
 70
    64
  0
VERTEX
  5
260
  8
TEAM-NET
 10
45.888889
 20
-8.0
 30
0.0
 70
    64
  0
VERTEX
  5
261
  8
TEAM-NET
 10
39.333333
 20
-8.0
 30
0.0
 70
    64
  0
VERTEX
  5
262
  8
TEAM-NET
 10
32.777778
 20
-8.0
 30
0.0
 70
    64
  0
VERTEX
  5
263
  8
TEAM-NET
 10
26.222222
 20
-8.0
 30
0.0
 70
    64
  0
VERTEX
  5
264
  8
TEAM-NET
 10
19.666667
 20
-8.0
 30
0.0
 70
    64
  0
VERTEX
  5
265
  8
TEAM-NET
 10
13.111111
 20
-8.0
 30
0.0
 70
    64
  0
VERTEX
  5
266
  8
TEAM-NET
 10
6.555556
 20
-8.0
 30
0.0
 70
    64
  0
VERTEX
  5
267
  8
TEAM-NET
 10
0.0
 20
-8.0
 30
0.0
 70
    64
  0
VERTEX
  5
268
  8
TEAM-NET
 10
-6.555556
 20
-8.0
 30
0.0
 70
    64
  0
VERTEX
  5
269
  8
TEAM-NET
 10
-13.111111
 20
-8.0
 30
0.0
 70
    64
  0
VERTEX
  5
26A
  8
TEAM-NET
 10
-19.666667
 20
-8.0
 30
0.0
 70
    64
  0
VERTEX
  5
26B
  8
TEAM-NET
 10
-26.222222
 20
-8.0
 30
0.0
 70
    64
  0
VERTEX
  5
26C
  8
TEAM-NET
 10
-32.777778
 20
-8.0
 30
0.0
 70
    64
  0
VERTEX
  5
26D
  8
TEAM-NET
 10
-39.333333
 20
-8.0
 30
0.0
 70
    64
  0
VERTEX
  5
26E
  8
TEAM-NET
 10
-45.888889
 20
-8.0
 30
0.0
 70
    64
  0
VERTEX
  5
26F
  8
TEAM-NET
 10
-52.444444
 20
-8.0
 30
0.0
 70
    64
  0
VERTEX
  5
270
  8
TEAM-NET
 10
-59.0
 20
-8.0
 30
0.0
 70
    64
  0
VERTEX
  5
271
  8
TEAM-NET
 10
-65.555556
 20
-8.0
 30
0.0
 70
    64
  0
VERTEX
  5
272
  8
TEAM-NET
 10
-72.111111
 20
-8.0
 30
0.0
 70
    64
  0
VERTEX
  5
273
  8
TEAM-NET
 10
-78.666667
 20
-8.0
 30
0.0
 70
    64
  0
VERTEX
  5
274
  8
TEAM-NET
 10
-85.222222
 20
-8.0
 30
0.0
 70
    64
  0
VERTEX
  5
275
  8
TEAM-NET
 10
-91.777778
 20
-8.0
 30
0.0
 70
    64
  0
VERTEX
  5
276
  8
TEAM-NET
 10
-98.333333
 20
-8.0
 30
0.0
 70
    64
  0
VERTEX
  5
277
  8
TEAM-NET
 10
-104.888889
 20
-8.0
 30
0.0
 70
    64
  0
VERTEX
  5
278
  8
TEAM-NET
 10
-111.444444
 20
-8.0
 30
0.0
 70
    64
  0
VERTEX
  5
279
  8
TEAM-NET
 10
-118.0
 20
-8.0
 30
0.0
 70
    64
  0
VERTEX
  5
27A
  8
TEAM-NET
 10
118.0
 20
0.0
 30
0.0
 70
    64
  0
VERTEX
  5
27B
  8
TEAM-NET
 10
111.444444
 20
0.0
 30
0.0
 70
    64
  0
VERTEX
  5
27C
  8
TEAM-NET
 10
104.888889
 20
0.0
 30
0.0
 70
    64
  0
VERTEX
  5
27D
  8
TEAM-NET
 10
98.333333
 20
0.0
 30
0.0
 70
    64
  0
VERTEX
  5
27E
  8
TEAM-NET
 10
91.777778
 20
0.0
 30
0.0
 70
    64
  0
VERTEX
  5
27F
  8
TEAM-NET
 10
85.222222
 20
0.0
 30
0.0
 70
    64
  0
VERTEX
  5
280
  8
TEAM-NET
 10
78.666667
 20
0.0
 30
0.0
 70
    64
  0
VERTEX
  5
281
  8
TEAM-NET
 10
72.111111
 20
0.0
 30
0.0
 70
    64
  0
VERTEX
  5
282
  8
TEAM-NET
 10
65.555556
 20
0.0
 30
0.0
 70
    64
  0
VERTEX
  5
283
  8
TEAM-NET
 10
59.0
 20
0.0
 30
0.0
 70
    64
  0
VERTEX
  5
284
  8
TEAM-NET
 10
52.444444
 20
0.0
 30
0.0
 70
    64
  0
VERTEX
  5
285
  8
TEAM-NET
 10
45.888889
 20
0.0
 30
0.0
 70
    64
  0
VERTEX
  5
286
  8
TEAM-NET
 10
39.333333
 20
0.0
 30
0.0
 70
    64
  0
VERTEX
  5
287
  8
TEAM-NET
 10
32.777778
 20
0.0
 30
0.0
 70
    64
  0
VERTEX
  5
288
  8
TEAM-NET
 10
26.222222
 20
0.0
 30
0.0
 70
    64
  0
VERTEX
  5
289
  8
TEAM-NET
 10
19.666667
 20
0.0
 30
0.0
 70
    64
  0
VERTEX
  5
28A
  8
TEAM-NET
 10
13.111111
 20
0.0
 30
0.0
 70
    64
  0
VERTEX
  5
28B
  8
TEAM-NET
 10
6.555556
 20
0.0
 30
0.0
 70
    64
  0
VERTEX
  5
28C
  8
TEAM-NET
 10
0.0
 20
0.0
 30
0.0
 70
    64
  0
VERTEX
  5
28D
  8
TEAM-NET
 10
-6.555556
 20
0.0
 30
0.0
 70
    64
  0
VERTEX
  5
28E
  8
TEAM-NET
 10
-13.111111
 20
0.0
 30
0.0
 70
    64
  0
VERTEX
  5
28F
  8
TEAM-NET
 10
-19.666667
 20
0.0
 30
0.0
 70
    64
  0
VERTEX
  5
290
  8
TEAM-NET
 10
-26.222222
 20
0.0
 30
0.0
 70
    64
  0
VERTEX
  5
291
  8
TEAM-NET
 10
-32.777778
 20
0.0
 30
0.0
 70
    64
  0
VERTEX
  5
292
  8
TEAM-NET
 10
-39.333333
 20
0.0
 30
0.0
 70
    64
  0
VERTEX
  5
293
  8
TEAM-NET
 10
-45.888889
 20
0.0
 30
0.0
 70
    64
  0
VERTEX
  5
294
  8
TEAM-NET
 10
-52.444444
 20
0.0
 30
0.0
 70
    64
  0
VERTEX
  5
295
  8
TEAM-NET
 10
-59.0
 20
0.0
 30
0.0
 70
    64
  0
VERTEX
  5
296
  8
TEAM-NET
 10
-65.555556
 20
0.0
 30
0.0
 70
    64
  0
VERTEX
  5
297
  8
TEAM-NET
 10
-72.111111
 20
0.0
 30
0.0
 70
    64
  0
VERTEX
  5
298
  8
TEAM-NET
 10
-78.666667
 20
0.0
 30
0.0
 70
    64
  0
VERTEX
  5
299
  8
TEAM-NET
 10
-85.222222
 20
0.0
 30
0.0
 70
    64
  0
VERTEX
  5
29A
  8
TEAM-NET
 10
-91.777778
 20
0.0
 30
0.0
 70
    64
  0
VERTEX
  5
29B
  8
TEAM-NET
 10
-98.333333
 20
0.0
 30
0.0
 70
    64
  0
VERTEX
  5
29C
  8
TEAM-NET
 10
-104.888889
 20
0.0
 30
0.0
 70
    64
  0
VERTEX
  5
29D
  8
TEAM-NET
 10
-111.444444
 20
0.0
 30
0.0
 70
    64
  0
VERTEX
  5
29E
  8
TEAM-NET
 10
-118.0
 20
0.0
 30
0.0
 70
    64
  0
SEQEND
  5
29F
  8
TEAM-NET
  0
POLYLINE
  5
2A0
  8
TEAM-NET
 66
     1
 10
0.0
 20
0.0
 30
0.0
 70
    16
 71
     2
 72
    37
  0
VERTEX
  5
2A1
  8
TEAM-NET
 10
118.0
 20
-10.0
 30
0.0
 70
    64
  0
VERTEX
  5
2A2
  8
TEAM-NET
 10
121.944444
 20
-10.0
 30
0.0
 70
    64
  0
VERTEX
  5
2A3
  8
TEAM-NET
 10
125.888889
 20
-10.0
 30
0.0
 70
    64
  0
VERTEX
  5
2A4
  8
TEAM-NET
 10
129.833333
 20
-10.0
 30
0.0
 70
    64
  0
VERTEX
  5
2A5
  8
TEAM-NET
 10
133.777778
 20
-10.0
 30
0.0
 70
    64
  0
VERTEX
  5
2A6
  8
TEAM-NET
 10
137.722222
 20
-10.0
 30
0.0
 70
    64
  0
VERTEX
  5
2A7
  8
TEAM-NET
 10
141.666667
 20
-10.0
 30
0.0
 70
    64
  0
VERTEX
  5
2A8
  8
TEAM-NET
 10
145.611111
 20
-10.0
 30
0.0
 70
    64
  0
VERTEX
  5
2A9
  8
TEAM-NET
 10
149.555556
 20
-10.0
 30
0.0
 70
    64
  0
VERTEX
  5
2AA
  8
TEAM-NET
 10
153.5
 20
-10.0
 30
0.0
 70
    64
  0
VERTEX
  5
2AB
  8
TEAM-NET
 10
157.444444
 20
-10.0
 30
0.0
 70
    64
  0
VERTEX
  5
2AC
  8
TEAM-NET
 10
161.388889
 20
-10.0
 30
0.0
 70
    64
  0
VERTEX
  5
2AD
  8
TEAM-NET
 10
165.333333
 20
-10.0
 30
0.0
 70
    64
  0
VERTEX
  5
2AE
  8
TEAM-NET
 10
169.277778
 20
-10.0
 30
0.0
 70
    64
  0
VERTEX
  5
2AF
  8
TEAM-NET
 10
173.222222
 20
-10.0
 30
0.0
 70
    64
  0
VERTEX
  5
2B0
  8
TEAM-NET
 10
177.166667
 20
-10.0
 30
0.0
 70
    64
  0
VERTEX
  5
2B1
  8
TEAM-NET
 10
181.111111
 20
-10.0
 30
0.0
 70
    64
  0
VERTEX
  5
2B2
  8
TEAM-NET
 10
185.055556
 20
-10.0
 30
0.0
 70
    64
  0
VERTEX
  5
2B3
  8
TEAM-NET
 10
189.0
 20
-10.0
 30
0.0
 70
    64
  0
VERTEX
  5
2B4
  8
TEAM-NET
 10
192.944444
 20
-10.0
 30
0.0
 70
    64
  0
VERTEX
  5
2B5
  8
TEAM-NET
 10
196.888889
 20
-10.0
 30
0.0
 70
    64
  0
VERTEX
  5
2B6
  8
TEAM-NET
 10
200.833333
 20
-10.0
 30
0.0
 70
    64
  0
VERTEX
  5
2B7
  8
TEAM-NET
 10
204.777778
 20
-10.0
 30
0.0
 70
    64
  0
VERTEX
  5
2B8
  8
TEAM-NET
 10
208.722222
 20
-10.0
 30
0.0
 70
    64
  0
VERTEX
  5
2B9
  8
TEAM-NET
 10
212.666667
 20
-10.0
 30
0.0
 70
    64
  0
VERTEX
  5
2BA
  8
TEAM-NET
 10
216.611111
 20
-10.0
 30
0.0
 70
    64
  0
VERTEX
  5
2BB
  8
TEAM-NET
 10
220.555556
 20
-10.0
 30
0.0
 70
    64
  0
VERTEX
  5
2BC
  8
TEAM-NET
 10
224.5
 20
-10.0
 30
0.0
 70
    64
  0
VERTEX
  5
2BD
  8
TEAM-NET
 10
228.444444
 20
-10.0
 30
0.0
 70
    64
  0
VERTEX
  5
2BE
  8
TEAM-NET
 10
232.388889
 20
-10.0
 30
0.0
 70
    64
  0
VERTEX
  5
2BF
  8
TEAM-NET
 10
236.333333
 20
-10.0
 30
0.0
 70
    64
  0
VERTEX
  5
2C0
  8
TEAM-NET
 10
240.277778
 20
-10.0
 30
0.0
 70
    64
  0
VERTEX
  5
2C1
  8
TEAM-NET
 10
244.222222
 20
-10.0
 30
0.0
 70
    64
  0
VERTEX
  5
2C2
  8
TEAM-NET
 10
248.166667
 20
-10.0
 30
0.0
 70
    64
  0
VERTEX
  5
2C3
  8
TEAM-NET
 10
252.111111
 20
-10.0
 30
0.0
 70
    64
  0
VERTEX
  5
2C4
  8
TEAM-NET
 10
256.055556
 20
-10.0
 30
0.0
 70
    64
  0
VERTEX
  5
2C5
  8
TEAM-NET
 10
260.0
 20
-10.0
 30
0.0
 70
    64
  0
VERTEX
  5
2C6
  8
TEAM-NET
 10
118.0
 20
2.0
 30
0.0
 70
    64
  0
VERTEX
  5
2C7
  8
TEAM-NET
 10
121.944444
 20
2.0
 30
0.0
 70
    64
  0
VERTEX
  5
2C8
  8
TEAM-NET
 10
125.888889
 20
2.0
 30
0.0
 70
    64
  0
VERTEX
  5
2C9
  8
TEAM-NET
 10
129.833333
 20
2.0
 30
0.0
 70
    64
  0
VERTEX
  5
2CA
  8
TEAM-NET
 10
133.777778
 20
2.0
 30
0.0
 70
    64
  0
VERTEX
  5
2CB
  8
TEAM-NET
 10
137.722222
 20
2.0
 30
0.0
 70
    64
  0
VERTEX
  5
2CC
  8
TEAM-NET
 10
141.666667
 20
2.0
 30
0.0
 70
    64
  0
VERTEX
  5
2CD
  8
TEAM-NET
 10
145.611111
 20
2.0
 30
0.0
 70
    64
  0
VERTEX
  5
2CE
  8
TEAM-NET
 10
149.555556
 20
2.0
 30
0.0
 70
    64
  0
VERTEX
  5
2CF
  8
TEAM-NET
 10
153.5
 20
2.0
 30
0.0
 70
    64
  0
VERTEX
  5
2D0
  8
TEAM-NET
 10
157.444444
 20
2.0
 30
0.0
 70
    64
  0
VERTEX
  5
2D1
  8
TEAM-NET
 10
161.388889
 20
2.0
 30
0.0
 70
    64
  0
VERTEX
  5
2D2
  8
TEAM-NET
 10
165.333333
 20
2.0
 30
0.0
 70
    64
  0
VERTEX
  5
2D3
  8
TEAM-NET
 10
169.277778
 20
2.0
 30
0.0
 70
    64
  0
VERTEX
  5
2D4
  8
TEAM-NET
 10
173.222222
 20
2.0
 30
0.0
 70
    64
  0
VERTEX
  5
2D5
  8
TEAM-NET
 10
177.166667
 20
2.0
 30
0.0
 70
    64
  0
VERTEX
  5
2D6
  8
TEAM-NET
 10
181.111111
 20
2.0
 30
0.0
 70
    64
  0
VERTEX
  5
2D7
  8
TEAM-NET
 10
185.055556
 20
2.0
 30
0.0
 70
    64
  0
VERTEX
  5
2D8
  8
TEAM-NET
 10
189.0
 20
2.0
 30
0.0
 70
    64
  0
VERTEX
  5
2D9
  8
TEAM-NET
 10
192.944444
 20
2.0
 30
0.0
 70
    64
  0
VERTEX
  5
2DA
  8
TEAM-NET
 10
196.888889
 20
2.0
 30
0.0
 70
    64
  0
VERTEX
  5
2DB
  8
TEAM-NET
 10
200.833333
 20
2.0
 30
0.0
 70
    64
  0
VERTEX
  5
2DC
  8
TEAM-NET
 10
204.777778
 20
2.0
 30
0.0
 70
    64
  0
VERTEX
  5
2DD
  8
TEAM-NET
 10
208.722222
 20
2.0
 30
0.0
 70
    64
  0
VERTEX
  5
2DE
  8
TEAM-NET
 10
212.666667
 20
2.0
 30
0.0
 70
    64
  0
VERTEX
  5
2DF
  8
TEAM-NET
 10
216.611111
 20
2.0
 30
0.0
 70
    64
  0
VERTEX
  5
2E0
  8
TEAM-NET
 10
220.555556
 20
2.0
 30
0.0
 70
    64
  0
VERTEX
  5
2E1
  8
TEAM-NET
 10
224.5
 20
2.0
 30
0.0
 70
    64
  0
VERTEX
  5
2E2
  8
TEAM-NET
 10
228.444444
 20
2.0
 30
0.0
 70
    64
  0
VERTEX
  5
2E3
  8
TEAM-NET
 10
232.388889
 20
2.0
 30
0.0
 70
    64
  0
VERTEX
  5
2E4
  8
TEAM-NET
 10
236.333333
 20
2.0
 30
0.0
 70
    64
  0
VERTEX
  5
2E5
  8
TEAM-NET
 10
240.277778
 20
2.0
 30
0.0
 70
    64
  0
VERTEX
  5
2E6
  8
TEAM-NET
 10
244.222222
 20
2.0
 30
0.0
 70
    64
  0
VERTEX
  5
2E7
  8
TEAM-NET
 10
248.166667
 20
2.0
 30
0.0
 70
    64
  0
VERTEX
  5
2E8
  8
TEAM-NET
 10
252.111111
 20
2.0
 30
0.0
 70
    64
  0
VERTEX
  5
2E9
  8
TEAM-NET
 10
256.055556
 20
2.0
 30
0.0
 70
    64
  0
VERTEX
  5
2EA
  8
TEAM-NET
 10
260.0
 20
2.0
 30
0.0
 70
    64
  0
SEQEND
  5
2EB
  8
TEAM-NET
  0
POLYLINE
  5
2EC
  8
TEAM-NET
 66
     1
 10
0.0
 20
0.0
 30
0.0
 70
    16
 71
     2
 72
    37
  0
VERTEX
  5
2ED
  8
TEAM-NET
 10
-260.0
 20
-10.0
 30
0.0
 70
    64
  0
VERTEX
  5
2EE
  8
TEAM-NET
 10
-256.055556
 20
-10.0
 30
0.0
 70
    64
  0
VERTEX
  5
2EF
  8
TEAM-NET
 10
-252.111111
 20
-10.0
 30
0.0
 70
    64
  0
VERTEX
  5
2F0
  8
TEAM-NET
 10
-248.166667
 20
-10.0
 30
0.0
 70
    64
  0
VERTEX
  5
2F1
  8
TEAM-NET
 10
-244.222222
 20
-10.0
 30
0.0
 70
    64
  0
VERTEX
  5
2F2
  8
TEAM-NET
 10
-240.277778
 20
-10.0
 30
0.0
 70
    64
  0
VERTEX
  5
2F3
  8
TEAM-NET
 10
-236.333333
 20
-10.0
 30
0.0
 70
    64
  0
VERTEX
  5
2F4
  8
TEAM-NET
 10
-232.388889
 20
-10.0
 30
0.0
 70
    64
  0
VERTEX
  5
2F5
  8
TEAM-NET
 10
-228.444444
 20
-10.0
 30
0.0
 70
    64
  0
VERTEX
  5
2F6
  8
TEAM-NET
 10
-224.5
 20
-10.0
 30
0.0
 70
    64
  0
VERTEX
  5
2F7
  8
TEAM-NET
 10
-220.555556
 20
-10.0
 30
0.0
 70
    64
  0
VERTEX
  5
2F8
  8
TEAM-NET
 10
-216.611111
 20
-10.0
 30
0.0
 70
    64
  0
VERTEX
  5
2F9
  8
TEAM-NET
 10
-212.666667
 20
-10.0
 30
0.0
 70
    64
  0
VERTEX
  5
2FA
  8
TEAM-NET
 10
-208.722222
 20
-10.0
 30
0.0
 70
    64
  0
VERTEX
  5
2FB
  8
TEAM-NET
 10
-204.777778
 20
-10.0
 30
0.0
 70
    64
  0
VERTEX
  5
2FC
  8
TEAM-NET
 10
-200.833333
 20
-10.0
 30
0.0
 70
    64
  0
VERTEX
  5
2FD
  8
TEAM-NET
 10
-196.888889
 20
-10.0
 30
0.0
 70
    64
  0
VERTEX
  5
2FE
  8
TEAM-NET
 10
-192.944444
 20
-10.0
 30
0.0
 70
    64
  0
VERTEX
  5
2FF
  8
TEAM-NET
 10
-189.0
 20
-10.0
 30
0.0
 70
    64
  0
VERTEX
  5
300
  8
TEAM-NET
 10
-185.055556
 20
-10.0
 30
0.0
 70
    64
  0
VERTEX
  5
301
  8
TEAM-NET
 10
-181.111111
 20
-10.0
 30
0.0
 70
    64
  0
VERTEX
  5
302
  8
TEAM-NET
 10
-177.166667
 20
-10.0
 30
0.0
 70
    64
  0
VERTEX
  5
303
  8
TEAM-NET
 10
-173.222222
 20
-10.0
 30
0.0
 70
    64
  0
VERTEX
  5
304
  8
TEAM-NET
 10
-169.277778
 20
-10.0
 30
0.0
 70
    64
  0
VERTEX
  5
305
  8
TEAM-NET
 10
-165.333333
 20
-10.0
 30
0.0
 70
    64
  0
VERTEX
  5
306
  8
TEAM-NET
 10
-161.388889
 20
-10.0
 30
0.0
 70
    64
  0
VERTEX
  5
307
  8
TEAM-NET
 10
-157.444444
 20
-10.0
 30
0.0
 70
    64
  0
VERTEX
  5
308
  8
TEAM-NET
 10
-153.5
 20
-10.0
 30
0.0
 70
    64
  0
VERTEX
  5
309
  8
TEAM-NET
 10
-149.555556
 20
-10.0
 30
0.0
 70
    64
  0
VERTEX
  5
30A
  8
TEAM-NET
 10
-145.611111
 20
-10.0
 30
0.0
 70
    64
  0
VERTEX
  5
30B
  8
TEAM-NET
 10
-141.666667
 20
-10.0
 30
0.0
 70
    64
  0
VERTEX
  5
30C
  8
TEAM-NET
 10
-137.722222
 20
-10.0
 30
0.0
 70
    64
  0
VERTEX
  5
30D
  8
TEAM-NET
 10
-133.777778
 20
-10.0
 30
0.0
 70
    64
  0
VERTEX
  5
30E
  8
TEAM-NET
 10
-129.833333
 20
-10.0
 30
0.0
 70
    64
  0
VERTEX
  5
30F
  8
TEAM-NET
 10
-125.888889
 20
-10.0
 30
0.0
 70
    64
  0
VERTEX
  5
310
  8
TEAM-NET
 10
-121.944444
 20
-10.0
 30
0.0
 70
    64
  0
VERTEX
  5
311
  8
TEAM-NET
 10
-118.0
 20
-10.0
 30
0.0
 70
    64
  0
VERTEX
  5
312
  8
TEAM-NET
 10
-260.0
 20
2.0
 30
0.0
 70
    64
  0
VERTEX
  5
313
  8
TEAM-NET
 10
-256.055556
 20
2.0
 30
0.0
 70
    64
  0
VERTEX
  5
314
  8
TEAM-NET
 10
-252.111111
 20
2.0
 30
0.0
 70
    64
  0
VERTEX
  5
315
  8
TEAM-NET
 10
-248.166667
 20
2.0
 30
0.0
 70
    64
  0
VERTEX
  5
316
  8
TEAM-NET
 10
-244.222222
 20
2.0
 30
0.0
 70
    64
  0
VERTEX
  5
317
  8
TEAM-NET
 10
-240.277778
 20
2.0
 30
0.0
 70
    64
  0
VERTEX
  5
318
  8
TEAM-NET
 10
-236.333333
 20
2.0
 30
0.0
 70
    64
  0
VERTEX
  5
319
  8
TEAM-NET
 10
-232.388889
 20
2.0
 30
0.0
 70
    64
  0
VERTEX
  5
31A
  8
TEAM-NET
 10
-228.444444
 20
2.0
 30
0.0
 70
    64
  0
VERTEX
  5
31B
  8
TEAM-NET
 10
-224.5
 20
2.0
 30
0.0
 70
    64
  0
VERTEX
  5
31C
  8
TEAM-NET
 10
-220.555556
 20
2.0
 30
0.0
 70
    64
  0
VERTEX
  5
31D
  8
TEAM-NET
 10
-216.611111
 20
2.0
 30
0.0
 70
    64
  0
VERTEX
  5
31E
  8
TEAM-NET
 10
-212.666667
 20
2.0
 30
0.0
 70
    64
  0
VERTEX
  5
31F
  8
TEAM-NET
 10
-208.722222
 20
2.0
 30
0.0
 70
    64
  0
VERTEX
  5
320
  8
TEAM-NET
 10
-204.777778
 20
2.0
 30
0.0
 70
    64
  0
VERTEX
  5
321
  8
TEAM-NET
 10
-200.833333
 20
2.0
 30
0.0
 70
    64
  0
VERTEX
  5
322
  8
TEAM-NET
 10
-196.888889
 20
2.0
 30
0.0
 70
    64
  0
VERTEX
  5
323
  8
TEAM-NET
 10
-192.944444
 20
2.0
 30
0.0
 70
    64
  0
VERTEX
  5
324
  8
TEAM-NET
 10
-189.0
 20
2.0
 30
0.0
 70
    64
  0
VERTEX
  5
325
  8
TEAM-NET
 10
-185.055556
 20
2.0
 30
0.0
 70
    64
  0
VERTEX
  5
326
  8
TEAM-NET
 10
-181.111111
 20
2.0
 30
0.0
 70
    64
  0
VERTEX
  5
327
  8
TEAM-NET
 10
-177.166667
 20
2.0
 30
0.0
 70
    64
  0
VERTEX
  5
328
  8
TEAM-NET
 10
-173.222222
 20
2.0
 30
0.0
 70
    64
  0
VERTEX
  5
329
  8
TEAM-NET
 10
-169.277778
 20
2.0
 30
0.0
 70
    64
  0
VERTEX
  5
32A
  8
TEAM-NET
 10
-165.333333
 20
2.0
 30
0.0
 70
    64
  0
VERTEX
  5
32B
  8
TEAM-NET
 10
-161.388889
 20
2.0
 30
0.0
 70
    64
  0
VERTEX
  5
32C
  8
TEAM-NET
 10
-157.444444
 20
2.0
 30
0.0
 70
    64
  0
VERTEX
  5
32D
  8
TEAM-NET
 10
-153.5
 20
2.0
 30
0.0
 70
    64
  0
VERTEX
  5
32E
  8
TEAM-NET
 10
-149.555556
 20
2.0
 30
0.0
 70
    64
  0
VERTEX
  5
32F
  8
TEAM-NET
 10
-145.611111
 20
2.0
 30
0.0
 70
    64
  0
VERTEX
  5
330
  8
TEAM-NET
 10
-141.666667
 20
2.0
 30
0.0
 70
    64
  0
VERTEX
  5
331
  8
TEAM-NET
 10
-137.722222
 20
2.0
 30
0.0
 70
    64
  0
VERTEX
  5
332
  8
TEAM-NET
 10
-133.777778
 20
2.0
 30
0.0
 70
    64
  0
VERTEX
  5
333
  8
TEAM-NET
 10
-129.833333
 20
2.0
 30
0.0
 70
    64
  0
VERTEX
  5
334
  8
TEAM-NET
 10
-125.888889
 20
2.0
 30
0.0
 70
    64
  0
VERTEX
  5
335
  8
TEAM-NET
 10
-121.944444
 20
2.0
 30
0.0
 70
    64
  0
VERTEX
  5
336
  8
TEAM-NET
 10
-118.0
 20
2.0
 30
0.0
 70
    64
  0
SEQEND
  5
337
  8
TEAM-NET
  0
TEXT
  5
338
  8
TEAM-TXT
 10
15.214366
 20
-313.212996
 30
0.0
 40
30.0
  1
team 412502
 41
0.8
 51
15.0
  7
TEAM
  0
ENDSEC
  0
EOF
