  0
SECTION
  2
HEADER
  9
$ACADVER
  1
AC1009
  9
$INSBASE
 10
0.0
 20
0.0
 30
0.0
  9
$EXTMIN
 10
-361.192092
 20
-495.805476
 30
-0.072629
  9
$EXTMAX
 10
361.206331
 20
15.010825
 30
1100.067756
  9
$LIMMIN
 10
-361.192092
 20
-495.805476
  9
$LIMMAX
 10
361.206331
 20
15.010825
  9
$ORTHOMODE
 70
     1
  9
$REGENMODE
 70
     1
  9
$FILLMODE
 70
     1
  9
$QTEXTMODE
 70
     0
  9
$MIRRTEXT
 70
     0
  9
$DRAGMODE
 70
     2
  9
$LTSCALE
 40
50.0
  9
$OSMODE
 70
     0
  9
$ATTMODE
 70
     1
  9
$TEXTSIZE
 40
200.0
  9
$TRACEWID
 40
1.0
  9
$TEXTSTYLE
  7
STANDARD
  9
$CLAYER
  8
TEAM-MAS
  9
$CELTYPE
  6
BYLAYER
  9
$CECOLOR
 62
   256
  9
$DIMSCALE
 40
1.0
  9
$DIMASZ
 40
20.0
  9
$DIMEXO
 40
10.0
  9
$DIMDLI
 40
1.0
  9
$DIMRND
 40
0.0
  9
$DIMDLE
 40
0.0
  9
$DIMEXE
 40
1.0
  9
$DIMTP
 40
0.0
  9
$DIMTM
 40
0.0
  9
$DIMTXT
 40
35.0
  9
$DIMCEN
 40
1.0
  9
$DIMTSZ
 40
0.0
  9
$DIMTOL
 70
     0
  9
$DIMLIM
 70
     0
  9
$DIMTIH
 70
     0
  9
$DIMTOH
 70
     0
  9
$DIMSE1
 70
     0
  9
$DIMSE2
 70
     0
  9
$DIMTAD
 70
     0
  9
$DIMZIN
 70
     0
  9
$DIMBLK
  1

  9
$DIMASO
 70
     1
  9
$DIMSHO
 70
     0
  9
$DIMPOST
  1

  9
$DIMAPOST
  1

  9
$DIMALT
 70
     0
  9
$DIMALTD
 70
     2
  9
$DIMALTF
 40
25.4
  9
$DIMLFAC
 40
1.0
  9
$DIMTOFL
 70
     0
  9
$DIMTVP
 40
0.0
  9
$DIMTIX
 70
     0
  9
$DIMSOXD
 70
     0
  9
$DIMSAH
 70
     0
  9
$DIMBLK1
  1

  9
$DIMBLK2
  1

  9
$DIMSTYLE
  2
TEAM
  9
$DIMCLRD
 70
     9
  9
$DIMCLRE
 70
     9
  9
$DIMCLRT
 70
    11
  9
$DIMTFAC
 40
1.0
  9
$DIMGAP
 40
7.0
  9
$LUNITS
 70
     2
  9
$LUPREC
 70
     1
  9
$SKETCHINC
 40
1.0
  9
$FILLETRAD
 40
80.0
  9
$AUNITS
 70
     0
  9
$AUPREC
 70
     0
  9
$MENU
  1
ROPLANS
  9
$ELEVATION
 40
0.0
  9
$PELEVATION
 40
0.0
  9
$THICKNESS
 40
0.0
  9
$LIMCHECK
 70
     0
  9
$BLIPMODE
 70
     1
  9
$CHAMFERA
 40
0.0
  9
$CHAMFERB
 40
0.0
  9
$SKPOLY
 70
     0
  9
$TDCREATE
 40
2450392.957851
  9
$TDUPDATE
 40
2456168.939903
  9
$TDINDWG
 40
3.141088
  9
$TDUSRTIMER
 40
3.141088
  9
$USRTIMER
 70
     1
  9
$ANGBASE
 50
0.0
  9
$ANGDIR
 70
     0
  9
$PDMODE
 70
     0
  9
$PDSIZE
 40
0.0
  9
$PLINEWID
 40
0.0
  9
$COORDS
 70
     2
  9
$SPLFRAME
 70
     0
  9
$SPLINETYPE
 70
     6
  9
$SPLINESEGS
 70
     8
  9
$ATTDIA
 70
     0
  9
$ATTREQ
 70
     0
  9
$HANDLING
 70
     1
  9
$HANDSEED
  5
27D
  9
$SURFTAB1
 70
    64
  9
$SURFTAB2
 70
    64
  9
$SURFTYPE
 70
     6
  9
$SURFU
 70
     6
  9
$SURFV
 70
     6
  9
$UCSNAME
  2

  9
$UCSORG
 10
0.0
 20
0.0
 30
0.0
  9
$UCSXDIR
 10
1.0
 20
0.0
 30
0.0
  9
$UCSYDIR
 10
0.0
 20
1.0
 30
0.0
  9
$PUCSNAME
  2

  9
$PUCSORG
 10
0.0
 20
0.0
 30
0.0
  9
$PUCSXDIR
 10
1.0
 20
0.0
 30
0.0
  9
$PUCSYDIR
 10
0.0
 20
1.0
 30
0.0
  9
$USERI1
 70
     0
  9
$USERI2
 70
     0
  9
$USERI3
 70
     0
  9
$USERI4
 70
     0
  9
$USERI5
 70
     0
  9
$USERR1
 40
0.0
  9
$USERR2
 40
0.0
  9
$USERR3
 40
0.0
  9
$USERR4
 40
0.0
  9
$USERR5
 40
0.0
  9
$WORLDVIEW
 70
     1
  9
$SHADEDGE
 70
     0
  9
$SHADEDIF
 70
    70
  9
$TILEMODE
 70
     1
  9
$MAXACTVP
 70
    16
  9
$PLIMCHECK
 70
     0
  9
$PEXTMIN
 10
-0.805942
 20
0.005011
 30
0.0
  9
$PEXTMAX
 10
20.250094
 20
11.356329
 30
0.0
  9
$PLIMMIN
 10
0.0
 20
0.0
  9
$PLIMMAX
 10
12.0
 20
9.0
  9
$UNITMODE
 70
     0
  9
$VISRETAIN
 70
     0
  9
$PLINEGEN
 70
     0
  9
$PSLTSCALE
 70
     0
  0
ENDSEC
  0
SECTION
  2
TABLES
  0
TABLE
  2
VPORT
 70
     2
  0
VPORT
  2
*ACTIVE
 70
     0
 10
0.0
 20
0.0
 11
1.0
 21
1.0
 12
0.00712
 22
-240.397326
 13
0.0
 23
0.0
 14
1.0
 24
1.0
 15
50.0
 25
50.0
 16
0.0
 26
0.0
 36
1.0
 17
0.0
 27
0.0
 37
0.0
 40
514.032353
 41
1.911765
 42
50.0
 43
0.0
 44
0.0
 50
0.0
 51
0.0
 71
     0
 72
   100
 73
     1
 74
     1
 75
     0
 76
     0
 77
     0
 78
     0
  0
ENDTAB
  0
TABLE
  2
LTYPE
 70
     1
  0
LTYPE
  2
CONTINUOUS
 70
     0
  3
Solid Line
 72
    65
 73
     0
 40
0.0
  0
ENDTAB
  0
TABLE
  2
LAYER
 70
    10
  0
LAYER
  2
0
 70
     0
 62
     7
  6
CONTINUOUS
  0
LAYER
  2
TEAM-BODY
 70
     0
 62
     2
  6
CONTINUOUS
  0
LAYER
  2
TEAM-MAS
 70
     0
 62
     9
  6
CONTINUOUS
  0
LAYER
  2
TEAM-TXT
 70
     0
 62
    11
  6
CONTINUOUS
  0
LAYER
  2
TEAM-DET1
 70
     0
 62
     4
  6
CONTINUOUS
  0
LAYER
  2
TEAM-COLD
 70
     0
 62
     3
  6
CONTINUOUS
  0
LAYER
  2
TEAM-DET3
 70
     0
 62
    14
  6
CONTINUOUS
  0
LAYER
  2
TEAM-WARM
 70
     0
 62
     1
  6
CONTINUOUS
  0
LAYER
  2
TEAM-NET
 70
     0
 62
    15
  6
CONTINUOUS
  0
LAYER
  2
TEAM-INSP
 70
     0
 62
     5
  6
CONTINUOUS
  0
ENDTAB
  0
TABLE
  2
STYLE
 70
     2
  0
STYLE
  2
STANDARD
 70
     0
 40
0.0
 41
1.0
 50
0.0
 71
     0
 42
200.0
  3
txt
  4

  0
STYLE
  2
TEAM
 70
     0
 40
0.0
 41
0.8
 50
15.0
 71
     0
 42
7.0
  3
ROMANS.shx
  4

  0
ENDTAB
  0
TABLE
  2
VIEW
 70
     0
  0
ENDTAB
  0
TABLE
  2
UCS
 70
     0
  0
ENDTAB
  0
TABLE
  2
APPID
 70
     1
  0
APPID
  2
ACAD
 70
     0
  0
ENDTAB
  0
TABLE
  2
DIMSTYLE
 70
     1
  0
DIMSTYLE
  2
TEAM
 70
     0
  3

  4

  5

  6

  7

 40
1.0
 41
20.0
 42
10.0
 43
1.0
 44
1.0
 45
0.0
 46
0.0
 47
0.0
 48
0.0
140
35.0
141
1.0
142
0.0
143
25.4
144
1.0
145
0.0
146
1.0
147
7.0
 71
     0
 72
     0
 73
     0
 74
     0
 75
     0
 76
     0
 77
     0
 78
     0
170
     0
171
     2
172
     0
173
     0
174
     0
175
     0
176
     9
177
     9
178
    11
  0
ENDTAB
  0
ENDSEC
  0
SECTION
  2
BLOCKS
  0
BLOCK
  8
0
  2
$MODEL_SPACE
 70
     0
 10
0.0
 20
0.0
 30
0.0
  3
$MODEL_SPACE
  1

  0
ENDBLK
  5
246
  8
0
  0
BLOCK
 67
     1
  8
0
  2
$PAPER_SPACE
 70
     0
 10
0.0
 20
0.0
 30
0.0
  3
$PAPER_SPACE
  1

  0
ENDBLK
  5
244
 67
     1
  8
0
  0
ENDSEC
  0
SECTION
  2
ENTITIES
  0
CIRCLE
  5
20
  8
TEAM-INSP
 10
0.0
 20
0.0
 30
0.0
 40
10.0
  0
POLYLINE
  5
22
  8
TEAM-NET
 66
     1
 10
0.0
 20
0.0
 30
0.0
 70
    16
 71
     2
 72
    37
  0
VERTEX
  5
23
  8
TEAM-NET
 10
321.181702
 20
-417.016152
 30
861.538462
 70
    64
  0
VERTEX
  5
24
  8
TEAM-NET
 10
317.966966
 20
-382.357282
 30
861.538462
 70
    64
  0
VERTEX
  5
25
  8
TEAM-NET
 10
314.75223
 20
-347.698412
 30
861.538462
 70
    64
  0
VERTEX
  5
26
  8
TEAM-NET
 10
311.537495
 20
-313.039543
 30
861.538462
 70
    64
  0
VERTEX
  5
27
  8
TEAM-NET
 10
308.322759
 20
-278.380673
 30
861.538462
 70
    64
  0
VERTEX
  5
28
  8
TEAM-NET
 10
305.108023
 20
-243.721803
 30
861.538462
 70
    64
  0
VERTEX
  5
29
  8
TEAM-NET
 10
301.893287
 20
-209.062933
 30
861.538462
 70
    64
  0
VERTEX
  5
2A
  8
TEAM-NET
 10
298.678551
 20
-174.404063
 30
861.538462
 70
    64
  0
VERTEX
  5
2B
  8
TEAM-NET
 10
295.141777
 20
-139.788177
 30
861.538462
 70
    64
  0
VERTEX
  5
2C
  8
TEAM-NET
 10
277.891811
 20
-110.251692
 30
861.538462
 70
    64
  0
VERTEX
  5
2D
  8
TEAM-NET
 10
246.331221
 20
-97.064789
 30
861.538462
 70
    64
  0
VERTEX
  5
2E
  8
TEAM-NET
 10
211.527009
 20
-96.923077
 30
861.538462
 70
    64
  0
VERTEX
  5
2F
  8
TEAM-NET
 10
176.719369
 20
-96.923077
 30
861.538462
 70
    64
  0
VERTEX
  5
30
  8
TEAM-NET
 10
141.91173
 20
-96.923077
 30
861.538462
 70
    64
  0
VERTEX
  5
31
  8
TEAM-NET
 10
107.10409
 20
-96.923077
 30
861.538462
 70
    64
  0
VERTEX
  5
32
  8
TEAM-NET
 10
74.049362
 20
-89.461379
 30
861.538462
 70
    64
  0
VERTEX
  5
33
  8
TEAM-NET
 10
53.236616
 20
-61.666309
 30
861.538462
 70
    64
  0
VERTEX
  5
34
  8
TEAM-NET
 10
31.82552
 20
-34.434286
 30
861.538462
 70
    64
  0
VERTEX
  5
35
  8
TEAM-NET
 10
0.0
 20
-21.538462
 30
861.538462
 70
    64
  0
VERTEX
  5
36
  8
TEAM-NET
 10
-31.82552
 20
-34.434286
 30
861.538462
 70
    64
  0
VERTEX
  5
37
  8
TEAM-NET
 10
-53.236616
 20
-61.666309
 30
861.538462
 70
    64
  0
VERTEX
  5
38
  8
TEAM-NET
 10
-74.049362
 20
-89.461379
 30
861.538462
 70
    64
  0
VERTEX
  5
39
  8
TEAM-NET
 10
-107.10409
 20
-96.923077
 30
861.538462
 70
    64
  0
VERTEX
  5
3A
  8
TEAM-NET
 10
-141.91173
 20
-96.923077
 30
861.538462
 70
    64
  0
VERTEX
  5
3B
  8
TEAM-NET
 10
-176.719369
 20
-96.923077
 30
861.538462
 70
    64
  0
VERTEX
  5
3C
  8
TEAM-NET
 10
-211.527009
 20
-96.923077
 30
861.538462
 70
    64
  0
VERTEX
  5
3D
  8
TEAM-NET
 10
-246.331221
 20
-97.064789
 30
861.538462
 70
    64
  0
VERTEX
  5
3E
  8
TEAM-NET
 10
-277.891811
 20
-110.251692
 30
861.538462
 70
    64
  0
VERTEX
  5
3F
  8
TEAM-NET
 10
-295.141777
 20
-139.788177
 30
861.538462
 70
    64
  0
VERTEX
  5
40
  8
TEAM-NET
 10
-298.678551
 20
-174.404063
 30
861.538462
 70
    64
  0
VERTEX
  5
41
  8
TEAM-NET
 10
-301.893287
 20
-209.062933
 30
861.538462
 70
    64
  0
VERTEX
  5
42
  8
TEAM-NET
 10
-305.108023
 20
-243.721803
 30
861.538462
 70
    64
  0
VERTEX
  5
43
  8
TEAM-NET
 10
-308.322759
 20
-278.380673
 30
861.538462
 70
    64
  0
VERTEX
  5
44
  8
TEAM-NET
 10
-311.537495
 20
-313.039543
 30
861.538462
 70
    64
  0
VERTEX
  5
45
  8
TEAM-NET
 10
-314.75223
 20
-347.698412
 30
861.538462
 70
    64
  0
VERTEX
  5
46
  8
TEAM-NET
 10
-317.966966
 20
-382.357282
 30
861.538462
 70
    64
  0
VERTEX
  5
47
  8
TEAM-NET
 10
-321.181702
 20
-417.016152
 30
861.538462
 70
    64
  0
VERTEX
  5
48
  8
TEAM-NET
 10
289.674697
 20
-383.548566
 30
603.076923
 70
    64
  0
VERTEX
  5
49
  8
TEAM-NET
 10
286.781435
 20
-352.355583
 30
603.076923
 70
    64
  0
VERTEX
  5
4A
  8
TEAM-NET
 10
283.888173
 20
-321.1626
 30
603.076923
 70
    64
  0
VERTEX
  5
4B
  8
TEAM-NET
 10
280.994911
 20
-289.969617
 30
603.076923
 70
    64
  0
VERTEX
  5
4C
  8
TEAM-NET
 10
278.101649
 20
-258.776634
 30
603.076923
 70
    64
  0
VERTEX
  5
4D
  8
TEAM-NET
 10
275.208387
 20
-227.583651
 30
603.076923
 70
    64
  0
VERTEX
  5
4E
  8
TEAM-NET
 10
272.315124
 20
-196.390668
 30
603.076923
 70
    64
  0
VERTEX
  5
4F
  8
TEAM-NET
 10
269.421862
 20
-165.197685
 30
603.076923
 70
    64
  0
VERTEX
  5
50
  8
TEAM-NET
 10
266.238765
 20
-134.043388
 30
603.076923
 70
    64
  0
VERTEX
  5
51
  8
TEAM-NET
 10
250.713796
 20
-107.460552
 30
603.076923
 70
    64
  0
VERTEX
  5
52
  8
TEAM-NET
 10
222.309264
 20
-95.592339
 30
603.076923
 70
    64
  0
VERTEX
  5
53
  8
TEAM-NET
 10
190.985474
 20
-95.464798
 30
603.076923
 70
    64
  0
VERTEX
  5
54
  8
TEAM-NET
 10
159.658598
 20
-95.464798
 30
603.076923
 70
    64
  0
VERTEX
  5
55
  8
TEAM-NET
 10
128.331722
 20
-95.464798
 30
603.076923
 70
    64
  0
VERTEX
  5
56
  8
TEAM-NET
 10
97.004847
 20
-95.464798
 30
603.076923
 70
    64
  0
VERTEX
  5
57
  8
TEAM-NET
 10
67.255591
 20
-88.74927
 30
603.076923
 70
    64
  0
VERTEX
  5
58
  8
TEAM-NET
 10
48.524121
 20
-63.733707
 30
603.076923
 70
    64
  0
VERTEX
  5
59
  8
TEAM-NET
 10
29.254134
 20
-39.224886
 30
603.076923
 70
    64
  0
VERTEX
  5
5A
  8
TEAM-NET
 10
0.611166
 20
-27.618644
 30
603.076923
 70
    64
  0
VERTEX
  5
5B
  8
TEAM-NET
 10
-28.031802
 20
-39.224886
 30
603.076923
 70
    64
  0
VERTEX
  5
5C
  8
TEAM-NET
 10
-47.301789
 20
-63.733707
 30
603.076923
 70
    64
  0
VERTEX
  5
5D
  8
TEAM-NET
 10
-66.03326
 20
-88.74927
 30
603.076923
 70
    64
  0
VERTEX
  5
5E
  8
TEAM-NET
 10
-95.782515
 20
-95.464798
 30
603.076923
 70
    64
  0
VERTEX
  5
5F
  8
TEAM-NET
 10
-127.109391
 20
-95.464798
 30
603.076923
 70
    64
  0
VERTEX
  5
60
  8
TEAM-NET
 10
-158.436267
 20
-95.464798
 30
603.076923
 70
    64
  0
VERTEX
  5
61
  8
TEAM-NET
 10
-189.763142
 20
-95.464798
 30
603.076923
 70
    64
  0
VERTEX
  5
62
  8
TEAM-NET
 10
-221.086933
 20
-95.592339
 30
603.076923
 70
    64
  0
VERTEX
  5
63
  8
TEAM-NET
 10
-249.491464
 20
-107.460552
 30
603.076923
 70
    64
  0
VERTEX
  5
64
  8
TEAM-NET
 10
-265.016433
 20
-134.043388
 30
603.076923
 70
    64
  0
VERTEX
  5
65
  8
TEAM-NET
 10
-268.19953
 20
-165.197685
 30
603.076923
 70
    64
  0
VERTEX
  5
66
  8
TEAM-NET
 10
-271.092793
 20
-196.390668
 30
603.076923
 70
    64
  0
VERTEX
  5
67
  8
TEAM-NET
 10
-273.986055
 20
-227.583651
 30
603.076923
 70
    64
  0
VERTEX
  5
68
  8
TEAM-NET
 10
-276.879317
 20
-258.776634
 30
603.076923
 70
    64
  0
VERTEX
  5
69
  8
TEAM-NET
 10
-279.772579
 20
-289.969617
 30
603.076923
 70
    64
  0
VERTEX
  5
6A
  8
TEAM-NET
 10
-282.665841
 20
-321.1626
 30
603.076923
 70
    64
  0
VERTEX
  5
6B
  8
TEAM-NET
 10
-285.559104
 20
-352.355583
 30
603.076923
 70
    64
  0
VERTEX
  5
6C
  8
TEAM-NET
 10
-288.452366
 20
-383.548566
 30
603.076923
 70
    64
  0
SEQEND
  5
6E
  8
TEAM-NET
  0
POLYLINE
  5
6F
  8
TEAM-NET
 66
     1
 10
0.0
 20
0.0
 30
0.0
 70
    16
 71
     2
 72
    37
  0
VERTEX
  5
70
  8
TEAM-NET
 10
321.181702
 20
-417.016152
 30
861.538462
 70
    64
  0
VERTEX
  5
71
  8
TEAM-NET
 10
317.412731
 20
-435.401001
 30
861.538462
 70
    64
  0
VERTEX
  5
72
  8
TEAM-NET
 10
304.060458
 20
-448.589049
 30
861.538462
 70
    64
  0
VERTEX
  5
73
  8
TEAM-NET
 10
285.624171
 20
-452.307692
 30
861.538462
 70
    64
  0
VERTEX
  5
74
  8
TEAM-NET
 10
266.582559
 20
-452.307692
 30
861.538462
 70
    64
  0
VERTEX
  5
75
  8
TEAM-NET
 10
247.540948
 20
-452.307692
 30
861.538462
 70
    64
  0
VERTEX
  5
76
  8
TEAM-NET
 10
228.499337
 20
-452.307692
 30
861.538462
 70
    64
  0
VERTEX
  5
77
  8
TEAM-NET
 10
209.457725
 20
-452.307692
 30
861.538462
 70
    64
  0
VERTEX
  5
78
  8
TEAM-NET
 10
190.416114
 20
-452.307692
 30
861.538462
 70
    64
  0
VERTEX
  5
79
  8
TEAM-NET
 10
171.374502
 20
-452.307692
 30
861.538462
 70
    64
  0
VERTEX
  5
7A
  8
TEAM-NET
 10
152.332891
 20
-452.307692
 30
861.538462
 70
    64
  0
VERTEX
  5
7B
  8
TEAM-NET
 10
133.29128
 20
-452.307692
 30
861.538462
 70
    64
  0
VERTEX
  5
7C
  8
TEAM-NET
 10
114.249668
 20
-452.307692
 30
861.538462
 70
    64
  0
VERTEX
  5
7D
  8
TEAM-NET
 10
95.208057
 20
-452.307692
 30
861.538462
 70
    64
  0
VERTEX
  5
7E
  8
TEAM-NET
 10
76.166446
 20
-452.307692
 30
861.538462
 70
    64
  0
VERTEX
  5
7F
  8
TEAM-NET
 10
57.124834
 20
-452.307692
 30
861.538462
 70
    64
  0
VERTEX
  5
80
  8
TEAM-NET
 10
38.083223
 20
-452.307692
 30
861.538462
 70
    64
  0
VERTEX
  5
81
  8
TEAM-NET
 10
19.041611
 20
-452.307692
 30
861.538462
 70
    64
  0
VERTEX
  5
82
  8
TEAM-NET
 10
0.0
 20
-452.307692
 30
861.538462
 70
    64
  0
VERTEX
  5
83
  8
TEAM-NET
 10
-19.041611
 20
-452.307692
 30
861.538462
 70
    64
  0
VERTEX
  5
84
  8
TEAM-NET
 10
-38.083223
 20
-452.307692
 30
861.538462
 70
    64
  0
VERTEX
  5
85
  8
TEAM-NET
 10
-57.124834
 20
-452.307692
 30
861.538462
 70
    64
  0
VERTEX
  5
86
  8
TEAM-NET
 10
-76.166446
 20
-452.307692
 30
861.538462
 70
    64
  0
VERTEX
  5
87
  8
TEAM-NET
 10
-95.208057
 20
-452.307692
 30
861.538462
 70
    64
  0
VERTEX
  5
88
  8
TEAM-NET
 10
-114.249668
 20
-452.307692
 30
861.538462
 70
    64
  0
VERTEX
  5
89
  8
TEAM-NET
 10
-133.29128
 20
-452.307692
 30
861.538462
 70
    64
  0
VERTEX
  5
8A
  8
TEAM-NET
 10
-152.332891
 20
-452.307692
 30
861.538462
 70
    64
  0
VERTEX
  5
8B
  8
TEAM-NET
 10
-171.374502
 20
-452.307692
 30
861.538462
 70
    64
  0
VERTEX
  5
8C
  8
TEAM-NET
 10
-190.416114
 20
-452.307692
 30
861.538462
 70
    64
  0
VERTEX
  5
8D
  8
TEAM-NET
 10
-209.457725
 20
-452.307692
 30
861.538462
 70
    64
  0
VERTEX
  5
8E
  8
TEAM-NET
 10
-228.499337
 20
-452.307692
 30
861.538462
 70
    64
  0
VERTEX
  5
8F
  8
TEAM-NET
 10
-247.540948
 20
-452.307692
 30
861.538462
 70
    64
  0
VERTEX
  5
90
  8
TEAM-NET
 10
-266.582559
 20
-452.307692
 30
861.538462
 70
    64
  0
VERTEX
  5
91
  8
TEAM-NET
 10
-285.624171
 20
-452.307692
 30
861.538462
 70
    64
  0
VERTEX
  5
92
  8
TEAM-NET
 10
-304.060458
 20
-448.589049
 30
861.538462
 70
    64
  0
VERTEX
  5
93
  8
TEAM-NET
 10
-317.412731
 20
-435.401001
 30
861.538462
 70
    64
  0
VERTEX
  5
94
  8
TEAM-NET
 10
-321.181702
 20
-417.016152
 30
861.538462
 70
    64
  0
VERTEX
  5
95
  8
TEAM-NET
 10
289.674697
 20
-383.548566
 30
603.076923
 70
    64
  0
VERTEX
  5
96
  8
TEAM-NET
 10
286.282624
 20
-400.09493
 30
603.076923
 70
    64
  0
VERTEX
  5
97
  8
TEAM-NET
 10
274.265578
 20
-411.964173
 30
603.076923
 70
    64
  0
VERTEX
  5
98
  8
TEAM-NET
 10
257.672919
 20
-415.310952
 30
603.076923
 70
    64
  0
VERTEX
  5
99
  8
TEAM-NET
 10
240.535469
 20
-415.310952
 30
603.076923
 70
    64
  0
VERTEX
  5
9A
  8
TEAM-NET
 10
223.398019
 20
-415.310952
 30
603.076923
 70
    64
  0
VERTEX
  5
9B
  8
TEAM-NET
 10
206.260569
 20
-415.310952
 30
603.076923
 70
    64
  0
VERTEX
  5
9C
  8
TEAM-NET
 10
189.123119
 20
-415.310952
 30
603.076923
 70
    64
  0
VERTEX
  5
9D
  8
TEAM-NET
 10
171.985668
 20
-415.310952
 30
603.076923
 70
    64
  0
VERTEX
  5
9E
  8
TEAM-NET
 10
154.848218
 20
-415.310952
 30
603.076923
 70
    64
  0
VERTEX
  5
9F
  8
TEAM-NET
 10
137.710768
 20
-415.310952
 30
603.076923
 70
    64
  0
VERTEX
  5
A0
  8
TEAM-NET
 10
120.573318
 20
-415.310952
 30
603.076923
 70
    64
  0
VERTEX
  5
A1
  8
TEAM-NET
 10
103.435867
 20
-415.310952
 30
603.076923
 70
    64
  0
VERTEX
  5
A2
  8
TEAM-NET
 10
86.298417
 20
-415.310952
 30
603.076923
 70
    64
  0
VERTEX
  5
A3
  8
TEAM-NET
 10
69.160967
 20
-415.310952
 30
603.076923
 70
    64
  0
VERTEX
  5
A4
  8
TEAM-NET
 10
52.023517
 20
-415.310952
 30
603.076923
 70
    64
  0
VERTEX
  5
A5
  8
TEAM-NET
 10
34.886066
 20
-415.310952
 30
603.076923
 70
    64
  0
VERTEX
  5
A6
  8
TEAM-NET
 10
17.748616
 20
-415.310952
 30
603.076923
 70
    64
  0
VERTEX
  5
A7
  8
TEAM-NET
 10
0.611166
 20
-415.310952
 30
603.076923
 70
    64
  0
VERTEX
  5
A8
  8
TEAM-NET
 10
-16.526284
 20
-415.310952
 30
603.076923
 70
    64
  0
VERTEX
  5
A9
  8
TEAM-NET
 10
-33.663735
 20
-415.310952
 30
603.076923
 70
    64
  0
VERTEX
  5
AA
  8
TEAM-NET
 10
-50.801185
 20
-415.310952
 30
603.076923
 70
    64
  0
VERTEX
  5
AB
  8
TEAM-NET
 10
-67.938635
 20
-415.310952
 30
603.076923
 70
    64
  0
VERTEX
  5
AC
  8
TEAM-NET
 10
-85.076085
 20
-415.310952
 30
603.076923
 70
    64
  0
VERTEX
  5
AD
  8
TEAM-NET
 10
-102.213536
 20
-415.310952
 30
603.076923
 70
    64
  0
VERTEX
  5
AE
  8
TEAM-NET
 10
-119.350986
 20
-415.310952
 30
603.076923
 70
    64
  0
VERTEX
  5
AF
  8
TEAM-NET
 10
-136.488436
 20
-415.310952
 30
603.076923
 70
    64
  0
VERTEX
  5
B0
  8
TEAM-NET
 10
-153.625886
 20
-415.310952
 30
603.076923
 70
    64
  0
VERTEX
  5
B1
  8
TEAM-NET
 10
-170.763337
 20
-415.310952
 30
603.076923
 70
    64
  0
VERTEX
  5
B2
  8
TEAM-NET
 10
-187.900787
 20
-415.310952
 30
603.076923
 70
    64
  0
VERTEX
  5
B3
  8
TEAM-NET
 10
-205.038237
 20
-415.310952
 30
603.076923
 70
    64
  0
VERTEX
  5
B4
  8
TEAM-NET
 10
-222.175687
 20
-415.310952
 30
603.076923
 70
    64
  0
VERTEX
  5
B5
  8
TEAM-NET
 10
-239.313138
 20
-415.310952
 30
603.076923
 70
    64
  0
VERTEX
  5
B6
  8
TEAM-NET
 10
-256.450588
 20
-415.310952
 30
603.076923
 70
    64
  0
VERTEX
  5
B7
  8
TEAM-NET
 10
-273.043247
 20
-411.964173
 30
603.076923
 70
    64
  0
VERTEX
  5
B8
  8
TEAM-NET
 10
-285.060292
 20
-400.09493
 30
603.076923
 70
    64
  0
VERTEX
  5
B9
  8
TEAM-NET
 10
-288.452366
 20
-383.548566
 30
603.076923
 70
    64
  0
SEQEND
  5
BA
  8
TEAM-NET
  0
CIRCLE
  5
BB
  8
TEAM-BODY
 39
-43.076923
 10
0.0
 20
-86.153846
 30
603.076923
 40
28.0
  0
CIRCLE
  5
BD
  8
TEAM-DET1
 39
-43.076923
 10
0.0
 20
-86.153846
 30
603.076923
 40
22.615385
  0
POLYLINE
  5
BF
  8
TEAM-DET3
 66
     1
 10
0.0
 20
0.0
 30
603.076923
  0
VERTEX
  5
24C
  8
TEAM-DET3
 10
289.674697
 20
-383.548566
 30
603.076923
 42
-0.44157
  0
VERTEX
  5
24D
  8
TEAM-DET3
 10
260.722051
 20
-415.310952
 30
603.076923
  0
VERTEX
  5
24E
  8
TEAM-DET3
 10
-259.499719
 20
-415.310952
 30
603.076923
 42
-0.44157
  0
VERTEX
  5
24F
  8
TEAM-DET3
 10
-288.452366
 20
-383.548566
 30
603.076923
  0
SEQEND
  5
250
  8
TEAM-DET3
  0
POLYLINE
  5
C1
  8
TEAM-DET3
 66
     1
 10
0.0
 20
0.0
 30
603.076923
  0
VERTEX
  5
251
  8
TEAM-DET3
 10
-288.452366
 20
-383.548566
 30
603.076923
  0
VERTEX
  5
252
  8
TEAM-DET3
 10
-265.927534
 20
-140.702723
 30
603.076923
 42
-0.394848
  0
VERTEX
  5
253
  8
TEAM-DET3
 10
-217.57333
 20
-95.464798
 30
603.076923
  0
VERTEX
  5
254
  8
TEAM-DET3
 10
-84.619154
 20
-95.464798
 30
603.076923
 42
0.245044
  0
VERTEX
  5
255
  8
TEAM-DET3
 10
-60.779024
 20
-83.034667
 30
603.076923
  0
VERTEX
  5
256
  8
TEAM-DET3
 10
-34.081317
 20
-44.800463
 30
603.076923
 42
-0.181798
  0
VERTEX
  5
257
  8
TEAM-DET3
 10
0.611166
 20
-27.618644
 30
603.076923
 42
-0.181798
  0
VERTEX
  5
258
  8
TEAM-DET3
 10
35.303648
 20
-44.800463
 30
603.076923
  0
VERTEX
  5
259
  8
TEAM-DET3
 10
62.001356
 20
-83.034667
 30
603.076923
 42
0.245044
  0
VERTEX
  5
25A
  8
TEAM-DET3
 10
85.841486
 20
-95.464798
 30
603.076923
  0
VERTEX
  5
25B
  8
TEAM-DET3
 10
218.795662
 20
-95.464798
 30
603.076923
 42
-0.394848
  0
VERTEX
  5
25C
  8
TEAM-DET3
 10
267.149866
 20
-140.702723
 30
603.076923
  0
VERTEX
  5
25D
  8
TEAM-DET3
 10
289.674697
 20
-383.548566
 30
603.076923
  0
SEQEND
  5
25E
  8
TEAM-DET3
  0
POLYLINE
  5
C2
  8
TEAM-NET
 66
     1
 10
0.0
 20
0.0
 30
0.0
 70
    16
 71
     2
 72
    37
  0
VERTEX
  5
C3
  8
TEAM-NET
 10
289.674697
 20
-383.548566
 30
603.076923
 70
    64
  0
VERTEX
  5
C4
  8
TEAM-NET
 10
286.282624
 20
-400.09493
 30
603.076923
 70
    64
  0
VERTEX
  5
C5
  8
TEAM-NET
 10
274.265578
 20
-411.964173
 30
603.076923
 70
    64
  0
VERTEX
  5
C6
  8
TEAM-NET
 10
257.672919
 20
-415.310952
 30
603.076923
 70
    64
  0
VERTEX
  5
C7
  8
TEAM-NET
 10
240.535469
 20
-415.310952
 30
603.076923
 70
    64
  0
VERTEX
  5
C8
  8
TEAM-NET
 10
223.398019
 20
-415.310952
 30
603.076923
 70
    64
  0
VERTEX
  5
C9
  8
TEAM-NET
 10
206.260569
 20
-415.310952
 30
603.076923
 70
    64
  0
VERTEX
  5
CA
  8
TEAM-NET
 10
189.123119
 20
-415.310952
 30
603.076923
 70
    64
  0
VERTEX
  5
CB
  8
TEAM-NET
 10
171.985668
 20
-415.310952
 30
603.076923
 70
    64
  0
VERTEX
  5
CC
  8
TEAM-NET
 10
154.848218
 20
-415.310952
 30
603.076923
 70
    64
  0
VERTEX
  5
CD
  8
TEAM-NET
 10
137.710768
 20
-415.310952
 30
603.076923
 70
    64
  0
VERTEX
  5
CE
  8
TEAM-NET
 10
120.573318
 20
-415.310952
 30
603.076923
 70
    64
  0
VERTEX
  5
CF
  8
TEAM-NET
 10
103.435867
 20
-415.310952
 30
603.076923
 70
    64
  0
VERTEX
  5
D0
  8
TEAM-NET
 10
86.298417
 20
-415.310952
 30
603.076923
 70
    64
  0
VERTEX
  5
D1
  8
TEAM-NET
 10
69.160967
 20
-415.310952
 30
603.076923
 70
    64
  0
VERTEX
  5
D2
  8
TEAM-NET
 10
52.023517
 20
-415.310952
 30
603.076923
 70
    64
  0
VERTEX
  5
D3
  8
TEAM-NET
 10
34.886066
 20
-415.310952
 30
603.076923
 70
    64
  0
VERTEX
  5
D4
  8
TEAM-NET
 10
17.748616
 20
-415.310952
 30
603.076923
 70
    64
  0
VERTEX
  5
D5
  8
TEAM-NET
 10
0.611166
 20
-415.310952
 30
603.076923
 70
    64
  0
VERTEX
  5
D6
  8
TEAM-NET
 10
-16.526284
 20
-415.310952
 30
603.076923
 70
    64
  0
VERTEX
  5
D7
  8
TEAM-NET
 10
-33.663735
 20
-415.310952
 30
603.076923
 70
    64
  0
VERTEX
  5
D8
  8
TEAM-NET
 10
-50.801185
 20
-415.310952
 30
603.076923
 70
    64
  0
VERTEX
  5
D9
  8
TEAM-NET
 10
-67.938635
 20
-415.310952
 30
603.076923
 70
    64
  0
VERTEX
  5
DA
  8
TEAM-NET
 10
-85.076085
 20
-415.310952
 30
603.076923
 70
    64
  0
VERTEX
  5
DB
  8
TEAM-NET
 10
-102.213536
 20
-415.310952
 30
603.076923
 70
    64
  0
VERTEX
  5
DC
  8
TEAM-NET
 10
-119.350986
 20
-415.310952
 30
603.076923
 70
    64
  0
VERTEX
  5
DD
  8
TEAM-NET
 10
-136.488436
 20
-415.310952
 30
603.076923
 70
    64
  0
VERTEX
  5
DE
  8
TEAM-NET
 10
-153.625886
 20
-415.310952
 30
603.076923
 70
    64
  0
VERTEX
  5
DF
  8
TEAM-NET
 10
-170.763337
 20
-415.310952
 30
603.076923
 70
    64
  0
VERTEX
  5
E0
  8
TEAM-NET
 10
-187.900787
 20
-415.310952
 30
603.076923
 70
    64
  0
VERTEX
  5
E1
  8
TEAM-NET
 10
-205.038237
 20
-415.310952
 30
603.076923
 70
    64
  0
VERTEX
  5
E2
  8
TEAM-NET
 10
-222.175687
 20
-415.310952
 30
603.076923
 70
    64
  0
VERTEX
  5
E3
  8
TEAM-NET
 10
-239.313138
 20
-415.310952
 30
603.076923
 70
    64
  0
VERTEX
  5
E4
  8
TEAM-NET
 10
-256.450588
 20
-415.310952
 30
603.076923
 70
    64
  0
VERTEX
  5
E5
  8
TEAM-NET
 10
-273.043247
 20
-411.964173
 30
603.076923
 70
    64
  0
VERTEX
  5
E6
  8
TEAM-NET
 10
-285.060292
 20
-400.09493
 30
603.076923
 70
    64
  0
VERTEX
  5
E7
  8
TEAM-NET
 10
-288.452366
 20
-383.548566
 30
603.076923
 70
    64
  0
VERTEX
  5
E8
  8
TEAM-NET
 10
289.674697
 20
-383.548566
 30
603.076923
 70
    64
  0
VERTEX
  5
E9
  8
TEAM-NET
 10
286.781435
 20
-352.355583
 30
603.076923
 70
    64
  0
VERTEX
  5
EA
  8
TEAM-NET
 10
283.888173
 20
-321.1626
 30
603.076923
 70
    64
  0
VERTEX
  5
EB
  8
TEAM-NET
 10
280.994911
 20
-289.969617
 30
603.076923
 70
    64
  0
VERTEX
  5
EC
  8
TEAM-NET
 10
278.101649
 20
-258.776634
 30
603.076923
 70
    64
  0
VERTEX
  5
ED
  8
TEAM-NET
 10
275.208387
 20
-227.583651
 30
603.076923
 70
    64
  0
VERTEX
  5
EE
  8
TEAM-NET
 10
272.315124
 20
-196.390668
 30
603.076923
 70
    64
  0
VERTEX
  5
EF
  8
TEAM-NET
 10
269.421862
 20
-165.197685
 30
603.076923
 70
    64
  0
VERTEX
  5
F0
  8
TEAM-NET
 10
266.238765
 20
-134.043388
 30
603.076923
 70
    64
  0
VERTEX
  5
F1
  8
TEAM-NET
 10
250.713796
 20
-107.460552
 30
603.076923
 70
    64
  0
VERTEX
  5
F2
  8
TEAM-NET
 10
222.309264
 20
-95.592339
 30
603.076923
 70
    64
  0
VERTEX
  5
F3
  8
TEAM-NET
 10
190.985474
 20
-95.464798
 30
603.076923
 70
    64
  0
VERTEX
  5
F4
  8
TEAM-NET
 10
159.658598
 20
-95.464798
 30
603.076923
 70
    64
  0
VERTEX
  5
F5
  8
TEAM-NET
 10
128.331722
 20
-95.464798
 30
603.076923
 70
    64
  0
VERTEX
  5
F6
  8
TEAM-NET
 10
97.004847
 20
-95.464798
 30
603.076923
 70
    64
  0
VERTEX
  5
F7
  8
TEAM-NET
 10
67.255591
 20
-88.74927
 30
603.076923
 70
    64
  0
VERTEX
  5
F8
  8
TEAM-NET
 10
48.524121
 20
-63.733707
 30
603.076923
 70
    64
  0
VERTEX
  5
F9
  8
TEAM-NET
 10
29.254134
 20
-39.224886
 30
603.076923
 70
    64
  0
VERTEX
  5
FA
  8
TEAM-NET
 10
0.611166
 20
-27.618644
 30
603.076923
 70
    64
  0
VERTEX
  5
FB
  8
TEAM-NET
 10
-28.031802
 20
-39.224886
 30
603.076923
 70
    64
  0
VERTEX
  5
FC
  8
TEAM-NET
 10
-47.301789
 20
-63.733707
 30
603.076923
 70
    64
  0
VERTEX
  5
FD
  8
TEAM-NET
 10
-66.03326
 20
-88.74927
 30
603.076923
 70
    64
  0
VERTEX
  5
FE
  8
TEAM-NET
 10
-95.782515
 20
-95.464798
 30
603.076923
 70
    64
  0
VERTEX
  5
FF
  8
TEAM-NET
 10
-127.109391
 20
-95.464798
 30
603.076923
 70
    64
  0
VERTEX
  5
100
  8
TEAM-NET
 10
-158.436267
 20
-95.464798
 30
603.076923
 70
    64
  0
VERTEX
  5
101
  8
TEAM-NET
 10
-189.763142
 20
-95.464798
 30
603.076923
 70
    64
  0
VERTEX
  5
102
  8
TEAM-NET
 10
-221.086933
 20
-95.592339
 30
603.076923
 70
    64
  0
VERTEX
  5
103
  8
TEAM-NET
 10
-249.491464
 20
-107.460552
 30
603.076923
 70
    64
  0
VERTEX
  5
104
  8
TEAM-NET
 10
-265.016433
 20
-134.043388
 30
603.076923
 70
    64
  0
VERTEX
  5
105
  8
TEAM-NET
 10
-268.19953
 20
-165.197685
 30
603.076923
 70
    64
  0
VERTEX
  5
106
  8
TEAM-NET
 10
-271.092793
 20
-196.390668
 30
603.076923
 70
    64
  0
VERTEX
  5
107
  8
TEAM-NET
 10
-273.986055
 20
-227.583651
 30
603.076923
 70
    64
  0
VERTEX
  5
108
  8
TEAM-NET
 10
-276.879317
 20
-258.776634
 30
603.076923
 70
    64
  0
VERTEX
  5
109
  8
TEAM-NET
 10
-279.772579
 20
-289.969617
 30
603.076923
 70
    64
  0
VERTEX
  5
10A
  8
TEAM-NET
 10
-282.665841
 20
-321.1626
 30
603.076923
 70
    64
  0
VERTEX
  5
10B
  8
TEAM-NET
 10
-285.559104
 20
-352.355583
 30
603.076923
 70
    64
  0
VERTEX
  5
10C
  8
TEAM-NET
 10
-288.452366
 20
-383.548566
 30
603.076923
 70
    64
  0
SEQEND
  5
10D
  8
TEAM-NET
  0
LINE
  5
10E
  8
TEAM-BODY
 39
-64.615385
 10
-350.0
 20
-21.538462
 30
861.538462
 11
350.0
 21
-21.538462
 31
861.538462
  0
LINE
  5
10F
  8
TEAM-BODY
 39
-64.615385
 10
-350.0
 20
0.0
 30
861.538462
 11
350.0
 21
0.0
 31
861.538462
  0
TEXT
  5
110
  8
TEAM-TXT
 10
-27.137605
 20
-370.543302
 30
800.0
 40
30.0
  1
team 431202 
 41
0.8
 51
15.0
  7
TEAM
  0
POLYLINE
  5
113
  8
TEAM-BODY
 66
     1
 10
0.0
 20
0.0
 30
861.538462
 39
-43.076923
  0
VERTEX
  5
25F
  8
TEAM-BODY
 10
350.0
 20
-430.769231
 30
861.538462
 42
-0.414214
  0
VERTEX
  5
260
  8
TEAM-BODY
 10
296.153846
 20
-484.615385
 30
861.538462
  0
VERTEX
  5
261
  8
TEAM-BODY
 10
-296.153846
 20
-484.615385
 30
861.538462
 42
-0.414214
  0
VERTEX
  5
262
  8
TEAM-BODY
 10
-350.0
 20
-430.769231
 30
861.538462
  0
SEQEND
  5
263
  8
TEAM-BODY
  0
POLYLINE
  5
114
  8
TEAM-BODY
 66
     1
 10
0.0
 20
0.0
 30
861.538462
 39
-43.076923
  0
VERTEX
  5
264
  8
TEAM-BODY
 10
-350.0
 20
-430.769231
 30
861.538462
  0
VERTEX
  5
265
  8
TEAM-BODY
 10
-350.0
 20
0.0
 30
861.538462
  0
VERTEX
  5
266
  8
TEAM-BODY
 10
350.0
 20
0.0
 30
861.538462
  0
VERTEX
  5
267
  8
TEAM-BODY
 10
350.0
 20
-430.769231
 30
861.538462
  0
SEQEND
  5
268
  8
TEAM-BODY
  0
POLYLINE
  5
115
  8
TEAM-BODY
 66
     1
 10
0.0
 20
0.0
 30
861.538462
  0
VERTEX
  5
269
  8
TEAM-BODY
 10
321.181702
 20
-417.016152
 30
861.538462
 42
-0.44157
  0
VERTEX
  5
26A
  8
TEAM-BODY
 10
289.012094
 20
-452.307692
 30
861.538462
  0
VERTEX
  5
26B
  8
TEAM-BODY
 10
-289.012094
 20
-452.307692
 30
861.538462
 42
-0.44157
  0
VERTEX
  5
26C
  8
TEAM-BODY
 10
-321.181702
 20
-417.016152
 30
861.538462
  0
SEQEND
  5
26D
  8
TEAM-BODY
  0
POLYLINE
  5
116
  8
TEAM-NET
 66
     1
 10
0.0
 20
0.0
 30
0.0
 70
    16
 71
     2
 72
    37
  0
VERTEX
  5
117
  8
TEAM-NET
 10
350.0
 20
-430.769231
 30
861.538462
 70
    64
  0
VERTEX
  5
118
  8
TEAM-NET
 10
345.898672
 20
-451.381377
 30
861.538462
 70
    64
  0
VERTEX
  5
119
  8
TEAM-NET
 10
334.219464
 20
-468.853572
 30
861.538462
 70
    64
  0
VERTEX
  5
11A
  8
TEAM-NET
 10
316.741528
 20
-480.524187
 30
861.538462
 70
    64
  0
VERTEX
  5
11B
  8
TEAM-NET
 10
296.127368
 20
-484.615385
 30
861.538462
 70
    64
  0
VERTEX
  5
11C
  8
TEAM-NET
 10
274.975413
 20
-484.615385
 30
861.538462
 70
    64
  0
VERTEX
  5
11D
  8
TEAM-NET
 10
253.823458
 20
-484.615385
 30
861.538462
 70
    64
  0
VERTEX
  5
11E
  8
TEAM-NET
 10
232.671503
 20
-484.615385
 30
861.538462
 70
    64
  0
VERTEX
  5
11F
  8
TEAM-NET
 10
211.519548
 20
-484.615385
 30
861.538462
 70
    64
  0
VERTEX
  5
120
  8
TEAM-NET
 10
190.367593
 20
-484.615385
 30
861.538462
 70
    64
  0
VERTEX
  5
121
  8
TEAM-NET
 10
169.215639
 20
-484.615385
 30
861.538462
 70
    64
  0
VERTEX
  5
122
  8
TEAM-NET
 10
148.063684
 20
-484.615385
 30
861.538462
 70
    64
  0
VERTEX
  5
123
  8
TEAM-NET
 10
126.911729
 20
-484.615385
 30
861.538462
 70
    64
  0
VERTEX
  5
124
  8
TEAM-NET
 10
105.759774
 20
-484.615385
 30
861.538462
 70
    64
  0
VERTEX
  5
125
  8
TEAM-NET
 10
84.607819
 20
-484.615385
 30
861.538462
 70
    64
  0
VERTEX
  5
126
  8
TEAM-NET
 10
63.455864
 20
-484.615385
 30
861.538462
 70
    64
  0
VERTEX
  5
127
  8
TEAM-NET
 10
42.30391
 20
-484.615385
 30
861.538462
 70
    64
  0
VERTEX
  5
128
  8
TEAM-NET
 10
21.151955
 20
-484.615385
 30
861.538462
 70
    64
  0
VERTEX
  5
129
  8
TEAM-NET
 10
0.0
 20
-484.615385
 30
861.538462
 70
    64
  0
VERTEX
  5
12A
  8
TEAM-NET
 10
-21.151955
 20
-484.615385
 30
861.538462
 70
    64
  0
VERTEX
  5
12B
  8
TEAM-NET
 10
-42.30391
 20
-484.615385
 30
861.538462
 70
    64
  0
VERTEX
  5
12C
  8
TEAM-NET
 10
-63.455864
 20
-484.615385
 30
861.538462
 70
    64
  0
VERTEX
  5
12D
  8
TEAM-NET
 10
-84.607819
 20
-484.615385
 30
861.538462
 70
    64
  0
VERTEX
  5
12E
  8
TEAM-NET
 10
-105.759774
 20
-484.615385
 30
861.538462
 70
    64
  0
VERTEX
  5
12F
  8
TEAM-NET
 10
-126.911729
 20
-484.615385
 30
861.538462
 70
    64
  0
VERTEX
  5
130
  8
TEAM-NET
 10
-148.063684
 20
-484.615385
 30
861.538462
 70
    64
  0
VERTEX
  5
131
  8
TEAM-NET
 10
-169.215639
 20
-484.615385
 30
861.538462
 70
    64
  0
VERTEX
  5
132
  8
TEAM-NET
 10
-190.367593
 20
-484.615385
 30
861.538462
 70
    64
  0
VERTEX
  5
133
  8
TEAM-NET
 10
-211.519548
 20
-484.615385
 30
861.538462
 70
    64
  0
VERTEX
  5
134
  8
TEAM-NET
 10
-232.671503
 20
-484.615385
 30
861.538462
 70
    64
  0
VERTEX
  5
135
  8
TEAM-NET
 10
-253.823458
 20
-484.615385
 30
861.538462
 70
    64
  0
VERTEX
  5
136
  8
TEAM-NET
 10
-274.975413
 20
-484.615385
 30
861.538462
 70
    64
  0
VERTEX
  5
137
  8
TEAM-NET
 10
-296.127368
 20
-484.615385
 30
861.538462
 70
    64
  0
VERTEX
  5
138
  8
TEAM-NET
 10
-316.741528
 20
-480.524187
 30
861.538462
 70
    64
  0
VERTEX
  5
139
  8
TEAM-NET
 10
-334.219464
 20
-468.853572
 30
861.538462
 70
    64
  0
VERTEX
  5
13A
  8
TEAM-NET
 10
-345.898672
 20
-451.381377
 30
861.538462
 70
    64
  0
VERTEX
  5
13B
  8
TEAM-NET
 10
-350.0
 20
-430.769231
 30
861.538462
 70
    64
  0
VERTEX
  5
13C
  8
TEAM-NET
 10
321.181702
 20
-417.016152
 30
861.538462
 70
    64
  0
VERTEX
  5
13D
  8
TEAM-NET
 10
317.412731
 20
-435.401001
 30
861.538462
 70
    64
  0
VERTEX
  5
13E
  8
TEAM-NET
 10
304.060458
 20
-448.589049
 30
861.538462
 70
    64
  0
VERTEX
  5
13F
  8
TEAM-NET
 10
285.624171
 20
-452.307692
 30
861.538462
 70
    64
  0
VERTEX
  5
140
  8
TEAM-NET
 10
266.582559
 20
-452.307692
 30
861.538462
 70
    64
  0
VERTEX
  5
141
  8
TEAM-NET
 10
247.540948
 20
-452.307692
 30
861.538462
 70
    64
  0
VERTEX
  5
142
  8
TEAM-NET
 10
228.499337
 20
-452.307692
 30
861.538462
 70
    64
  0
VERTEX
  5
143
  8
TEAM-NET
 10
209.457725
 20
-452.307692
 30
861.538462
 70
    64
  0
VERTEX
  5
144
  8
TEAM-NET
 10
190.416114
 20
-452.307692
 30
861.538462
 70
    64
  0
VERTEX
  5
145
  8
TEAM-NET
 10
171.374502
 20
-452.307692
 30
861.538462
 70
    64
  0
VERTEX
  5
146
  8
TEAM-NET
 10
152.332891
 20
-452.307692
 30
861.538462
 70
    64
  0
VERTEX
  5
147
  8
TEAM-NET
 10
133.29128
 20
-452.307692
 30
861.538462
 70
    64
  0
VERTEX
  5
148
  8
TEAM-NET
 10
114.249668
 20
-452.307692
 30
861.538462
 70
    64
  0
VERTEX
  5
149
  8
TEAM-NET
 10
95.208057
 20
-452.307692
 30
861.538462
 70
    64
  0
VERTEX
  5
14A
  8
TEAM-NET
 10
76.166446
 20
-452.307692
 30
861.538462
 70
    64
  0
VERTEX
  5
14B
  8
TEAM-NET
 10
57.124834
 20
-452.307692
 30
861.538462
 70
    64
  0
VERTEX
  5
14C
  8
TEAM-NET
 10
38.083223
 20
-452.307692
 30
861.538462
 70
    64
  0
VERTEX
  5
14D
  8
TEAM-NET
 10
19.041611
 20
-452.307692
 30
861.538462
 70
    64
  0
VERTEX
  5
14E
  8
TEAM-NET
 10
0.0
 20
-452.307692
 30
861.538462
 70
    64
  0
VERTEX
  5
14F
  8
TEAM-NET
 10
-19.041611
 20
-452.307692
 30
861.538462
 70
    64
  0
VERTEX
  5
150
  8
TEAM-NET
 10
-38.083223
 20
-452.307692
 30
861.538462
 70
    64
  0
VERTEX
  5
151
  8
TEAM-NET
 10
-57.124834
 20
-452.307692
 30
861.538462
 70
    64
  0
VERTEX
  5
152
  8
TEAM-NET
 10
-76.166446
 20
-452.307692
 30
861.538462
 70
    64
  0
VERTEX
  5
153
  8
TEAM-NET
 10
-95.208057
 20
-452.307692
 30
861.538462
 70
    64
  0
VERTEX
  5
154
  8
TEAM-NET
 10
-114.249668
 20
-452.307692
 30
861.538462
 70
    64
  0
VERTEX
  5
155
  8
TEAM-NET
 10
-133.29128
 20
-452.307692
 30
861.538462
 70
    64
  0
VERTEX
  5
156
  8
TEAM-NET
 10
-152.332891
 20
-452.307692
 30
861.538462
 70
    64
  0
VERTEX
  5
157
  8
TEAM-NET
 10
-171.374502
 20
-452.307692
 30
861.538462
 70
    64
  0
VERTEX
  5
158
  8
TEAM-NET
 10
-190.416114
 20
-452.307692
 30
861.538462
 70
    64
  0
VERTEX
  5
159
  8
TEAM-NET
 10
-209.457725
 20
-452.307692
 30
861.538462
 70
    64
  0
VERTEX
  5
15A
  8
TEAM-NET
 10
-228.499337
 20
-452.307692
 30
861.538462
 70
    64
  0
VERTEX
  5
15B
  8
TEAM-NET
 10
-247.540948
 20
-452.307692
 30
861.538462
 70
    64
  0
VERTEX
  5
15C
  8
TEAM-NET
 10
-266.582559
 20
-452.307692
 30
861.538462
 70
    64
  0
VERTEX
  5
15D
  8
TEAM-NET
 10
-285.624171
 20
-452.307692
 30
861.538462
 70
    64
  0
VERTEX
  5
15E
  8
TEAM-NET
 10
-304.060458
 20
-448.589049
 30
861.538462
 70
    64
  0
VERTEX
  5
15F
  8
TEAM-NET
 10
-317.412731
 20
-435.401001
 30
861.538462
 70
    64
  0
VERTEX
  5
160
  8
TEAM-NET
 10
-321.181702
 20
-417.016152
 30
861.538462
 70
    64
  0
SEQEND
  5
161
  8
TEAM-NET
  0
POLYLINE
  5
162
  8
TEAM-BODY
 66
     1
 10
0.0
 20
0.0
 30
861.538462
  0
VERTEX
  5
26E
  8
TEAM-BODY
 10
-321.181702
 20
-417.016152
 30
861.538462
  0
VERTEX
  5
26F
  8
TEAM-BODY
 10
-296.154111
 20
-147.187438
 30
861.538462
 42
-0.394848
  0
VERTEX
  5
270
  8
TEAM-BODY
 10
-242.427218
 20
-96.923077
 30
861.538462
  0
VERTEX
  5
271
  8
TEAM-BODY
 10
-94.700356
 20
-96.923077
 30
861.538462
 42
0.245044
  0
VERTEX
  5
272
  8
TEAM-BODY
 10
-68.211323
 20
-83.11182
 30
861.538462
  0
VERTEX
  5
273
  8
TEAM-BODY
 10
-38.547203
 20
-40.629371
 30
861.538462
 42
-0.181798
  0
VERTEX
  5
274
  8
TEAM-BODY
 10
0.0
 20
-21.538462
 30
861.538462
 42
-0.181798
  0
VERTEX
  5
275
  8
TEAM-BODY
 10
38.547203
 20
-40.629371
 30
861.538462
  0
VERTEX
  5
276
  8
TEAM-BODY
 10
68.211323
 20
-83.11182
 30
861.538462
 42
0.245044
  0
VERTEX
  5
277
  8
TEAM-BODY
 10
94.700356
 20
-96.923077
 30
861.538462
  0
VERTEX
  5
278
  8
TEAM-BODY
 10
242.427218
 20
-96.923077
 30
861.538462
 42
-0.394848
  0
VERTEX
  5
279
  8
TEAM-BODY
 10
296.154111
 20
-147.187438
 30
861.538462
  0
VERTEX
  5
27A
  8
TEAM-BODY
 10
321.181702
 20
-417.016152
 30
861.538462
  0
SEQEND
  5
27B
  8
TEAM-BODY
  0
POLYLINE
  5
163
  8
TEAM-NET
 66
     1
 10
0.0
 20
0.0
 30
0.0
 70
    16
 71
     2
 72
    37
  0
VERTEX
  5
164
  8
TEAM-NET
 10
350.0
 20
-430.769231
 30
861.538462
 70
    64
  0
VERTEX
  5
165
  8
TEAM-NET
 10
350.0
 20
-387.393162
 30
861.538462
 70
    64
  0
VERTEX
  5
166
  8
TEAM-NET
 10
350.0
 20
-344.017094
 30
861.538462
 70
    64
  0
VERTEX
  5
167
  8
TEAM-NET
 10
350.0
 20
-300.641026
 30
861.538462
 70
    64
  0
VERTEX
  5
168
  8
TEAM-NET
 10
350.0
 20
-257.264957
 30
861.538462
 70
    64
  0
VERTEX
  5
169
  8
TEAM-NET
 10
350.0
 20
-213.888889
 30
861.538462
 70
    64
  0
VERTEX
  5
16A
  8
TEAM-NET
 10
350.0
 20
-170.512821
 30
861.538462
 70
    64
  0
VERTEX
  5
16B
  8
TEAM-NET
 10
350.0
 20
-127.136752
 30
861.538462
 70
    64
  0
VERTEX
  5
16C
  8
TEAM-NET
 10
350.0
 20
-83.760684
 30
861.538462
 70
    64
  0
VERTEX
  5
16D
  8
TEAM-NET
 10
350.0
 20
-40.384615
 30
861.538462
 70
    64
  0
VERTEX
  5
16E
  8
TEAM-NET
 10
347.008547
 20
0.0
 30
861.538462
 70
    64
  0
VERTEX
  5
16F
  8
TEAM-NET
 10
303.632479
 20
0.0
 30
861.538462
 70
    64
  0
VERTEX
  5
170
  8
TEAM-NET
 10
260.25641
 20
0.0
 30
861.538462
 70
    64
  0
VERTEX
  5
171
  8
TEAM-NET
 10
216.880342
 20
0.0
 30
861.538462
 70
    64
  0
VERTEX
  5
172
  8
TEAM-NET
 10
173.504274
 20
0.0
 30
861.538462
 70
    64
  0
VERTEX
  5
173
  8
TEAM-NET
 10
130.128205
 20
0.0
 30
861.538462
 70
    64
  0
VERTEX
  5
174
  8
TEAM-NET
 10
86.752137
 20
0.0
 30
861.538462
 70
    64
  0
VERTEX
  5
175
  8
TEAM-NET
 10
43.376068
 20
0.0
 30
861.538462
 70
    64
  0
VERTEX
  5
176
  8
TEAM-NET
 10
0.0
 20
0.0
 30
861.538462
 70
    64
  0
VERTEX
  5
177
  8
TEAM-NET
 10
-43.376068
 20
0.0
 30
861.538462
 70
    64
  0
VERTEX
  5
178
  8
TEAM-NET
 10
-86.752137
 20
0.0
 30
861.538462
 70
    64
  0
VERTEX
  5
179
  8
TEAM-NET
 10
-130.128205
 20
0.0
 30
861.538462
 70
    64
  0
VERTEX
  5
17A
  8
TEAM-NET
 10
-173.504274
 20
0.0
 30
861.538462
 70
    64
  0
VERTEX
  5
17B
  8
TEAM-NET
 10
-216.880342
 20
0.0
 30
861.538462
 70
    64
  0
VERTEX
  5
17C
  8
TEAM-NET
 10
-260.25641
 20
0.0
 30
861.538462
 70
    64
  0
VERTEX
  5
17D
  8
TEAM-NET
 10
-303.632479
 20
0.0
 30
861.538462
 70
    64
  0
VERTEX
  5
17E
  8
TEAM-NET
 10
-347.008547
 20
0.0
 30
861.538462
 70
    64
  0
VERTEX
  5
17F
  8
TEAM-NET
 10
-350.0
 20
-40.384615
 30
861.538462
 70
    64
  0
VERTEX
  5
180
  8
TEAM-NET
 10
-350.0
 20
-83.760684
 30
861.538462
 70
    64
  0
VERTEX
  5
181
  8
TEAM-NET
 10
-350.0
 20
-127.136752
 30
861.538462
 70
    64
  0
VERTEX
  5
182
  8
TEAM-NET
 10
-350.0
 20
-170.512821
 30
861.538462
 70
    64
  0
VERTEX
  5
183
  8
TEAM-NET
 10
-350.0
 20
-213.888889
 30
861.538462
 70
    64
  0
VERTEX
  5
184
  8
TEAM-NET
 10
-350.0
 20
-257.264957
 30
861.538462
 70
    64
  0
VERTEX
  5
185
  8
TEAM-NET
 10
-350.0
 20
-300.641026
 30
861.538462
 70
    64
  0
VERTEX
  5
186
  8
TEAM-NET
 10
-350.0
 20
-344.017094
 30
861.538462
 70
    64
  0
VERTEX
  5
187
  8
TEAM-NET
 10
-350.0
 20
-387.393162
 30
861.538462
 70
    64
  0
VERTEX
  5
188
  8
TEAM-NET
 10
-350.0
 20
-430.769231
 30
861.538462
 70
    64
  0
VERTEX
  5
189
  8
TEAM-NET
 10
321.181702
 20
-417.016152
 30
861.538462
 70
    64
  0
VERTEX
  5
18A
  8
TEAM-NET
 10
317.966966
 20
-382.357282
 30
861.538462
 70
    64
  0
VERTEX
  5
18B
  8
TEAM-NET
 10
314.75223
 20
-347.698412
 30
861.538462
 70
    64
  0
VERTEX
  5
18C
  8
TEAM-NET
 10
311.537495
 20
-313.039543
 30
861.538462
 70
    64
  0
VERTEX
  5
18D
  8
TEAM-NET
 10
308.322759
 20
-278.380673
 30
861.538462
 70
    64
  0
VERTEX
  5
18E
  8
TEAM-NET
 10
305.108023
 20
-243.721803
 30
861.538462
 70
    64
  0
VERTEX
  5
18F
  8
TEAM-NET
 10
301.893287
 20
-209.062933
 30
861.538462
 70
    64
  0
VERTEX
  5
190
  8
TEAM-NET
 10
298.678551
 20
-174.404063
 30
861.538462
 70
    64
  0
VERTEX
  5
191
  8
TEAM-NET
 10
295.141777
 20
-139.788177
 30
861.538462
 70
    64
  0
VERTEX
  5
192
  8
TEAM-NET
 10
277.891811
 20
-110.251692
 30
861.538462
 70
    64
  0
VERTEX
  5
193
  8
TEAM-NET
 10
246.331221
 20
-97.064789
 30
861.538462
 70
    64
  0
VERTEX
  5
194
  8
TEAM-NET
 10
211.527009
 20
-96.923077
 30
861.538462
 70
    64
  0
VERTEX
  5
195
  8
TEAM-NET
 10
176.719369
 20
-96.923077
 30
861.538462
 70
    64
  0
VERTEX
  5
196
  8
TEAM-NET
 10
141.91173
 20
-96.923077
 30
861.538462
 70
    64
  0
VERTEX
  5
197
  8
TEAM-NET
 10
107.10409
 20
-96.923077
 30
861.538462
 70
    64
  0
VERTEX
  5
198
  8
TEAM-NET
 10
74.049362
 20
-89.461379
 30
861.538462
 70
    64
  0
VERTEX
  5
199
  8
TEAM-NET
 10
53.236616
 20
-61.666309
 30
861.538462
 70
    64
  0
VERTEX
  5
19A
  8
TEAM-NET
 10
31.82552
 20
-34.434286
 30
861.538462
 70
    64
  0
VERTEX
  5
19B
  8
TEAM-NET
 10
0.0
 20
-21.538462
 30
861.538462
 70
    64
  0
VERTEX
  5
19C
  8
TEAM-NET
 10
-31.82552
 20
-34.434286
 30
861.538462
 70
    64
  0
VERTEX
  5
19D
  8
TEAM-NET
 10
-53.236616
 20
-61.666309
 30
861.538462
 70
    64
  0
VERTEX
  5
19E
  8
TEAM-NET
 10
-74.049362
 20
-89.461379
 30
861.538462
 70
    64
  0
VERTEX
  5
19F
  8
TEAM-NET
 10
-107.10409
 20
-96.923077
 30
861.538462
 70
    64
  0
VERTEX
  5
1A0
  8
TEAM-NET
 10
-141.91173
 20
-96.923077
 30
861.538462
 70
    64
  0
VERTEX
  5
1A1
  8
TEAM-NET
 10
-176.719369
 20
-96.923077
 30
861.538462
 70
    64
  0
VERTEX
  5
1A2
  8
TEAM-NET
 10
-211.527009
 20
-96.923077
 30
861.538462
 70
    64
  0
VERTEX
  5
1A3
  8
TEAM-NET
 10
-246.331221
 20
-97.064789
 30
861.538462
 70
    64
  0
VERTEX
  5
1A4
  8
TEAM-NET
 10
-277.891811
 20
-110.251692
 30
861.538462
 70
    64
  0
VERTEX
  5
1A5
  8
TEAM-NET
 10
-295.141777
 20
-139.788177
 30
861.538462
 70
    64
  0
VERTEX
  5
1A6
  8
TEAM-NET
 10
-298.678551
 20
-174.404063
 30
861.538462
 70
    64
  0
VERTEX
  5
1A7
  8
TEAM-NET
 10
-301.893287
 20
-209.062933
 30
861.538462
 70
    64
  0
VERTEX
  5
1A8
  8
TEAM-NET
 10
-305.108023
 20
-243.721803
 30
861.538462
 70
    64
  0
VERTEX
  5
1A9
  8
TEAM-NET
 10
-308.322759
 20
-278.380673
 30
861.538462
 70
    64
  0
VERTEX
  5
1AA
  8
TEAM-NET
 10
-311.537495
 20
-313.039543
 30
861.538462
 70
    64
  0
VERTEX
  5
1AB
  8
TEAM-NET
 10
-314.75223
 20
-347.698412
 30
861.538462
 70
    64
  0
VERTEX
  5
1AC
  8
TEAM-NET
 10
-317.966966
 20
-382.357282
 30
861.538462
 70
    64
  0
VERTEX
  5
1AD
  8
TEAM-NET
 10
-321.181702
 20
-417.016152
 30
861.538462
 70
    64
  0
SEQEND
  5
1AE
  8
TEAM-NET
  0
LINE
  5
1AF
  8
TEAM-DET1
 10
-328.461538
 20
-80.769231
 30
861.538462
 11
-328.461538
 21
-21.538462
 31
861.538462
  0
LINE
  5
1B0
  8
TEAM-DET1
 10
-328.461538
 20
-80.769231
 30
861.538462
 11
-94.700356
 21
-80.769231
 31
861.538462
  0
LINE
  5
1B1
  8
TEAM-DET1
 10
94.700356
 20
-80.769231
 30
861.538462
 11
328.461538
 21
-80.769231
 31
861.538462
  0
LINE
  5
1B2
  8
TEAM-DET1
 10
328.461538
 20
-21.538462
 30
861.538462
 11
328.461538
 21
-80.769231
 31
861.538462
  0
CIRCLE
  5
1B3
  8
TEAM-COLD
 10
76.5
 20
0.0
 30
1100.0
 40
15.0
  0
CIRCLE
  5
1B5
  8
TEAM-WARM
 10
-76.5
 20
0.0
 30
1100.0
 40
15.0
  0
ENDSEC
  0
EOF
