999
DXF file: 21432310_.dxf
999
Pro/ENGINEER 2018500 by Parametric Technology Corporation
  0
SECTION
  2
HEADER
  9
$ACADVER
  1
AC1015
  9
$DWGCODEPAGE
  3
ANSI_1252
  9
$EXTMAX
 10
420.0
 20
297.0
 30
0.0
  9
$EXTMIN
 10
0.0
 20
0.0
 30
0.0
  9
$LIMMIN
 10
0.0
 20
0.0
  9
$LIMMAX
 10
420.0
 20
297.0
  9
$VIEWCTR
 10
210.0
 20
148.5
  9
$VIEWSIZE
 40
297.0
  9
$CLAYER
  8
0
  9
$LTSCALE
 40
23.1
  9
$CELTYPE
  6
BYLAYER
  9
$DIMSCALE
 40
1.0
  9
$DIMASZ
 40
3.0
  9
$DIMEXO
 40
0.0
  9
$DIMDLI
 40
15.96
  9
$DIMEXE
 40
1.5
  9
$DIMCEN
 40
3.78
  9
$DIMLFAC
 40
1.0
  9
$DIMBLK
  1
_FILLED
  9
$DIMALT
 70
0
  9
$DIMALTF
 40
0.0393700787
  9
$DIMTXT
 40
3.5
  9
$DIMTOL
 70
1
  9
$DIMLIM
 70
0
  9
$DIMTFAC
 40
1.0
  9
$DIMTP
 40
0.001
  9
$DIMTM
 40
0.001
  9
$DIMGAP
 40
0.625
  9
$DIMDSEP
 70
46
  9
$AUNITS
 70
0
  9
$PDMODE
 70
3
  9
$PDSIZE
 40
0.3125
  9
$HANDSEED
  5
45D
  9
$TILEMODE
 70
1
  9
$MEASUREMENT
 70
1
  9
$INSUNITS
 70
4
  0
ENDSEC
  0
SECTION
  2
CLASSES
  0
CLASS
  1
ACDBDICTIONARYWDFLT
  2
AcDbDictionaryWithDefault
  3
AutoCAD 2000
 90
0
280
0
281
0
  0
CLASS
  1
ACDBPLACEHOLDER
  2
AcDbPlaceHolder
  3
AutoCAD 2000
 90
0
280
0
281
0
  0
CLASS
  1
LAYOUT
  2
AcDbLayout
  3
AutoCAD 2000
 90
0
280
0
281
0
  0
ENDSEC
  0
SECTION
  2
TABLES
  0
TABLE
  2
VPORT
  5
8
100
AcDbSymbolTable
 70
2
  0
VPORT
  5
1F4
100
AcDbSymbolTableRecord
100
AcDbViewportTableRecord
  2
*ACTIVE
 70
0
 10
0.0
 20
0.0
 11
1.0
 21
1.0
 12
210.0
 22
148.5
 13
0.0
 23
0.0
 14
1.0
 24
1.0
 15
0.0
 25
0.0
 16
0.0
 26
0.0
 36
1.0
 17
0.0
 27
0.0
 37
0.0
 40
297.0
 41
1.4141414141
 42
50.0
 43
0.0
 44
0.0
 50
0.0
 51
0.0
 71
0
 72
100
 73
1
 74
1
 75
0
 76
0
 77
0
 78
0
  0
ENDTAB
  0
TABLE
  2
LTYPE
  5
5
100
AcDbSymbolTable
 70
6
  0
LTYPE
  5
14
100
AcDbSymbolTableRecord
100
AcDbLinetypeTableRecord
  2
BYBLOCK
 70
0
  3

 72
65
 73
0
 40
0.0
  0
LTYPE
  5
15
100
AcDbSymbolTableRecord
100
AcDbLinetypeTableRecord
  2
BYLAYER
 70
0
  3

 72
65
 73
0
 40
0.0
  0
LTYPE
  5
16
100
AcDbSymbolTableRecord
100
AcDbLinetypeTableRecord
  2
CONTINUOUS
 70
64
  3
Solid line
 72
65
 73
0
 40
0.0
  0
LTYPE
  5
1F5
100
AcDbSymbolTableRecord
100
AcDbLinetypeTableRecord
  2
CENTER
 70
64
  3
____ _ ____ _ ____ _ ____ _ ____ _ ____ _ ____
 72
65
 73
4
 40
0.6
 49
0.375
 74
0
 49
-0.075
 74
0
 49
0.075
 74
0
 49
-0.075
 74
0
  0
LTYPE
  5
1F6
100
AcDbSymbolTableRecord
100
AcDbLinetypeTableRecord
  2
HIDDEN
 70
64
  3
- - - - - - - - - - - - - - - - - - - -
 72
65
 73
2
 40
0.2
 49
0.1
 74
0
 49
-0.1
 74
0
  0
LTYPE
  5
1F7
100
AcDbSymbolTableRecord
100
AcDbLinetypeTableRecord
  2
PHANTOM
 70
64
  3
_____ _ _ _____ _ _ _____ _ _ _____
 72
65
 73
6
 40
0.8
 49
0.45
 74
0
 49
-0.05
 74
0
 49
0.1
 74
0
 49
-0.05
 74
0
 49
0.1
 74
0
 49
-0.05
 74
0
  0
LTYPE
  5
1F8
100
AcDbSymbolTableRecord
100
AcDbLinetypeTableRecord
  2
DOT
 70
64
  3
. . . . . . . . . . . . . . . . . . . .
 72
65
 73
2
 40
0.2
 49
0.1
 74
0
 49
-0.1
 74
0
  0
LTYPE
  5
1F9
100
AcDbSymbolTableRecord
100
AcDbLinetypeTableRecord
  2
DASHED
 70
64
  3
- - - - - - - - - - - - - - - - - - - -
 72
65
 73
2
 40
0.2
 49
0.1
 74
0
 49
-0.1
 74
0
  0
ENDTAB
  0
TABLE
  2
LAYER
  5
2
100
AcDbSymbolTable
 70
36
  0
LAYER
  5
10
100
AcDbSymbolTableRecord
100
AcDbLayerTableRecord
  2
0
 70
0
 62
7
  6
CONTINUOUS
370
-3
390
F
  0
LAYER
  5
1FA
100
AcDbSymbolTableRecord
100
AcDbLayerTableRecord
  2
DEFAULT_1
 70
0
 62
7
  6
CENTER
370
-3
390
F
  0
LAYER
  5
1FB
100
AcDbSymbolTableRecord
100
AcDbLayerTableRecord
  2
DEFAULT_2
 70
0
 62
8
  6
HIDDEN
370
-3
390
F
  0
LAYER
  5
1FC
100
AcDbSymbolTableRecord
100
AcDbLayerTableRecord
  2
DEFAULT_3
 70
0
 62
7
  6
PHANTOM
370
-3
390
F
  0
LAYER
  5
1FD
100
AcDbSymbolTableRecord
100
AcDbLayerTableRecord
  2
1263_9
 70
0
 62
7
  6
CONTINUOUS
370
-3
390
F
  0
LAYER
  5
1FE
100
AcDbSymbolTableRecord
100
AcDbLayerTableRecord
  2
1455_4
 70
0
 62
7
  6
CONTINUOUS
370
-3
390
F
  0
LAYER
  5
1FF
100
AcDbSymbolTableRecord
100
AcDbLayerTableRecord
  2
1DCR512CHFDK4_ASM_18
 70
0
 62
7
  6
CONTINUOUS
370
-3
390
F
  0
LAYER
  5
200
100
AcDbSymbolTableRecord
100
AcDbLayerTableRecord
  2
616101_1
 70
0
 62
7
  6
CONTINUOUS
370
-3
390
F
  0
LAYER
  5
201
100
AcDbSymbolTableRecord
100
AcDbLayerTableRecord
  2
AC53BL956GSIL_2
 70
0
 62
7
  6
CONTINUOUS
370
-3
390
F
  0
LAYER
  5
202
100
AcDbSymbolTableRecord
100
AcDbLayerTableRecord
  2
AC53CC919UPSIL_4
 70
0
 62
7
  6
CONTINUOUS
370
-3
390
F
  0
LAYER
  5
203
100
AcDbSymbolTableRecord
100
AcDbLayerTableRecord
  2
AC53CC956GMADC_3
 70
0
 62
7
  6
CONTINUOUS
370
-3
390
F
  0
LAYER
  5
204
100
AcDbSymbolTableRecord
100
AcDbLayerTableRecord
  2
AI0193_9
 70
0
 62
7
  6
CONTINUOUS
370
-3
390
F
  0
LAYER
  5
205
100
AcDbSymbolTableRecord
100
AcDbLayerTableRecord
  2
AI0261_31
 70
0
 62
7
  6
CONTINUOUS
370
-3
390
F
  0
LAYER
  5
206
100
AcDbSymbolTableRecord
100
AcDbLayerTableRecord
  2
ASTA-VALVOLA-DW15_1
 70
0
 62
7
  6
CONTINUOUS
370
-3
390
F
  0
LAYER
  5
207
100
AcDbSymbolTableRecord
100
AcDbLayerTableRecord
  2
A_EBENEN
 70
0
 62
7
  6
CONTINUOUS
370
-3
390
F
  0
LAYER
  5
208
100
AcDbSymbolTableRecord
100
AcDbLayerTableRecord
  2
A_TALP35_46_2
 70
0
 62
7
  6
CONTINUOUS
370
-3
390
F
  0
LAYER
  5
209
100
AcDbSymbolTableRecord
100
AcDbLayerTableRecord
  2
CO830K-A1198_2
 70
0
 62
7
  6
CONTINUOUS
370
-3
390
F
  0
LAYER
  5
20A
100
AcDbSymbolTableRecord
100
AcDbLayerTableRecord
  2
CORPO-VALVOLA-DW15_7
 70
0
 62
7
  6
CONTINUOUS
370
-3
390
F
  0
LAYER
  5
20B
100
AcDbSymbolTableRecord
100
AcDbLayerTableRecord
  2
EBENEN
 70
0
 62
7
  6
CONTINUOUS
370
-3
390
F
  0
LAYER
  5
20C
100
AcDbSymbolTableRecord
100
AcDbLayerTableRecord
  2
FORMATOM_34_4
 70
0
 62
7
  6
CONTINUOUS
370
-3
390
F
  0
LAYER
  5
20D
100
AcDbSymbolTableRecord
100
AcDbLayerTableRecord
  2
GRANO-5X6_69
 70
0
 62
7
  6
CONTINUOUS
370
-3
390
F
  0
LAYER
  5
20E
100
AcDbSymbolTableRecord
100
AcDbLayerTableRecord
  2
K-35_HAZ_AF2_19_2
 70
0
 62
7
  6
CONTINUOUS
370
-3
390
F
  0
LAYER
  5
20F
100
AcDbSymbolTableRecord
100
AcDbLayerTableRecord
  2
K-35_KARTARTO_21_2
 70
0
 62
7
  6
CONTINUOUS
370
-3
390
F
  0
LAYER
  5
210
100
AcDbSymbolTableRecord
100
AcDbLayerTableRecord
  2
K35-KEROX_ASM_23
 70
0
 62
7
  6
CONTINUOUS
370
-3
390
F
  0
LAYER
  5
211
100
AcDbSymbolTableRecord
100
AcDbLayerTableRecord
  2
K35_KAR_AF2_30_3
 70
0
 62
7
  6
CONTINUOUS
370
-3
390
F
  0
LAYER
  5
212
100
AcDbSymbolTableRecord
100
AcDbLayerTableRecord
  2
KOORDINATENSYSTEME
 70
0
 62
7
  6
CONTINUOUS
370
-3
390
F
  0
LAYER
  5
213
100
AcDbSymbolTableRecord
100
AcDbLayerTableRecord
  2
O-RING_15_1X1_6_152
 70
0
 62
7
  6
CONTINUOUS
370
-3
390
F
  0
LAYER
  5
214
100
AcDbSymbolTableRecord
100
AcDbLayerTableRecord
  2
O-RING_32_99X2_62_152
 70
0
 62
7
  6
CONTINUOUS
370
-3
390
F
  0
LAYER
  5
215
100
AcDbSymbolTableRecord
100
AcDbLayerTableRecord
  2
STD-COORD-SYS
 70
0
 62
7
  6
CONTINUOUS
370
-3
390
F
  0
LAYER
  5
216
100
AcDbSymbolTableRecord
100
AcDbLayerTableRecord
  2
STIFT4X16_AF2_85_3
 70
0
 62
7
  6
CONTINUOUS
370
-3
390
F
  0
LAYER
  5
217
100
AcDbSymbolTableRecord
100
AcDbLayerTableRecord
  2
TEFLONGY_AF2_12_3
 70
0
 62
7
  6
CONTINUOUS
370
-3
390
F
  0
LAYER
  5
218
100
AcDbSymbolTableRecord
100
AcDbLayerTableRecord
  2
VALVOLA-DW15_ASM_8
 70
0
 62
7
  6
CONTINUOUS
370
-3
390
F
  0
ENDTAB
  0
TABLE
  2
STYLE
  5
3
100
AcDbSymbolTable
 70
1
  0
STYLE
  5
11
100
AcDbSymbolTableRecord
100
AcDbTextStyleTableRecord
  2
STANDARD
 70
0
 40
0.0
 41
0.8
 50
0.0
 71
0
 42
0.2
  3
txt
  4

  0
STYLE
  5
219
100
AcDbSymbolTableRecord
100
AcDbTextStyleTableRecord
  2
TEXTSTYLE_1
 70
0
 40
0.0
 41
0.8
 50
0.0
 71
0
 42
0.2
  3
gdt
  4

  0
ENDTAB
  0
TABLE
  2
VIEW
  5
6
100
AcDbSymbolTable
 70
0
  0
ENDTAB
  0
TABLE
  2
UCS
  5
7
100
AcDbSymbolTable
 70
0
  0
ENDTAB
  0
TABLE
  2
APPID
  5
9
100
AcDbSymbolTable
 70
1
  0
APPID
  5
21A
100
AcDbSymbolTableRecord
100
AcDbRegAppTableRecord
  2
ACAD
 70
0
  0
ENDTAB
  0
TABLE
  2
BLOCK_RECORD
  5
1
100
AcDbSymbolTable
 70
0
  0
BLOCK_RECORD
  5
21B
100
AcDbSymbolTableRecord
100
AcDbBlockTableRecord
  2
*Model_Space
  0
BLOCK_RECORD
  5
21C
100
AcDbSymbolTableRecord
100
AcDbBlockTableRecord
  2
*Paper_Space
  0
BLOCK_RECORD
  5
21D
100
AcDbSymbolTableRecord
100
AcDbBlockTableRecord
  2
_FILLED
  0
ENDTAB
  0
TABLE
  2
DIMSTYLE
  5
A
100
AcDbSymbolTable
 70
1
100
AcDbDimStyleTable
 71
0
  0
DIMSTYLE
105
21E
100
AcDbSymbolTableRecord
100
AcDbDimStyleTableRecord
  2
STANDARD
 70
0
  3

  4

 40
1.0
 41
3.0
 42
0.0
 43
0.38
 44
1.5
 45
0.0
 46
0.0
 47
0.001
 48
0.001
140
3.5
141
0.09
142
0.0
143
25.4
144
1.0
145
0.0
146
1.0
147
0.625
 71
1.0
 72
0.0
 73
0
 74
0
 75
0
 76
0
 77
1
 78
8
 79
2
170
0
171
2
172
0
173
0
174
0
175
0
176
0
177
0
178
5
270
2
179
3
271
3
272
3
273
2
274
2
275
0
280
0
281
0
282
0
283
1
284
8
285
0
286
0
287
3
288
0
340
11
278
46
341
21D
342
21D
343
21D
344
21D
  0
ENDTAB
  0
ENDSEC
  0
SECTION
  2
BLOCKS
  0
BLOCK
  5
20
100
AcDbEntity
  8
0
100
AcDbBlockBegin
  2
*Model_Space
 70
0
 10
0.0
 20
0.0
 30
0.0
  3
*Model_Space
  1

  0
ENDBLK
  5
21
100
AcDbEntity
  8
0
100
AcDbBlockEnd
  0
BLOCK
  5
1C
100
AcDbEntity
  8
0
100
AcDbBlockBegin
  2
*Paper_Space
 70
0
 10
0.0
 20
0.0
 30
0.0
  3
*Paper_Space
  1

  0
ENDBLK
  5
1D
100
AcDbEntity
  8
0
100
AcDbBlockEnd
  0
BLOCK
  5
21F
100
AcDbEntity
  8
0
100
AcDbBlockBegin
  2
_FILLED
 70
64
 10
0.0
 20
0.0
  3
_FILLED
  1

  0
SOLID
  5
220
100
AcDbEntity
  8
0
  6
BYBLOCK
 62
0
100
AcDbTrace
 10
0.0
 20
0.0
 11
-1.0
 21
0.2166666667
 12
-1.0
 22
-0.2166666667
 13
-1.0
 23
-0.2166666667
  0
ENDBLK
  5
221
100
AcDbEntity
  8
0
  6
BYBLOCK
 62
0
100
AcDbBlockEnd
  0
ENDSEC
  0
SECTION
  2
ENTITIES
  0
LINE
  5
222
100
AcDbEntity
  8
0
100
AcDbLine
 62
7
  6
CONTINUOUS
 10
0.0
 20
0.0
 11
0.0
 21
297.0
  0
LINE
  5
223
100
AcDbEntity
  8
0
100
AcDbLine
 62
7
  6
CONTINUOUS
 10
0.0
 20
0.0
 11
420.0
 21
0.0
  0
LINE
  5
224
100
AcDbEntity
  8
0
100
AcDbLine
 62
7
  6
CONTINUOUS
 10
0.0
 20
297.0
 11
420.0
 21
297.0
  0
LINE
  5
225
100
AcDbEntity
  8
0
100
AcDbLine
 62
7
  6
CONTINUOUS
 10
420.0
 20
0.0
 11
420.0
 21
297.0
  0
LINE
  5
226
100
AcDbEntity
  8
CO830K-A1198_2
100
AcDbLine
 62
9
  6
CONTINUOUS
 10
102.041304365
 20
181.9899457941
 11
102.341346905
 21
181.9899457941
  0
LINE
  5
227
100
AcDbEntity
  8
CO830K-A1198_2
100
AcDbLine
 62
9
  6
CONTINUOUS
 10
120.4412924369
 20
181.9899457941
 11
120.7413043478
 21
181.9899457941
  0
LINE
  5
228
100
AcDbEntity
  8
CO830K-A1198_2
100
AcDbLine
 62
9
  6
CONTINUOUS
 10
99.0659420056
 20
240.046610874
 11
99.2200090349
 21
240.3040275605
  0
LINE
  5
229
100
AcDbEntity
  8
AI0193_9
100
AcDbLine
 62
7
  6
CONTINUOUS
 10
101.0413043478
 20
215.9899137276
 11
102.0413043478
 21
215.9899137276
  0
LINE
  5
22A
100
AcDbEntity
  8
AI0193_9
100
AcDbLine
 62
7
  6
CONTINUOUS
 10
120.7413043478
 20
215.9899137276
 11
121.7413043478
 21
215.9899137276
  0
LINE
  5
22B
100
AcDbEntity
  8
AI0193_9
100
AcDbLine
 62
7
  6
CONTINUOUS
 10
102.0413043478
 20
214.9899137276
 11
101.0413043478
 21
215.9899137276
  0
LINE
  5
22C
100
AcDbEntity
  8
AI0193_9
100
AcDbLine
 62
7
  6
CONTINUOUS
 10
98.3926957198
 20
225.4399137276
 11
98.3926957198
 21
232.4751670442
  0
LINE
  5
22D
100
AcDbEntity
  8
AI0193_9
100
AcDbLine
 62
7
  6
CONTINUOUS
 10
101.0413043478
 20
225.4399137276
 11
101.0413043478
 21
215.9899137276
  0
LINE
  5
22E
100
AcDbEntity
  8
CO830K-A1198_2
100
AcDbLine
 62
7
  6
CONTINUOUS
 10
102.0413043478
 20
234.7980829234
 11
102.0413043478
 21
181.9899457941
  0
LINE
  5
22F
100
AcDbEntity
  8
CO830K-A1198_2
100
AcDbLine
 62
9
  6
CONTINUOUS
 10
102.341341419
 20
181.9899457941
 11
102.3413153198
 21
234.798146632
  0
LINE
  5
230
100
AcDbEntity
  8
CO830K-A1198_2
100
AcDbLine
 62
7
  6
CONTINUOUS
 10
122.937922156
 20
239.4611065282
 11
123.3756802515
 21
239.8112638038
  0
LINE
  5
231
100
AcDbEntity
  8
CO830K-A1198_2
100
AcDbLine
 62
7
  6
CONTINUOUS
 10
123.3756802515
 20
239.8112638038
 11
123.8389028796
 21
240.1202649663
  0
LINE
  5
232
100
AcDbEntity
  8
AI0193_9
100
AcDbLine
 62
9
  6
CONTINUOUS
 10
120.7413043478
 20
231.7260806933
 11
124.3899129759
 21
232.4751670442
  0
LINE
  5
233
100
AcDbEntity
  8
AI0193_9
100
AcDbLine
 62
7
  6
CONTINUOUS
 10
98.3927029031
 20
225.4399137276
 11
102.0413043478
 21
225.4399137276
  0
LINE
  5
234
100
AcDbEntity
  8
AI0193_9
100
AcDbLine
 62
7
  6
CONTINUOUS
 10
120.7413043478
 20
225.4399137276
 11
124.3899057925
 21
225.4399137276
  0
LINE
  5
235
100
AcDbEntity
  8
AI0193_9
100
AcDbLine
 62
9
  6
CONTINUOUS
 10
98.3926957198
 20
232.4751670442
 11
102.0413043478
 21
231.7260812065
  0
LWPOLYLINE
  5
236
100
AcDbEntity
  8
CO830K-A1198_2
100
AcDbPolyline
 62
7
  6
CONTINUOUS
 90
9
 70
0
 10
120.8183498552
 20
235.6295049776
 10
120.9283714314
 20
236.173368804
 10
121.0855090824
 20
236.7062785401
 10
121.2888480828
 20
237.224645284
 10
121.5369459141
 20
237.7242778633
 10
121.8282976051
 20
238.2016490912
 10
122.1606411991
 20
238.6526315438
 10
122.5317529689
 20
239.0738780446
 10
122.937922156
 20
239.4611065282
  0
LINE
  5
237
100
AcDbEntity
  8
AI0193_9
100
AcDbLine
 62
7
  6
CONTINUOUS
 10
120.959781694
 20
236.2798921906
 11
188.5179710226
 21
246.2967491889
  0
LINE
  5
238
100
AcDbEntity
  8
AI0193_9
100
AcDbLine
 62
9
  6
CONTINUOUS
 10
188.6107034412
 20
247.2515322172
 11
131.2493444601
 21
238.746712712
  0
LINE
  5
239
100
AcDbEntity
  8
CO830K-A1198_2
100
AcDbLine
 62
9
  6
CONTINUOUS
 10
102.341346905
 20
234.7980749508
 11
102.041304365
 21
234.7980749508
  0
LINE
  5
23A
100
AcDbEntity
  8
CO830K-A1198_2
100
AcDbLine
 62
9
  6
CONTINUOUS
 10
120.7413043478
 20
234.7987436663
 11
120.4412924369
 21
234.7987436663
  0
LINE
  5
23B
100
AcDbEntity
  8
AI0193_9
100
AcDbLine
 62
7
  6
CONTINUOUS
 10
34.2646376731
 20
246.2967491889
 11
101.823021412
 21
236.2798633654
  0
LINE
  5
23C
100
AcDbEntity
  8
AI0193_9
100
AcDbLine
 62
9
  6
CONTINUOUS
 10
91.5332639143
 20
238.7467130564
 11
34.1719051356
 21
247.251532396
  0
LWPOLYLINE
  5
23D
100
AcDbEntity
  8
CO830K-A1198_2
100
AcDbPolyline
 62
7
  6
CONTINUOUS
 90
13
 70
0
 10
98.9454638017
 20
240.119198721
 10
99.4089182973
 20
239.8100500008
 10
99.8465322328
 20
239.4599348859
 10
100.2522675106
 20
239.0730089816
 10
100.6229016733
 20
238.6521895932
 10
100.9549089283
 20
238.2015510163
 10
101.2460165297
 20
237.7244613894
 10
101.4939719713
 20
237.2249805527
 10
101.6972279972
 20
236.7066558991
 10
101.8543229336
 20
236.1736634044
 10
101.9643150612
 20
235.6296178901
 10
102.0265047133
 20
235.0773206327
 10
102.0360609615
 20
234.7979035961
  0
LINE
  5
23E
100
AcDbEntity
  8
CO830K-A1198_2
100
AcDbLine
 62
9
  6
CONTINUOUS
 10
120.4412894649
 20
234.7988125819
 11
120.4412954111
 21
181.9895518419
  0
LINE
  5
23F
100
AcDbEntity
  8
CO830K-A1198_2
100
AcDbLine
 62
7
  6
CONTINUOUS
 10
120.7413043478
 20
181.9899457942
 11
120.7413043478
 21
234.7987669714
  0
LINE
  5
240
100
AcDbEntity
  8
AI0193_9
100
AcDbLine
 62
7
  6
CONTINUOUS
 10
121.7413043478
 20
225.4399137276
 11
121.7413043478
 21
215.9899137276
  0
LINE
  5
241
100
AcDbEntity
  8
AI0193_9
100
AcDbLine
 62
7
  6
CONTINUOUS
 10
124.3899129759
 20
225.4399137276
 11
124.3899129759
 21
232.4751670442
  0
LWPOLYLINE
  5
242
100
AcDbEntity
  8
CO830K-A1198_2
100
AcDbPolyline
 62
7
  6
CONTINUOUS
 90
3
 70
0
 10
120.7465784921
 20
234.7985863365
 10
120.7561297004
 20
235.0774607837
 10
120.8183498552
 20
235.6295049776
  0
LINE
  5
243
100
AcDbEntity
  8
AI0193_9
100
AcDbLine
 62
7
  6
CONTINUOUS
 10
120.7413043478
 20
214.9899137276
 11
121.7413043478
 21
215.9899137276
  0
LINE
  5
244
100
AcDbEntity
  8
CO830K-A1198_2
100
AcDbLine
 62
9
  6
CONTINUOUS
 10
123.5621345814
 20
240.303749212
 11
123.7161957236
 21
240.0463290021
  0
LINE
  5
245
100
AcDbEntity
  8
AI0193_9
100
AcDbLine
 62
9
  6
CONTINUOUS
 10
34.1718746701
 20
273.9593216239
 11
91.0318047981
 21
282.3899805329
  0
LINE
  5
246
100
AcDbEntity
  8
AI0193_9
100
AcDbLine
 62
7
  6
CONTINUOUS
 10
107.6513043478
 20
285.8641881019
 11
34.2646376856
 21
274.9831424011
  0
LINE
  5
247
100
AcDbEntity
  8
AI0193_9
100
AcDbLine
 62
7
  6
CONTINUOUS
 10
111.3874984125
 20
286.1399455101
 11
111.3992723187
 21
286.1399445492
  0
LINE
  5
248
100
AcDbEntity
  8
AI0193_9
100
AcDbLine
 62
9
  6
CONTINUOUS
 10
131.7508038975
 20
282.3899805329
 11
188.6107340681
 21
273.9593215899
  0
LINE
  5
249
100
AcDbEntity
  8
AI0193_9
100
AcDbLine
 62
7
  6
CONTINUOUS
 10
188.51797101
 20
274.9831424011
 11
115.1313043478
 21
285.8641881019
  0
LINE
  5
24A
100
AcDbEntity
  8
AI0261_31
100
AcDbLine
 62
7
  6
CONTINUOUS
 10
279.1979573458
 20
269.8899457941
 11
280.1979573458
 21
270.8899457941
  0
LINE
  5
24B
100
AcDbEntity
  8
AC53CC919UPSIL_4
100
AcDbLine
 62
7
  6
CONTINUOUS
 10
278.4979573458
 20
266.8899457941
 11
278.4979573458
 21
254.3899457941
  0
LINE
  5
24C
100
AcDbEntity
  8
AC53CC919UPSIL_4
100
AcDbLine
 62
9
  6
CONTINUOUS
 10
278.9979573458
 20
267.3899457941
 11
278.9979573458
 21
253.8899457941
  0
LINE
  5
24D
100
AcDbEntity
  8
AI0261_31
100
AcDbLine
 62
7
  6
CONTINUOUS
 10
279.1979573458
 20
269.8899176173
 11
279.1979573458
 21
251.3899739709
  0
LINE
  5
24E
100
AcDbEntity
  8
AI0261_31
100
AcDbLine
 62
7
  6
CONTINUOUS
 10
280.1979573458
 20
270.8899457941
 11
280.1979573458
 21
250.3899457941
  0
LINE
  5
24F
100
AcDbEntity
  8
AI0261_31
100
AcDbLine
 62
7
  6
CONTINUOUS
 10
295.4288974534
 20
271.2899457941
 11
295.775307615
 21
271.8899457941
  0
LINE
  5
250
100
AcDbEntity
  8
CO830K-A1198_2
100
AcDbLine
 62
7
  6
CONTINUOUS
 10
396.1979573458
 20
172.6399457941
 11
395.2568977772
 21
172.6399457941
  0
LINE
  5
251
100
AcDbEntity
  8
AI0193_9
100
AcDbLine
 62
9
  6
CONTINUOUS
 10
332.9999205865
 20
283.4137841183
 11
318.6682259595
 21
274.9831424011
  0
LINE
  5
252
100
AcDbEntity
  8
AI0193_9
100
AcDbLine
 62
9
  6
CONTINUOUS
 10
319.6385217365
 20
273.9593216239
 11
333.9701900326
 21
282.3899805329
  0
LINE
  5
253
100
AcDbEntity
  8
CO830K-A1198_2
100
AcDbLine
 62
9
  6
CONTINUOUS
 10
391.2979573458
 20
181.9899457941
 11
396.4979573428
 21
181.9899457941
  0
LINE
  5
254
100
AcDbEntity
  8
AI0261_31
100
AcDbLine
 62
9
  6
CONTINUOUS
 10
294.7360771304
 20
250.3899457941
 11
294.7360771304
 21
270.8899457941
  0
LINE
  5
255
100
AcDbEntity
  8
AI0261_31
100
AcDbLine
 62
9
  6
CONTINUOUS
 10
295.4288974534
 20
271.2899457941
 11
295.4288974534
 21
249.9899457941
  0
LINE
  5
256
100
AcDbEntity
  8
AI0261_31
100
AcDbLine
 62
7
  6
CONTINUOUS
 10
295.775307615
 20
271.8899457941
 11
295.775307615
 21
249.3899457941
  0
LINE
  5
257
100
AcDbEntity
  8
AI0193_9
100
AcDbLine
 62
7
  6
CONTINUOUS
 10
298.6979573458
 20
286.1398874635
 11
298.6979573458
 21
271.8899457941
  0
LINE
  5
258
100
AcDbEntity
  8
AI0193_9
100
AcDbLine
 62
7
  6
CONTINUOUS
 10
298.6979573458
 20
249.3899457941
 11
298.6979573458
 21
235.1400041247
  0
LINE
  5
259
100
AcDbEntity
  8
AI0193_9
100
AcDbLine
 62
7
  6
CONTINUOUS
 10
299.1979573458
 20
275.4389371382
 11
299.1979573458
 21
245.84095445
  0
LINE
  5
25A
100
AcDbEntity
  8
AI0193_9
100
AcDbLine
 62
7
  6
CONTINUOUS
 10
304.199348718
 20
230.1399457896
 11
304.199348718
 21
225.4399137276
  0
LINE
  5
25B
100
AcDbEntity
  8
AI0193_9
100
AcDbLine
 62
7
  6
CONTINUOUS
 10
306.8479573458
 20
215.9899137276
 11
306.8479573458
 21
225.4399137276
  0
LINE
  5
25C
100
AcDbEntity
  8
AI0193_9
100
AcDbLine
 62
7
  6
CONTINUOUS
 10
308.1979573458
 20
214.6399137276
 11
308.1979573458
 21
213.6399137276
  0
LINE
  5
25D
100
AcDbEntity
  8
AI0193_9
100
AcDbLine
 62
7
  6
CONTINUOUS
 10
306.8479573458
 20
215.9899137276
 11
308.1979573458
 21
214.6399137276
  0
LINE
  5
25E
100
AcDbEntity
  8
AI0193_9
100
AcDbLine
 62
9
  6
CONTINUOUS
 10
315.3498862698
 20
260.6699596484
 11
315.3488816743
 21
260.6399457941
  0
LINE
  5
25F
100
AcDbEntity
  8
AI0193_9
100
AcDbLine
 62
9
  6
CONTINUOUS
 10
304.2103196995
 20
230.1487663222
 11
304.2996146853
 21
230.2217386861
  0
LINE
  5
260
100
AcDbEntity
  8
AI0193_9
100
AcDbLine
 62
9
  6
CONTINUOUS
 10
304.199348718
 20
230.1399457751
 11
304.6072162631
 21
230.4697736089
  0
LINE
  5
261
100
AcDbEntity
  8
AI0193_9
100
AcDbLine
 62
9
  6
CONTINUOUS
 10
299.2143454905
 20
235.1474921943
 11
299.1993487244
 21
235.1399457974
  0
LINE
  5
262
100
AcDbEntity
  8
AI0193_9
100
AcDbLine
 62
9
  6
CONTINUOUS
 10
299.7641052398
 20
235.4157034813
 11
299.1993488398
 21
235.1399457941
  0
LINE
  5
263
100
AcDbEntity
  8
AI0261_31
100
AcDbLine
 62
7
  6
CONTINUOUS
 10
279.1979573458
 20
251.3899457941
 11
280.1979573458
 21
250.3899457941
  0
LINE
  5
264
100
AcDbEntity
  8
AI0261_31
100
AcDbLine
 62
7
  6
CONTINUOUS
 10
295.4288974534
 20
249.9899457941
 11
295.775307615
 21
249.3899457941
  0
LINE
  5
265
100
AcDbEntity
  8
AI0193_9
100
AcDbLine
 62
9
  6
CONTINUOUS
 10
317.1979573458
 20
232.475166906
 11
317.1979573458
 21
237.4210962763
  0
LINE
  5
266
100
AcDbEntity
  8
AI0193_9
100
AcDbLine
 62
7
  6
CONTINUOUS
 10
308.1979573458
 20
213.6399137276
 11
326.1979573458
 21
213.6399137276
  0
LINE
  5
267
100
AcDbEntity
  8
AI0193_9
100
AcDbLine
 62
7
  6
CONTINUOUS
 10
326.1979573458
 20
214.6399137276
 11
326.1979573458
 21
213.6399137276
  0
LINE
  5
268
100
AcDbEntity
  8
AI0193_9
100
AcDbLine
 62
7
  6
CONTINUOUS
 10
326.1979573458
 20
214.6399137276
 11
308.1979573458
 21
214.6399137276
  0
LINE
  5
269
100
AcDbEntity
  8
AI0193_9
100
AcDbLine
 62
7
  6
CONTINUOUS
 10
306.8479573458
 20
215.9899137276
 11
327.5479573458
 21
215.9899137276
  0
LINE
  5
26A
100
AcDbEntity
  8
AI0193_9
100
AcDbLine
 62
7
  6
CONTINUOUS
 10
327.5479573458
 20
215.9899137276
 11
327.5479573458
 21
225.4399137276
  0
LINE
  5
26B
100
AcDbEntity
  8
AI0193_9
100
AcDbLine
 62
7
  6
CONTINUOUS
 10
330.1965659738
 20
230.139943164
 11
330.1965659738
 21
225.4399137276
  0
LINE
  5
26C
100
AcDbEntity
  8
AI0193_9
100
AcDbLine
 62
7
  6
CONTINUOUS
 10
304.1993487177
 20
225.4399137276
 11
330.1965659738
 21
225.4399137276
  0
LWPOLYLINE
  5
26D
100
AcDbEntity
  8
AI0193_9
100
AcDbPolyline
 62
9
  6
CONTINUOUS
 90
3
 70
0
 10
329.7886984615
 20
230.469773991
 10
330.0170067317
 20
230.2860020362
 10
330.0962215421
 20
230.2218061244
  0
LINE
  5
26E
100
AcDbEntity
  8
AI0193_9
100
AcDbLine
 62
9
  6
CONTINUOUS
 10
329.7886984573
 20
230.4697739042
 11
330.1965659738
 21
230.1399457061
  0
LINE
  5
26F
100
AcDbEntity
  8
AI0193_9
100
AcDbLine
 62
9
  6
CONTINUOUS
 10
330.1523116925
 20
230.1760663133
 11
330.1855863964
 21
230.148778167
  0
LINE
  5
270
100
AcDbEntity
  8
AI0193_9
100
AcDbLine
 62
9
  6
CONTINUOUS
 10
343.4123796987
 20
235.1399457941
 11
343.4123796987
 21
286.1399455101
  0
LINE
  5
271
100
AcDbEntity
  8
AI0193_9
100
AcDbLine
 62
7
  6
CONTINUOUS
 10
327.5479573458
 20
215.9899137276
 11
326.1979573458
 21
214.6399137276
  0
LINE
  5
272
100
AcDbEntity
  8
CO830K-A1198_2
100
AcDbLine
 62
7
  6
CONTINUOUS
 10
381.0698070688
 20
236.6428677084
 11
381.0479573458
 21
236.6399457941
  0
LINE
  5
273
100
AcDbEntity
  8
AI0193_9
100
AcDbLine
 62
7
  6
CONTINUOUS
 10
344.9824594192
 20
235.1810598056
 11
363.6979573458
 21
236.1618974901
  0
LINE
  5
274
100
AcDbEntity
  8
CO830K-A1198_2
100
AcDbLine
 62
9
  6
CONTINUOUS
 10
396.4979573428
 20
234.7980749508
 11
396.1978558448
 21
234.7980749508
  0
LINE
  5
275
100
AcDbEntity
  8
AI0193_9
100
AcDbLine
 62
7
  6
CONTINUOUS
 10
298.6979573458
 20
235.1399457941
 11
299.1993487177
 21
235.1399457941
  0
LINE
  5
276
100
AcDbEntity
  8
AI0193_9
100
AcDbLine
 62
7
  6
CONTINUOUS
 10
335.1965659738
 20
235.1399457941
 11
343.4123796986
 21
235.1399457941
  0
LINE
  5
277
100
AcDbEntity
  8
AI0193_9
100
AcDbLine
 62
9
  6
CONTINUOUS
 10
298.6979573458
 20
235.4157034864
 11
299.7641051253
 21
235.4157034864
  0
LINE
  5
278
100
AcDbEntity
  8
AI0193_9
100
AcDbLine
 62
9
  6
CONTINUOUS
 10
334.6318095904
 20
235.4157034864
 11
341.1900224961
 21
235.4157034864
  0
LINE
  5
279
100
AcDbEntity
  8
AI0193_9
100
AcDbLine
 62
9
  6
CONTINUOUS
 10
335.1965659052
 20
235.1399457941
 11
334.631809526
 21
235.4157034835
  0
LINE
  5
27A
100
AcDbEntity
  8
AI0193_9
100
AcDbLine
 62
9
  6
CONTINUOUS
 10
335.1965664294
 20
235.1399457941
 11
335.1816031847
 21
235.1474759943
  0
LINE
  5
27B
100
AcDbEntity
  8
AI0193_9
100
AcDbLine
 62
9
  6
CONTINUOUS
 10
317.7148789789
 20
246.2967491889
 11
331.565942609
 21
237.7916647045
  0
LINE
  5
27C
100
AcDbEntity
  8
AI0193_9
100
AcDbLine
 62
9
  6
CONTINUOUS
 10
332.5360765738
 20
238.7467130564
 11
318.6851905038
 21
247.251532396
  0
LINE
  5
27D
100
AcDbEntity
  8
616101_1
100
AcDbLine
 62
9
  6
CONTINUOUS
 10
381.1918034996
 20
236.5340704937
 11
385.7536771361
 21
236.5340704937
  0
LINE
  5
27E
100
AcDbEntity
  8
616101_1
100
AcDbLine
 62
9
  6
CONTINUOUS
 10
381.0979573458
 20
236.633880965
 11
385.4488495246
 21
236.633880965
  0
LINE
  5
27F
100
AcDbEntity
  8
CO830K-A1198_2
100
AcDbLine
 62
7
  6
CONTINUOUS
 10
366.9979573458
 20
236.6399457941
 11
381.0479573458
 21
236.6399457941
  0
LINE
  5
280
100
AcDbEntity
  8
616101_1
100
AcDbLine
 62
7
  6
CONTINUOUS
 10
381.1918034996
 20
236.5340704937
 11
384.2479573458
 21
236.4399457941
  0
LINE
  5
281
100
AcDbEntity
  8
CO830K-A1198_2
100
AcDbLine
 62
7
  6
CONTINUOUS
 10
377.4898796543
 20
284.6399457941
 11
367.0916495587
 21
262.3408693932
  0
LINE
  5
282
100
AcDbEntity
  8
AI0193_9
100
AcDbLine
 62
9
  6
CONTINUOUS
 10
317.7148789789
 20
246.2967491889
 11
299.1979573458
 21
246.2967491878
  0
LINE
  5
283
100
AcDbEntity
  8
AI0261_31
100
AcDbLine
 62
7
  6
CONTINUOUS
 10
295.775307615
 20
249.3899457941
 11
299.1979573458
 21
249.3899457941
  0
LINE
  5
284
100
AcDbEntity
  8
AI0261_31
100
AcDbLine
 62
7
  6
CONTINUOUS
 10
280.1979573458
 20
250.3899457941
 11
294.7360771304
 21
250.3899457941
  0
LINE
  5
285
100
AcDbEntity
  8
AI0193_9
100
AcDbLine
 62
7
  6
CONTINUOUS
 10
363.6979573458
 20
236.1618974901
 11
363.6979573458
 21
285.1179940981
  0
LINE
  5
286
100
AcDbEntity
  8
AC53CC919UPSIL_4
100
AcDbLine
 62
7
  6
CONTINUOUS
 10
278.9979573458
 20
253.8899457941
 11
279.1979573458
 21
253.8899457941
  0
LINE
  5
287
100
AcDbEntity
  8
CO830K-A1198_2
100
AcDbLine
 62
7
  6
CONTINUOUS
 10
366.9979573458
 20
261.9182511315
 11
366.9979573458
 21
236.6399457941
  0
LINE
  5
288
100
AcDbEntity
  8
AC53CC919UPSIL_4
100
AcDbLine
 62
7
  6
CONTINUOUS
 10
278.9979573458
 20
267.3899457941
 11
279.1979573458
 21
267.3899457941
  0
LINE
  5
289
100
AcDbEntity
  8
AI0261_31
100
AcDbLine
 62
7
  6
CONTINUOUS
 10
280.1979573458
 20
270.8899457941
 11
294.7360771304
 21
270.8899457941
  0
LINE
  5
28A
100
AcDbEntity
  8
AI0261_31
100
AcDbLine
 62
7
  6
CONTINUOUS
 10
295.775307615
 20
271.8899457941
 11
299.1979573458
 21
271.8899457941
  0
LINE
  5
28B
100
AcDbEntity
  8
AI0193_9
100
AcDbLine
 62
9
  6
CONTINUOUS
 10
318.6682259595
 20
274.9831424011
 11
299.1979573458
 21
274.9831424005
  0
LINE
  5
28C
100
AcDbEntity
  8
CO830K-A1198_2
100
AcDbLine
 62
7
  6
CONTINUOUS
 10
391.2979573458
 20
228.6399457941
 11
391.2979573458
 21
181.9899457941
  0
LINE
  5
28D
100
AcDbEntity
  8
CO830K-A1198_2
100
AcDbLine
 62
7
  6
CONTINUOUS
 10
377.4898796543
 20
284.6399457941
 11
396.1979573458
 21
284.6399457941
  0
LINE
  5
28E
100
AcDbEntity
  8
CO830K-A1198_2
100
AcDbLine
 62
9
  6
CONTINUOUS
 10
394.0249554811
 20
232.1341250114
 11
394.0249554424
 21
173.2841899389
  0
LINE
  5
28F
100
AcDbEntity
  8
CO830K-A1198_2
100
AcDbLine
 62
9
  6
CONTINUOUS
 10
395.2568780014
 20
234.6445888214
 11
395.2568977772
 21
172.6399457941
  0
LINE
  5
290
100
AcDbEntity
  8
CO830K-A1198_2
100
AcDbLine
 62
9
  6
CONTINUOUS
 10
396.1979573458
 20
172.6399457941
 11
396.1977656358
 21
234.7980829234
  0
LINE
  5
291
100
AcDbEntity
  8
CO830K-A1198_2
100
AcDbLine
 62
9
  6
CONTINUOUS
 10
396.1979573458
 20
240.0465844081
 11
396.1979573458
 21
284.6399457941
  0
LINE
  5
292
100
AcDbEntity
  8
CO830K-A1198_2
100
AcDbLine
 62
7
  6
CONTINUOUS
 10
396.4979573458
 20
172.9399551417
 11
396.4979573458
 21
284.3394960672
  0
LINE
  5
293
100
AcDbEntity
  8
AI0193_9
100
AcDbLine
 62
9
  6
CONTINUOUS
 10
343.3438806088
 20
285.8641881019
 11
298.6979573458
 21
285.8641881019
  0
LINE
  5
294
100
AcDbEntity
  8
AI0193_9
100
AcDbLine
 62
7
  6
CONTINUOUS
 10
298.6979573458
 20
286.1399457941
 11
343.4123725544
 21
286.1399457941
  0
LINE
  5
295
100
AcDbEntity
  8
AI0193_9
100
AcDbLine
 62
7
  6
CONTINUOUS
 10
345.0178765147
 20
286.0969753494
 11
363.6979573458
 21
285.1179940981
  0
LINE
  5
296
100
AcDbEntity
  8
AI0261_31
100
AcDbLine
 62
7
  6
CONTINUOUS
 10
280.1979573458
 20
190.953125
 11
279.1979573458
 21
189.953125
  0
LINE
  5
297
100
AcDbEntity
  8
AI0261_31
100
AcDbLine
 62
7
  6
CONTINUOUS
 10
280.1979573458
 20
17.453125
 11
279.1979573458
 21
18.453125
  0
LWPOLYLINE
  5
298
100
AcDbEntity
  8
AI0193_9
100
AcDbPolyline
 62
7
  6
CONTINUOUS
 90
31
 70
0
 10
315.4073531803
 20
14.7048065747
 10
315.5358548947
 20
14.7204395075
 10
315.6657901486
 20
14.7536468657
 10
315.7835963914
 20
14.8003486612
 10
315.8876799831
 20
14.8566747964
 10
315.9768191247
 20
14.9182419046
 10
316.0541399054
 20
14.9837521583
 10
316.1229351595
 20
15.0537196433
 10
316.1834466319
 20
15.1265662621
 10
316.2372342247
 20
15.2022367612
 10
316.2872804495
 20
15.2835541436
 10
316.3352450471
 20
15.3723403179
 10
316.3896585602
 20
15.4858277641
 10
316.4633073845
 20
15.6583117756
 10
316.5566360039
 20
15.9007623322
 10
316.6752830578
 20
16.2358729314
 10
316.8139484595
 20
16.6535217521
 10
316.9576864765
 20
17.107218868
 10
317.1119520961
 20
17.6114998432
 10
317.2784927444
 20
18.1715086864
 10
317.4561107415
 20
18.783056662
 10
317.6445902209
 20
19.4452957827
 10
317.8430108616
 20
20.1549699567
 10
318.0506441992
 20
20.9094757816
 10
318.2664505107
 20
21.7050562336
 10
318.4894772654
 20
22.5382265483
 10
318.7185680028
 20
23.4046968437
 10
318.9525614507
 20
24.3000998587
 10
319.190288166
 20
25.2199846149
 10
319.4305206121
 20
26.1596238856
 10
319.6378983559
 20
26.9787178539
  0
LINE
  5
299
100
AcDbEntity
  8
AI0193_9
100
AcDbLine
 62
7
  6
CONTINUOUS
 10
315.4067756709
 20
14.7047735388
 11
315.4073530834
 21
14.7048066041
  0
LINE
  5
29A
100
AcDbEntity
  8
AI0193_9
100
AcDbLine
 62
7
  6
CONTINUOUS
 10
315.3488816743
 20
14.703125
 11
315.4067756709
 21
14.7047735388
  0
LWPOLYLINE
  5
29B
100
AcDbEntity
  8
AI0193_9
100
AcDbPolyline
 62
7
  6
CONTINUOUS
 90
3
 70
0
 10
315.34887726
 20
14.703125004
 10
315.3728203436
 20
14.7034068331
 10
315.4067756709
 20
14.7047735388
  0
LINE
  5
29C
100
AcDbEntity
  8
AI0193_9
100
AcDbLine
 62
7
  6
CONTINUOUS
 10
315.3488816762
 20
14.703125
 11
299.1979573458
 21
14.703125
  0
LINE
  5
29D
100
AcDbEntity
  8
AI0261_31
100
AcDbLine
 62
7
  6
CONTINUOUS
 10
295.775307615
 20
16.453125
 11
299.1979573458
 21
16.453125
  0
LINE
  5
29E
100
AcDbEntity
  8
AI0261_31
100
AcDbLine
 62
7
  6
CONTINUOUS
 10
280.1979573458
 20
17.453125
 11
294.7360771304
 21
17.453125
  0
LINE
  5
29F
100
AcDbEntity
  8
AI0261_31
100
AcDbLine
 62
7
  6
CONTINUOUS
 10
295.4288974534
 20
191.353125
 11
295.775307615
 21
191.953125
  0
LINE
  5
2A0
100
AcDbEntity
  8
AC53CC919UPSIL_4
100
AcDbLine
 62
7
  6
CONTINUOUS
 10
279.1979573458
 20
20.953125
 11
278.9979573458
 21
20.953125
  0
LINE
  5
2A1
100
AcDbEntity
  8
AI0261_31
100
AcDbLine
 62
7
  6
CONTINUOUS
 10
295.4288974534
 20
17.053125
 11
295.775307615
 21
16.453125
  0
LINE
  5
2A2
100
AcDbEntity
  8
AI0193_9
100
AcDbLine
 62
9
  6
CONTINUOUS
 10
318.6682259595
 20
27.0764583378
 11
299.1979573458
 21
27.0764583333
  0
LINE
  5
2A3
100
AcDbEntity
  8
AC53CC919UPSIL_4
100
AcDbLine
 62
7
  6
CONTINUOUS
 10
279.1979573458
 20
34.453125
 11
278.9979573458
 21
34.453125
  0
LINE
  5
2A4
100
AcDbEntity
  8
AI0261_31
100
AcDbLine
 62
7
  6
CONTINUOUS
 10
280.1979573458
 20
37.953125
 11
294.7360771304
 21
37.953125
  0
LINE
  5
2A5
100
AcDbEntity
  8
AI0261_31
100
AcDbLine
 62
7
  6
CONTINUOUS
 10
295.775307615
 20
38.953125
 11
298.6979573458
 21
38.953125
  0
LINE
  5
2A6
100
AcDbEntity
  8
AC53CC919UPSIL_4
100
AcDbLine
 62
7
  6
CONTINUOUS
 10
278.4979573458
 20
21.453125
 11
278.4979573458
 21
33.953125
  0
LINE
  5
2A7
100
AcDbEntity
  8
AC53CC919UPSIL_4
100
AcDbLine
 62
7
  6
CONTINUOUS
 10
278.4979573458
 20
174.453125
 11
278.4979573458
 21
186.953125
  0
LINE
  5
2A8
100
AcDbEntity
  8
AC53CC919UPSIL_4
100
AcDbLine
 62
9
  6
CONTINUOUS
 10
278.9979573458
 20
187.453125
 11
278.9979573458
 21
173.953125
  0
LINE
  5
2A9
100
AcDbEntity
  8
AC53CC919UPSIL_4
100
AcDbLine
 62
9
  6
CONTINUOUS
 10
278.9979573458
 20
34.453125
 11
278.9979573458
 21
20.953125
  0
LINE
  5
2AA
100
AcDbEntity
  8
AI0261_31
100
AcDbLine
 62
7
  6
CONTINUOUS
 10
279.1979573458
 20
189.953125
 11
279.1979573458
 21
171.453125
  0
LINE
  5
2AB
100
AcDbEntity
  8
AI0261_31
100
AcDbLine
 62
7
  6
CONTINUOUS
 10
279.1979573458
 20
36.953125
 11
279.1979573458
 21
18.453125
  0
LINE
  5
2AC
100
AcDbEntity
  8
AI0261_31
100
AcDbLine
 62
7
  6
CONTINUOUS
 10
280.1979573458
 20
190.953125
 11
280.1979573458
 21
170.453125
  0
LINE
  5
2AD
100
AcDbEntity
  8
AI0261_31
100
AcDbLine
 62
7
  6
CONTINUOUS
 10
280.1979573458
 20
37.953125
 11
280.1979573458
 21
17.453125
  0
LINE
  5
2AE
100
AcDbEntity
  8
AI0261_31
100
AcDbLine
 62
9
  6
CONTINUOUS
 10
294.7360771304
 20
17.453125
 11
294.7360771304
 21
37.953125
  0
LINE
  5
2AF
100
AcDbEntity
  8
AI0261_31
100
AcDbLine
 62
9
  6
CONTINUOUS
 10
294.7360771304
 20
170.453125
 11
294.7360771304
 21
190.953125
  0
LINE
  5
2B0
100
AcDbEntity
  8
AI0261_31
100
AcDbLine
 62
9
  6
CONTINUOUS
 10
295.4288974534
 20
191.353125
 11
295.4288974534
 21
170.053125
  0
LINE
  5
2B1
100
AcDbEntity
  8
AI0261_31
100
AcDbLine
 62
9
  6
CONTINUOUS
 10
295.4288974534
 20
38.353125
 11
295.4288974534
 21
17.053125
  0
LINE
  5
2B2
100
AcDbEntity
  8
AI0261_31
100
AcDbLine
 62
7
  6
CONTINUOUS
 10
295.775307615
 20
191.953125
 11
295.775307615
 21
169.453125
  0
LINE
  5
2B3
100
AcDbEntity
  8
AI0261_31
100
AcDbLine
 62
7
  6
CONTINUOUS
 10
295.775307615
 20
38.953125
 11
295.775307615
 21
16.453125
  0
LINE
  5
2B4
100
AcDbEntity
  8
AI0193_9
100
AcDbLine
 62
7
  6
CONTINUOUS
 10
298.6979573458
 20
175.9576518229
 11
298.6979573458
 21
32.4485981771
  0
LINE
  5
2B5
100
AcDbEntity
  8
AI0193_9
100
AcDbLine
 62
7
  6
CONTINUOUS
 10
299.1979573458
 20
193.703125
 11
299.1979573458
 21
178.2557069323
  0
LINE
  5
2B6
100
AcDbEntity
  8
AI0193_9
100
AcDbLine
 62
7
  6
CONTINUOUS
 10
299.1979573458
 20
30.1505430677
 11
299.1979573458
 21
14.703125
  0
LWPOLYLINE
  5
2B7
100
AcDbEntity
  8
AI0193_9
100
AcDbPolyline
 62
7
  6
CONTINUOUS
 90
6
 70
0
 10
343.570675912
 20
78.7035527724
 10
343.8891069407
 20
78.7069842494
 10
344.2064686851
 20
78.7137770896
 10
344.5227308798
 20
78.7238446827
 10
344.8378698667
 20
78.7371008685
 10
363.6979573458
 20
79.725076696
  0
LINE
  5
2B8
100
AcDbEntity
  8
AI0193_9
100
AcDbLine
 62
7
  6
CONTINUOUS
 10
343.570675912
 20
78.7035527724
 11
335.8446212489
 21
78.703125
  0
LINE
  5
2B9
100
AcDbEntity
  8
CO830K-A1198_2
100
AcDbLine
 62
7
  6
CONTINUOUS
 10
366.9979573458
 20
80.203125
 11
396.1979573458
 21
80.203125
  0
LINE
  5
2BA
100
AcDbEntity
  8
AI0193_9
100
AcDbLine
 62
9
  6
CONTINUOUS
 10
332.9999205865
 20
83.9364983066
 11
318.6682259595
 21
27.0764583378
  0
LINE
  5
2BB
100
AcDbEntity
  8
AI0261_31
100
AcDbLine
 62
7
  6
CONTINUOUS
 10
295.4288974534
 20
38.353125
 11
295.775307615
 21
38.953125
  0
LINE
  5
2BC
100
AcDbEntity
  8
AI0193_9
100
AcDbLine
 62
9
  6
CONTINUOUS
 10
343.3438806088
 20
100.463125
 11
298.6979573458
 21
100.463125
  0
LINE
  5
2BD
100
AcDbEntity
  8
AI0261_31
100
AcDbLine
 62
7
  6
CONTINUOUS
 10
295.4288974534
 20
170.053125
 11
295.775307615
 21
169.453125
  0
LINE
  5
2BE
100
AcDbEntity
  8
AI0193_9
100
AcDbLine
 62
9
  6
CONTINUOUS
 10
318.6682259595
 20
181.3297916622
 11
332.9999205865
 21
124.4697516934
  0
LINE
  5
2BF
100
AcDbEntity
  8
AI0193_9
100
AcDbLine
 62
9
  6
CONTINUOUS
 10
343.4123796987
 20
78.703125
 11
343.4123796987
 21
129.703125
  0
LINE
  5
2C0
100
AcDbEntity
  8
AI0193_9
100
AcDbLine
 62
7
  6
CONTINUOUS
 10
319.6378984114
 20
26.9787180741
 11
333.972912137
 21
83.8519554387
  0
LWPOLYLINE
  5
2C1
100
AcDbEntity
  8
AI0193_9
100
AcDbPolyline
 62
7
  6
CONTINUOUS
 90
4
 70
0
 10
333.972912137
 20
83.8519554387
 10
333.9952796243
 20
83.9393339209
 10
334.0203862744
 20
84.0351333798
 10
334.0498137877
 20
84.1445967828
  0
LINE
  5
2C2
100
AcDbEntity
  8
AI0193_9
100
AcDbLine
 62
7
  6
CONTINUOUS
 10
334.0498137877
 20
84.1445967828
 11
334.0879788499
 21
84.2823894527
  0
LINE
  5
2C3
100
AcDbEntity
  8
AI0193_9
100
AcDbLine
 62
7
  6
CONTINUOUS
 10
334.0879759008
 20
84.2823783512
 11
334.088041976
 21
84.2826130766
  0
LINE
  5
2C4
100
AcDbEntity
  8
AI0261_31
100
AcDbLine
 62
7
  6
CONTINUOUS
 10
280.1979573458
 20
37.953125
 11
279.1979573458
 21
36.953125
  0
LINE
  5
2C5
100
AcDbEntity
  8
AI0193_9
100
AcDbLine
 62
9
  6
CONTINUOUS
 10
298.6979573458
 20
107.943125
 11
343.3438806088
 21
107.943125
  0
LINE
  5
2C6
100
AcDbEntity
  8
AI0261_31
100
AcDbLine
 62
7
  6
CONTINUOUS
 10
280.1979573458
 20
170.453125
 11
279.1979573458
 21
171.453125
  0
LWPOLYLINE
  5
2C7
100
AcDbEntity
  8
AI0193_9
100
AcDbPolyline
 62
7
  6
CONTINUOUS
 90
5
 70
0
 10
334.0880605306
 20
124.1235710122
 10
334.056809168
 20
124.2360565666
 10
334.0279772784
 20
124.3425955775
 10
334.001751141
 20
124.4420135925
 10
333.9777805795
 20
124.5350591377
  0
LWPOLYLINE
  5
2C8
100
AcDbEntity
  8
AI0193_9
100
AcDbPolyline
 62
7
  6
CONTINUOUS
 90
31
 70
0
 10
319.6378984019
 20
181.4275319625
 10
319.4247348991
 20
182.2693730614
 10
319.1787909494
 20
183.2309841557
 10
318.9355264614
 20
184.1716780382
 10
318.6962661912
 20
185.0863556407
 10
318.4622706984
 20
185.9702240388
 10
318.234776667
 20
186.8186391515
 10
318.0150215762
 20
187.6270187746
 10
317.8040228444
 20
188.3916495539
 10
317.602878011
 20
189.108576599
 10
317.4123090552
 20
189.7752222042
 10
317.2333334373
 20
190.3879928367
 10
317.0660181401
 20
190.9465154501
 10
316.9112034892
 20
191.4476770829
 10
316.7681514834
 20
191.893177687
 10
316.6299975766
 20
192.3011706274
 10
316.5168583534
 20
192.6115675379
 10
316.4393960166
 20
192.806050133
 10
316.3799341616
 20
192.9416494989
 10
316.3316364102
 20
193.0409653568
 10
316.2878892622
 20
193.1216360844
 10
316.2432504292
 20
193.1948232149
 10
316.194093714
 20
193.2655872324
 10
316.1342674087
 20
193.3397669808
 10
316.0645559672
 20
193.4126735165
 10
315.986862968
 20
193.4801864697
 10
315.8969556063
 20
193.543784165
 10
315.7915934213
 20
193.6021049896
 10
315.6718258124
 20
193.6506107111
 10
315.539143133
 20
193.6851909728
 10
315.4073723926
 20
193.7014422077
  0
LINE
  5
2C9
100
AcDbEntity
  8
AI0193_9
100
AcDbLine
 62
7
  6
CONTINUOUS
 10
333.9777805795
 20
124.5350591377
 11
319.6378983947
 21
181.4275323795
  0
LWPOLYLINE
  5
2CA
100
AcDbEntity
  8
AI0193_9
100
AcDbPolyline
 62
7
  6
CONTINUOUS
 90
12
 70
0
 10
332.2950123007
 20
77.1949704032
 10
332.3900618413
 20
77.2937207459
 10
332.5915738278
 20
77.4815599861
 10
332.8319264869
 20
77.6796356478
 10
333.1180983072
 20
77.8843312867
 10
333.4464148464
 20
78.0836322253
 10
333.814169697
 20
78.267923913
 10
334.2141865241
 20
78.427268768
 10
334.6361815839
 20
78.5535983105
 10
335.0755550827
 20
78.6431307752
 10
335.5245772119
 20
78.6927897547
 10
335.8445998228
 20
78.703125009
  0
LINE
  5
2CB
100
AcDbEntity
  8
AI0193_9
100
AcDbLine
 62
7
  6
CONTINUOUS
 10
363.6979573458
 20
79.7251855917
 11
363.6979573458
 21
128.6810644083
  0
LINE
  5
2CC
100
AcDbEntity
  8
CO830K-A1198_2
100
AcDbLine
 62
7
  6
CONTINUOUS
 10
366.9979573458
 20
127.3279615124
 11
366.9979573458
 21
126.5866984494
  0
LINE
  5
2CD
100
AcDbEntity
  8
CO830K-A1198_2
100
AcDbLine
 62
7
  6
CONTINUOUS
 10
366.9979573458
 20
81.8195515506
 11
366.9979573458
 21
81.0782916476
  0
LINE
  5
2CE
100
AcDbEntity
  8
CO830K-A1198_2
100
AcDbLine
 62
7
  6
CONTINUOUS
 10
366.9979573458
 20
80.2034106401
 11
366.9979573458
 21
81.0383686779
  0
LINE
  5
2CF
100
AcDbEntity
  8
CO830K-A1198_2
100
AcDbLine
 62
7
  6
CONTINUOUS
 10
366.9979573458
 20
127.3678813221
 11
366.9979573458
 21
128.2028391569
  0
LINE
  5
2D0
100
AcDbEntity
  8
CO830K-A1198_2
100
AcDbLine
 62
7
  6
CONTINUOUS
 10
366.9979573458
 20
128.203125
 11
396.1979573458
 21
128.203125
  0
LWPOLYLINE
  5
2D1
100
AcDbEntity
  8
AI0193_9
100
AcDbPolyline
 62
7
  6
CONTINUOUS
 90
12
 70
0
 10
335.8445998237
 20
129.703124991
 10
335.5245856288
 20
129.7134597011
 10
335.0755716518
 20
129.7631166233
 10
334.6362058019
 20
129.8526456004
 10
334.2142172955
 20
129.9789705044
 10
333.8142055894
 20
130.1383099401
 10
333.4464539315
 20
130.3225960967
 10
333.1181381764
 20
130.5218923166
 10
332.8319654601
 20
130.726584287
 10
332.5916106411
 20
130.9246576256
 10
332.3900958992
 20
131.1124956189
 10
332.2950125117
 20
131.2112791524
  0
LWPOLYLINE
  5
2D2
100
AcDbEntity
  8
AI0193_9
100
AcDbPolyline
 62
7
  6
CONTINUOUS
 90
6
 70
0
 10
344.8331855574
 20
129.6692859324
 10
344.5024978763
 20
129.6830077841
 10
344.1789255925
 20
129.6930822509
 10
343.8625015165
 20
129.6996295924
 10
343.5532517133
 20
129.7027794854
 10
335.8446212489
 20
129.703125
  0
LINE
  5
2D3
100
AcDbEntity
  8
AI0193_9
100
AcDbLine
 62
7
  6
CONTINUOUS
 10
363.6979573458
 20
128.681173304
 11
344.8331855574
 21
129.6692859324
  0
LINE
  5
2D4
100
AcDbEntity
  8
CO830K-A1198_2
100
AcDbLine
 62
9
  6
CONTINUOUS
 10
367.0916495587
 20
128.1427753506
 11
367.0916495587
 21
127.3369155825
  0
LINE
  5
2D5
100
AcDbEntity
  8
CO830K-A1198_2
100
AcDbLine
 62
9
  6
CONTINUOUS
 10
367.0916495587
 20
81.0693344175
 11
367.0916495587
 21
80.2634746494
  0
LINE
  5
2D6
100
AcDbEntity
  8
CO830K-A1198_2
100
AcDbLine
 62
9
  6
CONTINUOUS
 10
396.1979573458
 20
80.203125
 11
396.1979573458
 21
128.203125
  0
LINE
  5
2D7
100
AcDbEntity
  8
CO830K-A1198_2
100
AcDbLine
 62
7
  6
CONTINUOUS
 10
396.4979573458
 20
80.5033354632
 11
396.4979573458
 21
127.9029462745
  0
LINE
  5
2D8
100
AcDbEntity
  8
AI0261_31
100
AcDbLine
 62
7
  6
CONTINUOUS
 10
295.775307615
 20
169.453125
 11
298.6979573458
 21
169.453125
  0
LINE
  5
2D9
100
AcDbEntity
  8
AI0261_31
100
AcDbLine
 62
7
  6
CONTINUOUS
 10
280.1979573458
 20
170.453125
 11
294.7360771304
 21
170.453125
  0
LINE
  5
2DA
100
AcDbEntity
  8
AC53CC919UPSIL_4
100
AcDbLine
 62
7
  6
CONTINUOUS
 10
279.1979573458
 20
173.953125
 11
278.9979573458
 21
173.953125
  0
LINE
  5
2DB
100
AcDbEntity
  8
AI0193_9
100
AcDbLine
 62
9
  6
CONTINUOUS
 10
318.6682259595
 20
181.3297916622
 11
299.1979573458
 21
181.3297916667
  0
LINE
  5
2DC
100
AcDbEntity
  8
AC53CC919UPSIL_4
100
AcDbLine
 62
7
  6
CONTINUOUS
 10
279.1979573458
 20
187.453125
 11
278.9979573458
 21
187.453125
  0
LINE
  5
2DD
100
AcDbEntity
  8
AI0261_31
100
AcDbLine
 62
7
  6
CONTINUOUS
 10
280.1979573458
 20
190.953125
 11
294.7360771304
 21
190.953125
  0
LINE
  5
2DE
100
AcDbEntity
  8
AI0261_31
100
AcDbLine
 62
7
  6
CONTINUOUS
 10
295.775307615
 20
191.953125
 11
299.1979573458
 21
191.953125
  0
LINE
  5
2DF
100
AcDbEntity
  8
AI0193_9
100
AcDbLine
 62
7
  6
CONTINUOUS
 10
299.1979573458
 20
193.703125
 11
315.348881674
 21
193.703125
  0
LINE
  5
2E0
100
AcDbEntity
  8
AI0193_9
100
AcDbLine
 62
7
  6
CONTINUOUS
 10
315.3728975694
 20
193.7028413501
 11
315.348877178
 21
193.7031249972
  0
LINE
  5
2E1
100
AcDbEntity
  8
AI0193_9
100
AcDbLine
 62
7
  6
CONTINUOUS
 10
315.3498866999
 20
193.7030939368
 11
315.397311019
 21
193.7019705902
  0
LINE
  5
2E2
100
AcDbEntity
  8
AI0193_9
100
AcDbLine
 62
7
  6
CONTINUOUS
 10
315.4067767963
 20
193.7014764055
 11
315.3728975694
 21
193.7028413501
  0
LINE
  5
2E3
100
AcDbEntity
  8
AI0193_9
100
AcDbLine
 62
7
  6
CONTINUOUS
 10
315.3498862709
 20
193.7030939368
 11
315.3493132791
 21
193.703119219
  0
LINE
  5
2E4
100
AcDbEntity
  8
AI0193_9
100
AcDbLine
 62
7
  6
CONTINUOUS
 10
315.3498862698
 20
193.7030939368
 11
315.3493839713
 21
193.7031190127
  0
LINE
  5
2E5
100
AcDbEntity
  8
AI0193_9
100
AcDbLine
 62
7
  6
CONTINUOUS
 10
315.4073723926
 20
193.7014422077
 11
315.3971244286
 21
193.7019803517
  0
LINE
  5
2E6
100
AcDbEntity
  8
AI0193_9
100
AcDbLine
 62
7
  6
CONTINUOUS
 10
315.4067772196
 20
193.7014762957
 11
315.4073723926
 21
193.7014422077
  0
LWPOLYLINE
  5
2E7
100
AcDbEntity
  8
AI0193_9
100
AcDbPolyline
 62
7
  6
CONTINUOUS
 90
20
 70
0
 10
47.7584895661
 20
144.6627543615
 10
47.5191450943
 20
144.5268139229
 10
47.101649683
 20
144.2344894748
 10
46.7118015643
 20
143.8849942116
 10
46.3500514843
 20
143.4751564335
 10
46.0216059905
 20
143.0064511221
 10
45.7288981373
 20
142.4777738401
 10
45.4768388749
 20
141.8939176576
 10
45.2682295259
 20
141.2596437749
 10
45.1044688941
 20
140.5795200109
 10
44.9865656173
 20
139.861614235
 10
44.9137013674
 20
139.1093951067
 10
44.8850829511
 20
138.3294459482
 10
44.8993752378
 20
137.5242364351
 10
44.955330543
 20
136.6979197299
 10
45.0516999783
 20
135.8536649179
 10
45.1872074197
 20
134.9950262816
 10
45.3606483771
 20
134.125033548
 10
45.5709113792
 20
133.2464683486
 10
45.7730233535
 20
132.5114052556
  0
LINE
  5
2E8
100
AcDbEntity
  8
AI0193_9
100
AcDbLine
 62
7
  6
CONTINUOUS
 10
47.7544359301
 20
144.6606256555
 11
60.2412869704
 21
151.2279764414
  0
LINE
  5
2E9
100
AcDbEntity
  8
AI0193_9
100
AcDbLine
 62
9
  6
CONTINUOUS
 10
49.0477036262
 20
145.0515105235
 11
61.9517886835
 21
151.8383019155
  0
LINE
  5
2EA
100
AcDbEntity
  8
AI0193_9
100
AcDbLine
 62
7
  6
CONTINUOUS
 10
65.2279980056
 20
137.2026092607
 11
77.1232348659
 21
144.5634344601
  0
LWPOLYLINE
  5
2EB
100
AcDbEntity
  8
AI0193_9
100
AcDbPolyline
 62
7
  6
CONTINUOUS
 90
7
 70
0
 10
78.8504362296
 20
145.5516559463
 10
78.6725286417
 20
145.4572490293
 10
78.3179489527
 20
145.264072048
 10
77.9704389185
 20
145.0682199146
 10
77.6301283412
 20
144.8701239113
 10
77.2971280558
 20
144.6702180064
 10
77.1232463856
 20
144.5634415307
  0
LINE
  5
2EC
100
AcDbEntity
  8
AI0193_9
100
AcDbLine
 62
7
  6
CONTINUOUS
 10
79.838516598
 20
146.0713282317
 11
78.8504654885
 21
145.5516713375
  0
LINE
  5
2ED
100
AcDbEntity
  8
AI0193_9
100
AcDbLine
 62
9
  6
CONTINUOUS
 10
81.9039799624
 20
146.6488752256
 11
111.4934428922
 21
162.2111961019
  0
LINE
  5
2EE
100
AcDbEntity
  8
CO830K-A1198_2
100
AcDbLine
 62
7
  6
CONTINUOUS
 10
57.3768373071
 20
132.5629928757
 11
44.5646005595
 21
125.8245083049
  0
LINE
  5
2EF
100
AcDbEntity
  8
AI0193_9
100
AcDbLine
 62
9
  6
CONTINUOUS
 10
116.7826016154
 20
162.2111961019
 11
87.1931386856
 21
146.6488752256
  0
LWPOLYLINE
  5
2F0
100
AcDbEntity
  8
AI0193_9
100
AcDbPolyline
 62
7
  6
CONTINUOUS
 90
7
 70
0
 10
45.7730187683
 20
132.5114210142
 10
46.0166810643
 20
131.720174913
 10
46.3362966595
 20
130.7930035893
 10
46.6909443087
 20
129.8703797565
 10
47.0792279347
 20
128.955585192
 10
47.4995737509
 20
128.0523023527
 10
47.7736776244
 20
127.5122944982
  0
LINE
  5
2F1
100
AcDbEntity
  8
CO830K-A1198_2
100
AcDbLine
 62
7
  6
CONTINUOUS
 10
68.4323012298
 20
30.7896678188
 11
55.4162772112
 21
80.2857761762
  0
LINE
  5
2F2
100
AcDbEntity
  8
CO830K-A1198_2
100
AcDbLine
 62
9
  6
CONTINUOUS
 10
68.5236356348
 20
30.7613933867
 11
55.5075754934
 21
80.2575689295
  0
LINE
  5
2F3
100
AcDbEntity
  8
CO830K-A1198_2
100
AcDbLine
 62
9
  6
CONTINUOUS
 10
68.3060258089
 20
80.2581931124
 11
81.3223329422
 21
30.7610241423
  0
LINE
  5
2F4
100
AcDbEntity
  8
CO830K-A1198_2
100
AcDbLine
 62
9
  6
CONTINUOUS
 10
81.7332076146
 20
30.8659680956
 11
68.7170122234
 21
80.3627246479
  0
LWPOLYLINE
  5
2F5
100
AcDbEntity
  8
CO830K-A1198_2
100
AcDbPolyline
 62
7
  6
CONTINUOUS
 90
13
 70
0
 10
51.9776384516
 20
85.2718856263
 10
52.2862796493
 20
85.0565959312
 10
52.6877420909
 20
84.7365748937
 10
53.0710830271
 20
84.3845378977
 10
53.4350915963
 20
84.0024474284
 10
53.7779375494
 20
83.5927842475
 10
54.0981276837
 20
83.1576734921
 10
54.3941047067
 20
82.6992834018
 10
54.6643050811
 20
82.2197706028
 10
54.9071223607
 20
81.721331262
 10
55.1209174631
 20
81.2061730975
 10
55.3043026261
 20
80.6756628001
 10
55.416349547
 20
80.2858384765
  0
LINE
  5
2F6
100
AcDbEntity
  8
CO830K-A1198_2
100
AcDbLine
 62
9
  6
CONTINUOUS
 10
69.3786983652
 20
80.5462390949
 11
82.3568964608
 21
31.193991824
  0
LINE
  5
2F7
100
AcDbEntity
  8
CO830K-A1198_2
100
AcDbLine
 62
7
  6
CONTINUOUS
 10
82.7469153748
 20
31.5754779715
 11
70.2484260986
 21
79.1035540286
  0
LWPOLYLINE
  5
2F8
100
AcDbEntity
  8
CO830K-A1198_2
100
AcDbPolyline
 62
7
  6
CONTINUOUS
 90
10
 70
0
 10
70.2484042452
 20
79.1036370496
 10
70.139372074
 20
79.588699096
 10
70.0520940775
 20
80.2087688432
 10
70.0211482445
 20
80.8334068953
 10
70.0464942709
 20
81.4577976651
 10
70.1278874363
 20
82.0777952303
 10
70.2632983941
 20
82.6829833806
 10
70.4492378186
 20
83.265851009
 10
70.6796711317
 20
83.8169976455
 10
70.8875170023
 20
84.2238591329
  0
LINE
  5
2F9
100
AcDbEntity
  8
CO830K-A1198_2
100
AcDbLine
 62
7
  6
CONTINUOUS
 10
70.8875156977
 20
84.2238567756
 11
70.8909598427
 21
84.2300728035
  0
LWPOLYLINE
  5
2FA
100
AcDbEntity
  8
CO830K-A1198_2
100
AcDbPolyline
 62
7
  6
CONTINUOUS
 90
9
 70
0
 10
70.8909598427
 20
84.2300728035
 10
71.1397664077
 20
84.6422965985
 10
71.509561232
 20
85.1523271574
 10
71.9095634301
 20
85.6072751292
 10
72.3160142693
 20
85.9938637059
 10
72.7031832136
 20
86.3059220813
 10
73.0635035738
 20
86.5547852047
 10
73.3860736722
 20
86.7473181756
 10
73.5009554619
 20
86.8094019479
  0
LINE
  5
2FB
100
AcDbEntity
  8
AI0193_9
100
AcDbLine
 62
9
  6
CONTINUOUS
 10
158.1212816406
 20
145.0515105235
 11
171.0253667041
 21
151.8383019155
  0
LINE
  5
2FC
100
AcDbEntity
  8
AI0261_31
100
AcDbLine
 62
7
  6
CONTINUOUS
 10
181.9386940897
 20
154.0893625059
 11
174.8050875616
 21
150.3375041481
  0
LINE
  5
2FD
100
AcDbEntity
  8
CO830K-A1198_2
100
AcDbLine
 62
7
  6
CONTINUOUS
 10
86.2605171873
 20
93.5201824257
 11
73.5009516717
 21
86.8093998317
  0
LINE
  5
2FE
100
AcDbEntity
  8
AI0193_9
100
AcDbLine
 62
7
  6
CONTINUOUS
 10
104.9415106888
 20
101.6504782779
 11
102.5902883948
 21
100.4138733365
  0
LWPOLYLINE
  5
2FF
100
AcDbEntity
  8
AI0193_9
100
AcDbPolyline
 62
7
  6
CONTINUOUS
 90
7
 70
0
 10
100.8251568938
 20
99.5629296017
 10
101.0501320206
 20
99.6630287181
 10
101.4138182974
 20
99.8298972029
 10
101.7419253841
 20
99.9858862343
 10
102.0635769281
 20
100.1439195645
 10
102.4076696221
 20
100.318683938
 10
102.5906802125
 20
100.414079422
  0
LINE
  5
300
100
AcDbEntity
  8
AI0193_9
100
AcDbLine
 62
7
  6
CONTINUOUS
 10
87.9918909891
 20
93.9204167828
 11
100.8251556272
 21
99.5629292091
  0
LWPOLYLINE
  5
301
100
AcDbEntity
  8
AI0193_9
100
AcDbPolyline
 62
7
  6
CONTINUOUS
 90
12
 70
0
 10
103.8640791699
 20
101.0838125246
 10
105.002890321
 20
101.4787887583
 10
107.5759058767
 20
102.361009937
 10
110.2528751718
 20
103.2589638316
 10
112.1751981573
 20
103.8860927551
 10
113.7002323007
 20
104.3696550479
 10
114.9198811354
 20
104.7453668041
 10
115.819042938
 20
105.0147876402
 10
116.3631944558
 20
105.1742197913
 10
116.7151429043
 20
105.2757201288
 10
117.0214887718
 20
105.3629508002
 10
117.2659321833
 20
105.4317609614
  0
LWPOLYLINE
  5
302
100
AcDbEntity
  8
AI0193_9
100
AcDbPolyline
 62
7
  6
CONTINUOUS
 90
5
 70
0
 10
165.7356572266
 20
118.4579848482
 10
166.301678714
 20
118.6265349669
 10
166.9799582619
 20
118.8743355353
 10
167.6324603234
 20
119.1644067341
 10
167.9214429184
 20
119.3105855349
  0
LINE
  5
303
100
AcDbEntity
  8
AI0193_9
100
AcDbLine
 62
7
  6
CONTINUOUS
 10
111.1577903371
 20
86.2461135895
 11
109.583886556
 21
87.0975537676
  0
LINE
  5
304
100
AcDbEntity
  8
AI0193_9
100
AcDbLine
 62
7
  6
CONTINUOUS
 10
104.1990220321
 20
95.8221717647
 11
102.9427862912
 21
100.5992665417
  0
LINE
  5
305
100
AcDbEntity
  8
AI0193_9
100
AcDbLine
 62
7
  6
CONTINUOUS
 10
107.2526382983
 20
94.6244789519
 11
109.089755869
 21
87.6384615462
  0
LINE
  5
306
100
AcDbEntity
  8
AI0193_9
100
AcDbLine
 62
7
  6
CONTINUOUS
 10
110.9745891372
 20
85.7791861901
 11
110.801051167
 21
86.4391000136
  0
LINE
  5
307
100
AcDbEntity
  8
AI0261_31
100
AcDbLine
 62
7
  6
CONTINUOUS
 10
191.4811749711
 20
135.9457394216
 11
183.8581757591
 21
131.9364892348
  0
LINE
  5
308
100
AcDbEntity
  8
AI0193_9
100
AcDbLine
 62
7
  6
CONTINUOUS
 10
167.9213722722
 20
119.3105484317
 11
167.9226546626
 21
119.3112227749
  0
LINE
  5
309
100
AcDbEntity
  8
AI0193_9
100
AcDbLine
 62
7
  6
CONTINUOUS
 10
179.8064234441
 20
125.5613876879
 11
167.922723804
 21
119.3112591392
  0
LINE
  5
30A
100
AcDbEntity
  8
AI0193_9
100
AcDbLine
 62
7
  6
CONTINUOUS
 10
127.9935383395
 20
90.6734212637
 11
128.9449967589
 21
92.1889575929
  0
LINE
  5
30B
100
AcDbEntity
  8
AI0193_9
100
AcDbLine
 62
7
  6
CONTINUOUS
 10
117.2659321833
 20
105.4317609614
 11
117.661987659
 21
105.5416473232
  0
LINE
  5
30C
100
AcDbEntity
  8
AI0193_9
100
AcDbLine
 62
7
  6
CONTINUOUS
 10
117.661987659
 20
105.5416473232
 11
117.9701227702
 21
105.6256664048
  0
LINE
  5
30D
100
AcDbEntity
  8
AI0193_9
100
AcDbLine
 62
7
  6
CONTINUOUS
 10
165.7355971724
 20
118.457968773
 11
165.7356571645
 21
118.4579848962
  0
LINE
  5
30E
100
AcDbEntity
  8
AI0193_9
100
AcDbLine
 62
9
  6
CONTINUOUS
 10
165.0108323028
 20
119.0532583846
 11
117.3666825648
 21
106.2538125085
  0
LINE
  5
30F
100
AcDbEntity
  8
AI0193_9
100
AcDbLine
 62
7
  6
CONTINUOUS
 10
165.7355971724
 20
118.457968773
 11
117.9701227702
 21
105.6256664048
  0
LINE
  5
310
100
AcDbEntity
  8
AI0193_9
100
AcDbLine
 62
7
  6
CONTINUOUS
 10
128.38273275
 20
90.3570171127
 11
128.2091947799
 21
91.0169309361
  0
LINE
  5
311
100
AcDbEntity
  8
AI0193_9
100
AcDbLine
 62
7
  6
CONTINUOUS
 10
127.2720537257
 20
99.8887933407
 11
129.1091210238
 21
92.9029671072
  0
LINE
  5
312
100
AcDbEntity
  8
AI0193_9
100
AcDbLine
 62
7
  6
CONTINUOUS
 10
129.341427117
 20
102.4338864901
 11
127.8153475768
 21
108.2371178129
  0
LINE
  5
313
100
AcDbEntity
  8
AI0193_9
100
AcDbLine
 62
7
  6
CONTINUOUS
 10
127.8153269879
 20
108.237196017
 11
127.8082264091
 21
108.2687826339
  0
LINE
  5
314
100
AcDbEntity
  8
CO830K-A1198_2
100
AcDbLine
 62
9
  6
CONTINUOUS
 10
81.7332076146
 20
30.8659680956
 11
82.3568964608
 21
31.193991824
  0
LINE
  5
315
100
AcDbEntity
  8
CO830K-A1198_2
100
AcDbLine
 62
7
  6
CONTINUOUS
 10
79.4740555821
 20
22.5907027648
 11
80.0977507638
 21
22.9187298253
  0
LINE
  5
316
100
AcDbEntity
  8
AI0193_9
100
AcDbLine
 62
9
  6
CONTINUOUS
 10
84.4325017304
 20
146.8834608098
 11
84.4408273761
 21
146.8834599092
  0
LINE
  5
317
100
AcDbEntity
  8
AI0193_9
100
AcDbLine
 62
9
  6
CONTINUOUS
 10
106.0137067067
 20
146.6599695585
 11
157.7961522661
 21
143.7536837353
  0
LINE
  5
318
100
AcDbEntity
  8
AI0193_9
100
AcDbLine
 62
9
  6
CONTINUOUS
 10
158.1212816406
 20
145.0515105235
 11
106.3387452447
 21
147.9577710272
  0
LINE
  5
319
100
AcDbEntity
  8
AI0193_9
100
AcDbLine
 62
9
  6
CONTINUOUS
 10
48.5913874909
 20
143.7536837631
 11
77.2210263204
 21
146.6599695585
  0
LINE
  5
31A
100
AcDbEntity
  8
AI0193_9
100
AcDbLine
 62
9
  6
CONTINUOUS
 10
77.6774069113
 20
147.9577710272
 11
49.0477036262
 21
145.0515105235
  0
LINE
  5
31B
100
AcDbEntity
  8
AI0193_9
100
AcDbLine
 62
7
  6
CONTINUOUS
 10
64.0131516255
 20
152.2655101141
 11
61.9517886835
 21
151.8383019155
  0
LINE
  5
31C
100
AcDbEntity
  8
AI0193_9
100
AcDbLine
 62
7
  6
CONTINUOUS
 10
111.4934428921
 20
162.2111961019
 11
65.8855181854
 21
152.7591588321
  0
LINE
  5
31D
100
AcDbEntity
  8
AI0193_9
100
AcDbLine
 62
7
  6
CONTINUOUS
 10
171.0253667041
 20
151.8383019155
 11
168.7393173229
 21
152.2655101141
  0
LINE
  5
31E
100
AcDbEntity
  8
AI0193_9
100
AcDbLine
 62
7
  6
CONTINUOUS
 10
167.36174318
 20
152.7591588321
 11
116.7826016155
 21
162.2111961019
  0
LINE
  5
31F
100
AcDbEntity
  8
AI0193_9
100
AcDbLine
 62
9
  6
CONTINUOUS
 10
172.5976650252
 20
132.7927025764
 11
172.5991127608
 21
132.7881234221
  0
LINE
  5
320
100
AcDbEntity
  8
AI0193_9
100
AcDbLine
 62
9
  6
CONTINUOUS
 10
172.6043089119
 20
132.7695004364
 11
172.6057505398
 21
132.7649213058
  0
LINE
  5
321
100
AcDbEntity
  8
AI0193_9
100
AcDbLine
 62
9
  6
CONTINUOUS
 10
172.5976650245
 20
132.792702576
 11
172.605750539
 21
132.7649213062
  0
LINE
  5
322
100
AcDbEntity
  8
AI0193_9
100
AcDbLine
 62
9
  6
CONTINUOUS
 10
172.6004760498
 20
132.7835004985
 11
172.6029492875
 21
132.7741233457
  0
ARC
  5
323
100
AcDbEntity
  8
AI0193_9
100
AcDbCircle
 62
9
  6
CONTINUOUS
 10
110.1941591468
 20
260.813119307
 40
30.4999956886
100
AcDbArc
 50
313.6566313057
 51
45.0268469781
  0
ARC
  5
324
100
AcDbEntity
  8
AI0193_9
100
AcDbCircle
 62
7
  6
CONTINUOUS
 10
36.3913043478
 20
260.6399457941
 40
14.5
100
AcDbArc
 50
98.4338040891
 51
261.566195886
  0
ARC
  5
325
100
AcDbEntity
  8
AI0193_9
100
AcDbCircle
 62
9
  6
CONTINUOUS
 10
36.1518744476
 20
260.6053108518
 40
13.4999987801
100
AcDbArc
 50
98.4338030789
 51
261.5661965409
  0
ARC
  5
326
100
AcDbEntity
  8
CO830K-A1198_2
100
AcDbCircle
 62
9
  6
CONTINUOUS
 10
95.6257805224
 20
234.6299313761
 40
6.4175827599
100
AcDbArc
 50
22.6870808999
 51
28.245558476
  0
ARC
  5
327
100
AcDbEntity
  8
CO830K-A1198_2
100
AcDbCircle
 62
9
  6
CONTINUOUS
 10
95.6376809231
 20
234.6347959608
 40
6.4047272971
100
AcDbArc
 50
19.1511273417
 51
22.6878089121
  0
ARC
  5
328
100
AcDbEntity
  8
CO830K-A1198_2
100
AcDbCircle
 62
9
  6
CONTINUOUS
 10
95.6395916221
 20
234.6371665248
 40
6.4019921414
100
AcDbArc
 50
28.247012629
 51
28.9151434811
  0
ARC
  5
329
100
AcDbEntity
  8
CO830K-A1198_2
100
AcDbCircle
 62
9
  6
CONTINUOUS
 10
95.6424230843
 20
234.6367484761
 40
6.3996084089
100
AcDbArc
 50
14.2559570178
 51
17.3333008266
  0
ARC
  5
32A
100
AcDbEntity
  8
CO830K-A1198_2
100
AcDbCircle
 62
9
  6
CONTINUOUS
 10
95.644760258
 20
234.6374734685
 40
6.3971613746
100
AcDbArc
 50
17.3333388441
 51
19.1492745091
  0
ARC
  5
32B
100
AcDbEntity
  8
CO830K-A1198_2
100
AcDbCircle
 62
9
  6
CONTINUOUS
 10
95.6470177217
 20
234.6436064188
 40
6.3923783536
100
AcDbArc
 50
28.8968008219
 51
57.6762790109
  0
ARC
  5
32C
100
AcDbEntity
  8
CO830K-A1198_2
100
AcDbCircle
 62
9
  6
CONTINUOUS
 10
95.6518709239
 20
234.6391699612
 40
6.389855212
100
AcDbArc
 50
12.1440714523
 51
14.25577457
  0
ARC
  5
32D
100
AcDbEntity
  8
CO830K-A1198_2
100
AcDbCircle
 62
9
  6
CONTINUOUS
 10
95.6616383447
 20
234.6420333612
 40
6.3797335877
100
AcDbArc
 50
4.3261981708
 51
7.0523262807
  0
ARC
  5
32E
100
AcDbEntity
  8
CO830K-A1198_2
100
AcDbCircle
 62
9
  6
CONTINUOUS
 10
95.6666845441
 20
234.6426993542
 40
6.3746437979
100
AcDbArc
 50
7.0519541438
 51
9.3383912415
  0
ARC
  5
32F
100
AcDbEntity
  8
CO830K-A1198_2
100
AcDbCircle
 62
9
  6
CONTINUOUS
 10
95.6702778038
 20
234.6431068872
 40
6.3710320331
100
AcDbArc
 50
9.3400183608
 51
12.1442822713
  0
ARC
  5
330
100
AcDbEntity
  8
CO830K-A1198_2
100
AcDbCircle
 62
9
  6
CONTINUOUS
 10
95.6764470201
 20
234.6431544446
 40
6.3648825374
100
AcDbArc
 50
2.4635866552
 51
4.3261909562
  0
ARC
  5
331
100
AcDbEntity
  8
CO830K-A1198_2
100
AcDbCircle
 62
9
  6
CONTINUOUS
 10
95.6957201642
 20
234.644018807
 40
6.3455900526
100
AcDbArc
 50
1.3898707053
 51
2.4632695667
  0
ARC
  5
332
100
AcDbEntity
  8
CO830K-A1198_2
100
AcDbCircle
 62
9
  6
CONTINUOUS
 10
95.6878940866
 20
234.7025127835
 40
6.3207441368
100
AcDbArc
 50
57.7038794495
 51
58.8077074246
  0
ARC
  5
333
100
AcDbEntity
  8
AI0193_9
100
AcDbCircle
 62
7
  6
CONTINUOUS
 10
93.3926957198
 20
232.4751670442
 40
5.0
100
AcDbArc
 50
359.9999984156
 51
81.5661465067
  0
ARC
  5
334
100
AcDbEntity
  8
CO830K-A1198_2
100
AcDbCircle
 62
7
  6
CONTINUOUS
 10
111.3913043478
 20
181.9899457941
 40
9.35
100
AcDbArc
 50
179.9999999999
 51
360.0
  0
ARC
  5
335
100
AcDbEntity
  8
CO830K-A1198_2
100
AcDbCircle
 62
9
  6
CONTINUOUS
 10
111.3913043478
 20
181.9899457941
 40
9.05
100
AcDbArc
 50
180.0
 51
359.9975058757
  0
ARC
  5
336
100
AcDbEntity
  8
CO830K-A1198_2
100
AcDbCircle
 62
9
  6
CONTINUOUS
 10
127.1593641208
 20
234.6284775748
 40
6.4202963046
100
AcDbArc
 50
151.5879353965
 51
157.2187005221
  0
ARC
  5
337
100
AcDbEntity
  8
CO830K-A1198_2
100
AcDbCircle
 62
9
  6
CONTINUOUS
 10
127.1473372154
 20
234.6334092123
 40
6.4072983919
100
AcDbArc
 50
157.2179001682
 51
160.8564032899
  0
ARC
  5
338
100
AcDbEntity
  8
CO830K-A1198_2
100
AcDbCircle
 62
9
  6
CONTINUOUS
 10
127.1458559123
 20
234.6363487053
 40
6.4046643109
100
AcDbArc
 50
131.0364309604
 51
151.1119584633
  0
ARC
  5
339
100
AcDbEntity
  8
CO830K-A1198_2
100
AcDbCircle
 62
9
  6
CONTINUOUS
 10
127.145252682
 20
234.6358993608
 40
6.4043532581
100
AcDbArc
 50
151.1058315278
 51
151.5862665791
  0
ARC
  5
33A
100
AcDbEntity
  8
CO830K-A1198_2
100
AcDbCircle
 62
9
  6
CONTINUOUS
 10
127.1411009682
 20
234.6358704821
 40
6.4006008494
100
AcDbArc
 50
162.6157077703
 51
165.7458564534
  0
ARC
  5
33B
100
AcDbEntity
  8
CO830K-A1198_2
100
AcDbCircle
 62
9
  6
CONTINUOUS
 10
127.1392955606
 20
234.6364328528
 40
6.3987098841
100
AcDbArc
 50
160.8583667598
 51
162.6156832779
  0
ARC
  5
33C
100
AcDbEntity
  8
CO830K-A1198_2
100
AcDbCircle
 62
9
  6
CONTINUOUS
 10
127.130808507
 20
234.6385107005
 40
6.3899751777
100
AcDbArc
 50
165.7460778338
 51
167.8321576345
  0
ARC
  5
33D
100
AcDbEntity
  8
CO830K-A1198_2
100
AcDbCircle
 62
9
  6
CONTINUOUS
 10
127.1179484673
 20
234.6418876569
 40
6.3767163786
100
AcDbArc
 50
172.9400740902
 51
175.6629080078
  0
ARC
  5
33E
100
AcDbEntity
  8
CO830K-A1198_2
100
AcDbCircle
 62
9
  6
CONTINUOUS
 10
127.1240066988
 20
234.6583442343
 40
6.3737295265
100
AcDbArc
 50
122.3113443574
 51
130.8371020143
  0
ARC
  5
33F
100
AcDbEntity
  8
CO830K-A1198_2
100
AcDbCircle
 62
9
  6
CONTINUOUS
 10
127.1141753321
 20
234.6420938522
 40
6.3729604348
100
AcDbArc
 50
167.8321286556
 51
169.9015505266
  0
ARC
  5
340
100
AcDbEntity
  8
CO830K-A1198_2
100
AcDbCircle
 62
9
  6
CONTINUOUS
 10
127.1139953724
 20
234.6424206492
 40
6.372727747
100
AcDbArc
 50
170.6597515419
 51
172.9404614732
  0
ARC
  5
341
100
AcDbEntity
  8
CO830K-A1198_2
100
AcDbCircle
 62
9
  6
CONTINUOUS
 10
127.1024693227
 20
234.6442608656
 40
6.3610558488
100
AcDbArc
 50
170.1695669161
 51
170.6592577205
  0
ARC
  5
342
100
AcDbEntity
  8
CO830K-A1198_2
100
AcDbCircle
 62
9
  6
CONTINUOUS
 10
127.1013025059
 20
234.643145044
 40
6.3600229959
100
AcDbArc
 50
175.6628624938
 51
177.6585689742
  0
ARC
  5
343
100
AcDbEntity
  8
CO830K-A1198_2
100
AcDbCircle
 62
9
  6
CONTINUOUS
 10
127.1013327091
 20
234.6444525407
 40
6.3599031985
100
AcDbArc
 50
169.9021840411
 51
170.1695201009
  0
ARC
  5
344
100
AcDbEntity
  8
CO830K-A1198_2
100
AcDbCircle
 62
9
  6
CONTINUOUS
 10
127.114760225
 20
234.6693952548
 40
6.3593222727
100
AcDbArc
 50
130.8391810914
 51
131.0205837828
  0
ARC
  5
345
100
AcDbEntity
  8
CO830K-A1198_2
100
AcDbCircle
 62
9
  6
CONTINUOUS
 10
127.0809307803
 20
234.6440314403
 40
6.3396320654
100
AcDbArc
 50
177.6590514394
 51
178.6028865749
  0
ARC
  5
346
100
AcDbEntity
  8
CO830K-A1198_2
100
AcDbCircle
 62
7
  6
CONTINUOUS
 10
126.9621776521
 20
234.6187838511
 40
6.3241322348
100
AcDbArc
 50
120.8822148472
 51
129.4843278414
  0
ARC
  5
347
100
AcDbEntity
  8
CO830K-A1198_2
100
AcDbCircle
 62
7
  6
CONTINUOUS
 10
127.0633751567
 20
234.8007561617
 40
6.3220872553
100
AcDbArc
 50
171.22730098
 51
180.0180276181
  0
ARC
  5
348
100
AcDbEntity
  8
CO830K-A1198_2
100
AcDbCircle
 62
9
  6
CONTINUOUS
 10
127.0917437753
 20
234.7074142837
 40
6.3150125962
100
AcDbArc
 50
121.1923178093
 51
122.3019239532
  0
ARC
  5
349
100
AcDbEntity
  8
AI0193_9
100
AcDbCircle
 62
7
  6
CONTINUOUS
 10
129.3899129759
 20
232.4751670442
 40
5.0
100
AcDbArc
 50
98.4338529197
 51
180.0000016529
  0
ARC
  5
34A
100
AcDbEntity
  8
AI0193_9
100
AcDbCircle
 62
9
  6
CONTINUOUS
 10
112.5884495489
 20
260.813119307
 40
30.4999956886
100
AcDbArc
 50
134.9731530219
 51
226.3433678126
  0
ARC
  5
34B
100
AcDbEntity
  8
AI0193_9
100
AcDbCircle
 62
7
  6
CONTINUOUS
 10
111.3913043478
 20
260.6399457941
 40
25.5
100
AcDbArc
 50
90.0085515307
 51
247.2354246072
  0
ARC
  5
34C
100
AcDbEntity
  8
AI0193_9
100
AcDbCircle
 62
7
  6
CONTINUOUS
 10
111.3913043478
 20
260.6399457941
 40
25.5
100
AcDbArc
 50
292.7655564904
 51
89.9820968193
  0
ARC
  5
34D
100
AcDbEntity
  8
AI0193_9
100
AcDbCircle
 62
7
  6
CONTINUOUS
 10
111.3913043478
 20
260.6399457941
 40
24.478048304
100
AcDbArc
 50
296.1776250136
 51
243.8238165399
  0
ARC
  5
34E
100
AcDbEntity
  8
CO830K-A1198_2
100
AcDbCircle
 62
7
  6
CONTINUOUS
 10
111.3913043478
 20
260.6399457941
 40
24.0
100
AcDbArc
 50
300.8996258416
 51
239.099087224
  0
ARC
  5
34F
100
AcDbEntity
  8
CO830K-A1198_2
100
AcDbCircle
 62
9
  6
CONTINUOUS
 10
111.3913043478
 20
260.6399457941
 40
23.7
100
AcDbArc
 50
300.8998032331
 51
239.0861104554
  0
ARC
  5
350
100
AcDbEntity
  8
AI0193_9
100
AcDbCircle
 62
7
  6
CONTINUOUS
 10
186.3913043478
 20
260.6399457941
 40
14.5
100
AcDbArc
 50
278.4338041141
 51
81.5661959109
  0
ARC
  5
351
100
AcDbEntity
  8
AI0193_9
100
AcDbCircle
 62
9
  6
CONTINUOUS
 10
186.6307341842
 20
260.605310549
 40
13.4999975403
100
AcDbArc
 50
278.4338032009
 51
81.5661966404
  0
ARC
  5
352
100
AcDbEntity
  8
CO830K-A1198_2
100
AcDbCircle
 62
9
  6
CONTINUOUS
 10
475.0810005557
 20
38.0431885341
 40
218.7794060444
100
AcDbArc
 50
114.4100666355
 51
114.5240253639
  0
ARC
  5
353
100
AcDbEntity
  8
CO830K-A1198_2
100
AcDbCircle
 62
9
  6
CONTINUOUS
 10
456.6865925374
 20
78.6737989266
 40
174.1789729498
100
AcDbArc
 50
113.2056025933
 51
114.4235648165
  0
ARC
  5
354
100
AcDbEntity
  8
616101_1
100
AcDbCircle
 62
7
  6
CONTINUOUS
 10
384.2479573458
 20
286.1024457941
 40
49.6625
100
AcDbArc
 50
270.0
 51
271.8740211242
  0
ARC
  5
355
100
AcDbEntity
  8
AI0193_9
100
AcDbCircle
 62
7
  6
CONTINUOUS
 10
343.3944718928
 20
255.4555875203
 40
30.6843622547
100
AcDbArc
 50
86.967197972
 51
89.9665614117
  0
ARC
  5
356
100
AcDbEntity
  8
AI0193_9
100
AcDbCircle
 62
7
  6
CONTINUOUS
 10
343.4122451304
 20
265.1450848938
 40
30.0051390999
100
AcDbArc
 50
270.0002569625
 51
272.9996587858
  0
ARC
  5
357
100
AcDbEntity
  8
CO830K-A1198_2
100
AcDbCircle
 62
7
  6
CONTINUOUS
 10
384.4639551871
 20
210.9802366975
 40
25.886105141
100
AcDbArc
 50
97.1456806001
 51
97.533792651
  0
ARC
  5
358
100
AcDbEntity
  8
CO830K-A1198_2
100
AcDbCircle
 62
7
  6
CONTINUOUS
 10
384.2593583265
 20
212.7188309948
 40
24.1355676774
100
AcDbArc
 50
91.2006024835
 51
97.1771598823
  0
ARC
  5
359
100
AcDbEntity
  8
1263_9
100
AcDbCircle
 62
7
  6
CONTINUOUS
 10
365.3115181408
 20
263.1051415171
 40
20.0
100
AcDbArc
 50
59.4415876755
 51
94.6275357283
  0
ARC
  5
35A
100
AcDbEntity
  8
1263_9
100
AcDbCircle
 62
7
  6
CONTINUOUS
 10
365.3115181408
 20
258.1747500712
 40
20.0
100
AcDbArc
 50
265.3724642717
 51
274.8424119272
  0
ARC
  5
35B
100
AcDbEntity
  8
CO830K-A1198_2
100
AcDbCircle
 62
7
  6
CONTINUOUS
 10
406.5577229708
 20
181.9899457941
 40
15.259765625
100
AcDbArc
 50
180.0
 51
214.7853719538
  0
ARC
  5
35C
100
AcDbEntity
  8
CO830K-A1198_2
100
AcDbCircle
 62
7
  6
CONTINUOUS
 10
383.2979562181
 20
228.6399451594
 40
8.0000011276
100
AcDbArc
 50
0.0000054587
 51
58.7515541578
  0
ARC
  5
35D
100
AcDbEntity
  8
AI0193_9
100
AcDbCircle
 62
7
  6
CONTINUOUS
 10
299.1993487197
 20
230.1399457953
 40
5.0000000006
100
AcDbArc
 50
359.9999988538
 51
89.9999991862
  0
ARC
  5
35E
100
AcDbEntity
  8
AI0193_9
100
AcDbCircle
 62
7
  6
CONTINUOUS
 10
335.1965659723
 20
230.1399457951
 40
5.0000000004
100
AcDbArc
 50
90.0000008073
 51
180.0000010024
  0
ARC
  5
35F
100
AcDbEntity
  8
CO830K-A1198_2
100
AcDbCircle
 62
7
  6
CONTINUOUS
 10
395.2568977772
 20
174.1399457941
 40
1.5
100
AcDbArc
 50
214.7853719538
 51
270.0
  0
ARC
  5
360
100
AcDbEntity
  8
CO830K-A1198_2
100
AcDbCircle
 62
7
  6
CONTINUOUS
 10
367.9979573458
 20
261.9182511315
 40
1.0
100
AcDbArc
 50
155.0000000001
 51
180.0
  0
ARC
  5
361
100
AcDbEntity
  8
AI0261_31
100
AcDbCircle
 62
7
  6
CONTINUOUS
 10
294.7360771304
 20
271.6899457941
 40
0.8
100
AcDbArc
 50
270.0
 51
330.0
  0
ARC
  5
362
100
AcDbEntity
  8
AI0261_31
100
AcDbCircle
 62
7
  6
CONTINUOUS
 10
294.7360771304
 20
249.5899457941
 40
0.8
100
AcDbArc
 50
30.0
 51
90.0
  0
ARC
  5
363
100
AcDbEntity
  8
AC53CC919UPSIL_4
100
AcDbCircle
 62
7
  6
CONTINUOUS
 10
278.9979573458
 20
254.3899457941
 40
0.5
100
AcDbArc
 50
180.0
 51
270.0
  0
ARC
  5
364
100
AcDbEntity
  8
AC53CC919UPSIL_4
100
AcDbCircle
 62
7
  6
CONTINUOUS
 10
278.9979573458
 20
266.8899457941
 40
0.5
100
AcDbArc
 50
90.0
 51
180.0
  0
ARC
  5
365
100
AcDbEntity
  8
CO830K-A1198_2
100
AcDbCircle
 62
7
  6
CONTINUOUS
 10
396.1979573458
 20
172.9399457941
 40
0.3
100
AcDbArc
 50
270.0
 51
360.0
  0
ARC
  5
366
100
AcDbEntity
  8
CO830K-A1198_2
100
AcDbCircle
 62
7
  6
CONTINUOUS
 10
396.1979573458
 20
284.3399457941
 40
0.3
100
AcDbArc
 50
0.0
 51
90.0
  0
ARC
  5
367
100
AcDbEntity
  8
616101_1
100
AcDbCircle
 62
7
  6
CONTINUOUS
 10
381.1979573458
 20
236.633880965
 40
0.1
100
AcDbArc
 50
180.0
 51
266.4718766587
  0
ARC
  5
368
100
AcDbEntity
  8
AI0193_9
100
AcDbCircle
 62
9
  6
CONTINUOUS
 10
343.7198431356
 20
-92.2621380742
 40
196.4734716212
100
AcDbArc
 50
89.6214537905
 51
90.0896628147
  0
ARC
  5
369
100
AcDbEntity
  8
AI0193_9
100
AcDbCircle
 62
7
  6
CONTINUOUS
 10
267.1635054926
 20
24.3840593881
 40
32.5493231813
100
AcDbArc
 50
10.2044628675
 51
14.3452152864
  0
ARC
  5
36A
100
AcDbEntity
  8
AI0193_9
100
AcDbCircle
 62
7
  6
CONTINUOUS
 10
267.1635054926
 20
184.0221906119
 40
32.5493231812
100
AcDbArc
 50
345.6547847136
 51
349.7955371325
  0
ARC
  5
36B
100
AcDbEntity
  8
1263_9
100
AcDbCircle
 62
7
  6
CONTINUOUS
 10
365.3115181408
 20
106.668320723
 40
20.0
100
AcDbArc
 50
77.7471550604
 51
94.627540535
  0
ARC
  5
36C
100
AcDbEntity
  8
1263_9
100
AcDbCircle
 62
7
  6
CONTINUOUS
 10
365.3115181408
 20
101.737929277
 40
20.0
100
AcDbArc
 50
265.372459465
 51
282.2222733652
  0
ARC
  5
36D
100
AcDbEntity
  8
AI0261_31
100
AcDbCircle
 62
7
  6
CONTINUOUS
 10
294.7360771304
 20
38.753125
 40
0.8
100
AcDbArc
 50
270.0
 51
330.0000000001
  0
ARC
  5
36E
100
AcDbEntity
  8
AI0261_31
100
AcDbCircle
 62
7
  6
CONTINUOUS
 10
294.7360771304
 20
16.653125
 40
0.8
100
AcDbArc
 50
29.9999999999
 51
90.0
  0
ARC
  5
36F
100
AcDbEntity
  8
AI0261_31
100
AcDbCircle
 62
7
  6
CONTINUOUS
 10
294.7360771304
 20
191.753125
 40
0.8
100
AcDbArc
 50
270.0
 51
330.0000000001
  0
ARC
  5
370
100
AcDbEntity
  8
AI0261_31
100
AcDbCircle
 62
7
  6
CONTINUOUS
 10
294.7360771304
 20
169.653125
 40
0.8
100
AcDbArc
 50
29.9999999999
 51
90.0
  0
ARC
  5
371
100
AcDbEntity
  8
AC53CC919UPSIL_4
100
AcDbCircle
 62
7
  6
CONTINUOUS
 10
278.9979573458
 20
186.953125
 40
0.5
100
AcDbArc
 50
90.0
 51
180.0
  0
ARC
  5
372
100
AcDbEntity
  8
AC53CC919UPSIL_4
100
AcDbCircle
 62
7
  6
CONTINUOUS
 10
278.9979573458
 20
174.453125
 40
0.5
100
AcDbArc
 50
180.0
 51
270.0
  0
ARC
  5
373
100
AcDbEntity
  8
AC53CC919UPSIL_4
100
AcDbCircle
 62
7
  6
CONTINUOUS
 10
278.9979573458
 20
33.953125
 40
0.5
100
AcDbArc
 50
90.0
 51
180.0
  0
ARC
  5
374
100
AcDbEntity
  8
AC53CC919UPSIL_4
100
AcDbCircle
 62
7
  6
CONTINUOUS
 10
278.9979573458
 20
21.453125
 40
0.5
100
AcDbArc
 50
180.0
 51
270.0
  0
ARC
  5
375
100
AcDbEntity
  8
CO830K-A1198_2
100
AcDbCircle
 62
7
  6
CONTINUOUS
 10
396.1979573458
 20
127.903125
 40
0.3
100
AcDbArc
 50
0.0
 51
90.0
  0
ARC
  5
376
100
AcDbEntity
  8
CO830K-A1198_2
100
AcDbCircle
 62
7
  6
CONTINUOUS
 10
396.1979573458
 20
80.503125
 40
0.3
100
AcDbArc
 50
270.0
 51
360.0
  0
ARC
  5
377
100
AcDbEntity
  8
AI0193_9
100
AcDbCircle
 62
9
  6
CONTINUOUS
 10
40.9605833792
 20
277.476190638
 40
187.2674519471
100
AcDbArc
 50
289.6386581067
 51
289.9957573894
  0
ARC
  5
378
100
AcDbEntity
  8
AI0193_9
100
AcDbCircle
 62
7
  6
CONTINUOUS
 10
31.2754097516
 20
280.2345974851
 40
132.0902989079
100
AcDbArc
 50
284.3499471375
 51
285.1898694649
  0
ARC
  5
379
100
AcDbEntity
  8
1263_9
100
AcDbCircle
 62
7
  6
CONTINUOUS
 10
65.1656829203
 20
108.4929612728
 40
28.915625498
100
AcDbArc
 50
10.4556363174
 51
10.8914491901
  0
ARC
  5
37A
100
AcDbEntity
  8
AI0193_9
100
AcDbCircle
 62
9
  6
CONTINUOUS
 10
88.4886491138
 20
118.0904337804
 40
26.3763023609
100
AcDbArc
 50
16.3441715789
 51
16.5883105874
  0
ARC
  5
37B
100
AcDbEntity
  8
AI0193_9
100
AcDbCircle
 62
7
  6
CONTINUOUS
 10
112.6418715784
 20
111.1381005903
 40
25.3049538491
100
AcDbArc
 50
277.0002258799
 51
277.118445707
  0
ARC
  5
37C
100
AcDbEntity
  8
AI0193_9
100
AcDbCircle
 62
9
  6
CONTINUOUS
 10
69.9823331635
 20
139.4178409577
 40
25.0502193334
100
AcDbArc
 50
195.9237817171
 51
196.2213678661
  0
ARC
  5
37D
100
AcDbEntity
  8
AI0193_9
100
AcDbCircle
 62
7
  6
CONTINUOUS
 10
175.5648171742
 20
173.4816735784
 40
22.287059931
100
AcDbArc
 50
248.4037049466
 51
252.1663803221
  0
ARC
  5
37E
100
AcDbEntity
  8
1263_9
100
AcDbCircle
 62
7
  6
CONTINUOUS
 10
75.565548478
 20
116.5681672574
 40
21.088074371
100
AcDbArc
 50
111.5573871664
 51
126.2012103605
  0
ARC
  5
37F
100
AcDbEntity
  8
AI0193_9
100
AcDbCircle
 62
9
  6
CONTINUOUS
 10
93.7361519314
 20
129.286084785
 40
19.9015243099
100
AcDbArc
 50
117.8440095735
 51
121.3419632512
  0
ARC
  5
380
100
AcDbEntity
  8
AI0261_31
100
AcDbCircle
 62
7
  6
CONTINUOUS
 10
169.3141055981
 20
135.6351361415
 40
15.5379034133
100
AcDbArc
 50
14.7370565445
 51
16.2863375846
  0
ARC
  5
381
100
AcDbEntity
  8
AI0261_31
100
AcDbCircle
 62
9
  6
CONTINUOUS
 10
170.7848254043
 20
136.3899206783
 40
13.9979657173
100
AcDbArc
 50
14.7336574246
 51
15.0209230241
  0
ARC
  5
382
100
AcDbEntity
  8
AI0261_31
100
AcDbCircle
 62
9
  6
CONTINUOUS
 10
170.9161482708
 20
136.4240292988
 40
13.8622862345
100
AcDbArc
 50
13.2454941931
 51
14.7353592944
  0
ARC
  5
383
100
AcDbEntity
  8
AI0261_31
100
AcDbCircle
 62
7
  6
CONTINUOUS
 10
181.0458214381
 20
141.6064900706
 40
13.3549236415
100
AcDbArc
 50
8.5563519806
 51
14.798235237
  0
ARC
  5
384
100
AcDbEntity
  8
CO830K-A1198_2
100
AcDbCircle
 62
9
  6
CONTINUOUS
 10
80.9286358742
 20
34.0219356372
 40
12.8263465845
100
AcDbArc
 50
194.7265789321
 51
195.4016504573
  0
ARC
  5
385
100
AcDbEntity
  8
AI0261_31
100
AcDbCircle
 62
7
  6
CONTINUOUS
 10
182.2612205045
 20
142.287899822
 40
12.0519484154
100
AcDbArc
 50
8.5561487887
 51
14.7980532457
  0
ARC
  5
386
100
AcDbEntity
  8
AI0193_9
100
AcDbCircle
 62
7
  6
CONTINUOUS
 10
83.4765489883
 20
104.3462587165
 40
11.3656212343
100
AcDbArc
 50
281.0286931868
 51
284.3958733989
  0
ARC
  5
387
100
AcDbEntity
  8
AI0193_9
100
AcDbCircle
 62
9
  6
CONTINUOUS
 10
83.0803301232
 20
134.93418663
 40
11.3229588315
100
AcDbArc
 50
111.7154925345
 51
121.7425782981
  0
ARC
  5
388
100
AcDbEntity
  8
AI0193_9
100
AcDbCircle
 62
9
  6
CONTINUOUS
 10
96.2541747829
 20
109.8449089197
 40
11.256175702
100
AcDbArc
 50
305.2250192947
 51
305.5971045716
  0
ARC
  5
389
100
AcDbEntity
  8
AI0193_9
100
AcDbCircle
 62
7
  6
CONTINUOUS
 10
83.5108387472
 20
104.2102980575
 40
11.2254044858
100
AcDbArc
 50
284.3988820672
 51
285.1893710071
  0
ARC
  5
38A
100
AcDbEntity
  8
AI0193_9
100
AcDbCircle
 62
9
  6
CONTINUOUS
 10
97.3755553083
 20
110.3288944978
 40
11.2027267107
100
AcDbArc
 50
297.7440677484
 51
299.0160804192
  0
ARC
  5
38B
100
AcDbEntity
  8
AI0193_9
100
AcDbCircle
 62
9
  6
CONTINUOUS
 10
96.2854079488
 20
109.8004270538
 40
11.201823824
100
AcDbArc
 50
303.8911264555
 51
305.225748145
  0
ARC
  5
38C
100
AcDbEntity
  8
AI0193_9
100
AcDbCircle
 62
9
  6
CONTINUOUS
 10
96.4060957192
 20
109.6157691313
 40
10.9812423855
100
AcDbArc
 50
293.729333643
 51
303.9056604009
  0
ARC
  5
38D
100
AcDbEntity
  8
AI0193_9
100
AcDbCircle
 62
7
  6
CONTINUOUS
 10
83.5993973845
 20
103.9145710477
 40
10.9168083201
100
AcDbArc
 50
285.1474815653
 51
293.7257865799
  0
ARC
  5
38E
100
AcDbEntity
  8
CO830K-A1198_2
100
AcDbCircle
 62
9
  6
CONTINUOUS
 10
46.0312360669
 20
77.7458816669
 40
9.8035494506
100
AcDbArc
 50
14.8448106073
 51
15.152355168
  0
ARC
  5
38F
100
AcDbEntity
  8
CO830K-A1198_2
100
AcDbCircle
 62
9
  6
CONTINUOUS
 10
47.9041845432
 20
79.3031118612
 40
7.3289563768
100
AcDbArc
 50
55.6836000251
 51
56.5912140475
  0
ARC
  5
390
100
AcDbEntity
  8
CO830K-A1198_2
100
AcDbCircle
 62
9
  6
CONTINUOUS
 10
77.1675118282
 20
80.7392196454
 40
7.1819746632
100
AcDbArc
 50
120.6923133569
 51
150.9183354733
  0
ARC
  5
391
100
AcDbEntity
  8
CO830K-A1198_2
100
AcDbCircle
 62
9
  6
CONTINUOUS
 10
77.5088729045
 20
26.3048060897
 40
4.2025570577
100
AcDbArc
 50
306.4296749525
 51
307.3539938637
  0
ARC
  5
392
100
AcDbEntity
  8
CO830K-A1198_2
100
AcDbCircle
 62
9
  6
CONTINUOUS
 10
77.5452843018
 20
26.2542191904
 40
4.1402332093
100
AcDbArc
 50
297.7659463584
 51
306.4399736744
  0
SPLINE
  5
393
100
AcDbEntity
  8
CO830K-A1198_2
100
AcDbSpline
 62
9
  6
CONTINUOUS
 70
0
 71
3
 72
14
 73
10
 74
0
 42
0.0000001
 43
0.0000001
 44
0.0000000001
 40
0.0
 40
0.0
 40
0.0
 40
0.0
 40
0.1250565721
 40
0.2501312744
 40
0.4997286212
 40
0.6247905096
 40
0.7498624408
 40
0.8749404795
 40
1.0
 40
1.0
 40
1.0
 40
1.0
 10
99.2156803773
 20
240.3071480115
 30
0.0
 10
99.4521577527
 20
240.1647821422
 30
0.0
 10
99.9094533587
 20
239.8523535185
 30
0.0
 10
100.7353388013
 20
239.1180293962
 30
0.0
 10
101.4120695995
 20
238.2276097559
 30
0.0
 10
101.891239717
 20
237.2313577166
 30
0.0
 10
102.1517056619
 20
236.442611392
 30
0.0
 10
102.3071894605
 20
235.6268925175
 30
0.0
 10
102.3405550304
 20
235.0741767107
 30
0.0
 10
102.3413153198
 20
234.798146632
 30
0.0
  0
SPLINE
  5
394
100
AcDbEntity
  8
CO830K-A1198_2
100
AcDbSpline
 62
9
  6
CONTINUOUS
 70
0
 71
3
 72
13
 73
9
 74
0
 42
0.0000001
 43
0.0000001
 44
0.0000000001
 40
0.0
 40
0.0
 40
0.0
 40
0.0
 40
0.1251247656
 40
0.2502704709
 40
0.4999986875
 40
0.7497277652
 40
0.8748780143
 40
1.0
 40
1.0
 40
1.0
 40
1.0
 10
120.4412894649
 20
234.7988125819
 30
0.0
 10
120.4423641579
 20
235.0745634098
 30
0.0
 10
120.4759462403
 20
235.6267641801
 30
0.0
 10
120.681878643
 20
236.7117129308
 30
0.0
 10
121.2018761234
 20
238.0047715138
 30
0.0
 10
122.0445932348
 20
239.1147319378
 30
0.0
 10
122.8693410596
 20
239.8490612545
 30
0.0
 10
123.3258354655
 20
240.1616884879
 30
0.0
 10
123.5621462166
 20
240.3037924082
 30
0.0
  0
SPLINE
  5
395
100
AcDbEntity
  8
CO830K-A1198_2
100
AcDbSpline
 62
9
  6
CONTINUOUS
 70
0
 71
3
 72
11
 73
7
 74
0
 42
0.0000001
 43
0.0000001
 44
0.0000000001
 40
0.0
 40
0.0
 40
0.0
 40
0.0
 40
0.2500022573
 40
0.4999989225
 40
0.7499949325
 40
1.0
 40
1.0
 40
1.0
 40
1.0
 10
120.8152489522
 20
235.764968895
 30
0.0
 10
120.8712131861
 20
236.1263771611
 30
0.0
 10
121.0477840502
 20
236.8409703614
 30
0.0
 10
121.5028027778
 20
237.8459210438
 30
0.0
 10
122.1345144746
 20
238.7503046997
 30
0.0
 10
122.6587233873
 20
239.2670505449
 30
0.0
 10
122.9408698167
 20
239.499739886
 30
0.0
  0
SPLINE
  5
396
100
AcDbEntity
  8
CO830K-A1198_2
100
AcDbSpline
 62
9
  6
CONTINUOUS
 70
0
 71
3
 72
11
 73
7
 74
0
 42
0.0000001
 43
0.0000001
 44
0.0000000001
 40
0.0
 40
0.0
 40
0.0
 40
0.0
 40
0.2500227755
 40
0.500000083
 40
0.7499775152
 40
1.0
 40
1.0
 40
1.0
 40
1.0
 10
99.065986207
 20
240.0465846551
 30
0.0
 10
99.5163517559
 20
239.7770447233
 30
0.0
 10
100.3547780004
 20
239.1239066666
 30
0.0
 10
101.3166772096
 20
237.854888641
 30
0.0
 10
101.9114961515
 20
236.3777833644
 30
0.0
 10
102.0413185062
 20
235.3229450599
 30
0.0
 10
102.0413109327
 20
234.7980829238
 30
0.0
  0
SPLINE
  5
397
100
AcDbEntity
  8
AI0193_9
100
AcDbSpline
 62
9
  6
CONTINUOUS
 70
0
 71
3
 72
22
 73
18
 74
0
 42
0.0000001
 43
0.0000001
 44
0.0000000001
 40
0.0
 40
0.0
 40
0.0
 40
0.0
 40
0.008533557
 40
0.0170518404
 40
0.0340494225
 40
0.0509934292
 40
0.0678829794
 40
0.1014940601
 40
0.1348767308
 40
0.2009506678
 40
0.2661165726
 40
0.33040861
 40
0.3938878652
 40
0.5186802433
 40
0.6410788655
 40
0.7616988158
 40
1.0
 40
1.0
 40
1.0
 40
1.0
 10
91.0318093114
 20
282.38997902
 30
0.0
 10
91.0791562522
 20
282.3995906691
 30
0.0
 10
91.1725902985
 20
282.4241347563
 30
0.0
 10
91.3603715895
 20
282.4676396358
 30
0.0
 10
91.5941147239
 20
282.5238047599
 30
0.0
 10
91.8741125124
 20
282.5902655913
 30
0.0
 10
92.2455578978
 20
282.6787470215
 30
0.0
 10
92.7075584211
 20
282.7887005722
 30
0.0
 10
93.4404730551
 20
282.9630304684
 30
0.0
 10
94.3473187203
 20
283.1781425081
 30
0.0
 10
95.4248553567
 20
283.4318585104
 30
0.0
 10
96.4887237503
 20
283.6795195181
 30
0.0
 10
97.8824730068
 20
283.9989711931
 30
0.0
 10
99.5993828076
 20
284.3809468892
 30
0.0
 10
101.6373662354
 20
284.8089079833
 30
0.0
 10
104.3122329308
 20
285.3294823693
 30
0.0
 10
106.3167523458
 20
285.6663195278
 30
0.0
 10
107.6513046135
 20
285.8641881753
 30
0.0
  0
SPLINE
  5
398
100
AcDbEntity
  8
AI0193_9
100
AcDbSpline
 62
9
  6
CONTINUOUS
 70
0
 71
3
 72
22
 73
18
 74
0
 42
0.0000001
 43
0.0000001
 44
0.0000000001
 40
0.0
 40
0.0
 40
0.0
 40
0.0
 40
0.2397875339
 40
0.3618974792
 40
0.4857113429
 40
0.6113710542
 40
0.6749254394
 40
0.73897189
 40
0.8035149777
 40
0.8685445859
 40
0.9012377063
 40
0.9340459294
 40
0.9504920635
 40
0.9669650318
 40
0.9834642259
 40
0.9917273873
 40
1.0
 40
1.0
 40
1.0
 40
1.0
 10
101.7742985642
 20
236.4457725281
 30
0.0
 10
100.9516509754
 20
236.6103828975
 30
0.0
 10
99.7122500013
 20
236.8697652875
 30
0.0
 10
98.052425085
 20
237.2342949746
 30
0.0
 10
96.7841454372
 20
237.5200920068
 30
0.0
 10
95.7167701284
 20
237.765423785
 30
0.0
 10
94.8536524492
 20
237.9658989238
 30
0.0
 10
94.1990120813
 20
238.1188132649
 30
0.0
 10
93.5394940638
 20
238.2735356874
 30
0.0
 10
92.9868629343
 20
238.4035823534
 30
0.0
 10
92.5423441339
 20
238.5083338492
 30
0.0
 10
92.2632862716
 20
238.5741438458
 30
0.0
 10
92.0394615714
 20
238.6269251745
 30
0.0
 10
91.8711893305
 20
238.6666581754
 30
0.0
 10
91.7307378454
 20
238.6996719908
 30
0.0
 10
91.6183141717
 20
238.7264372288
 30
0.0
 10
91.562176031
 20
238.7405687323
 30
0.0
 10
91.5337754281
 20
238.7461496302
 30
0.0
  0
SPLINE
  5
399
100
AcDbEntity
  8
AI0193_9
100
AcDbSpline
 62
9
  6
CONTINUOUS
 70
0
 71
3
 72
17
 73
13
 74
0
 42
0.0000001
 43
0.0000001
 44
0.0000000001
 40
0.0
 40
0.0
 40
0.0
 40
0.0
 40
0.1824813152
 40
0.36107186
 40
0.5286750683
 40
0.678190726
 40
0.8034118397
 40
0.899849105
 40
0.9364851186
 40
0.9652852484
 40
0.9863613379
 40
1.0
 40
1.0
 40
1.0
 40
1.0
 10
82.0887739032
 20
260.6733963334
 30
0.0
 10
82.3189214771
 20
260.6724888248
 30
0.0
 10
82.774305904
 20
260.6695143985
 30
0.0
 10
83.4410358444
 20
260.6612383009
 30
0.0
 10
84.0661214702
 20
260.6490720495
 30
0.0
 10
84.6238018852
 20
260.6332962463
 30
0.0
 10
85.0915526512
 20
260.6143561155
 30
0.0
 10
85.4168336328
 20
260.5955880831
 30
0.0
 10
85.6202669529
 20
260.5784754738
 30
0.0
 10
85.728796723
 20
260.5667277992
 30
0.0
 10
85.8079683458
 20
260.5548595156
 30
0.0
 10
85.8509499766
 20
260.5456136703
 30
0.0
 10
85.8672152354
 20
260.540016472
 30
0.0
  0
LINE
  5
39A
100
AcDbEntity
  8
AI0193_9
100
AcDbLine
 62
9
  6
CONTINUOUS
 10
85.8672152354
 20
260.540016472
 11
85.8737301421
 21
260.5375969338
  0
SPLINE
  5
39B
100
AcDbEntity
  8
AI0193_9
100
AcDbSpline
 62
9
  6
CONTINUOUS
 70
0
 71
3
 72
9
 73
5
 74
0
 42
0.0000001
 43
0.0000001
 44
0.0000000001
 40
0.0
 40
0.0
 40
0.0
 40
0.0
 40
0.3700926514
 40
1.0
 40
1.0
 40
1.0
 40
1.0
 10
85.8737301421
 20
260.5375969338
 30
0.0
 10
85.8764064468
 20
260.5365177608
 30
0.0
 10
85.8830714617
 20
260.5335315424
 30
0.0
 10
85.8915494358
 20
260.5280390359
 30
0.0
 10
85.8915719276
 20
260.5231275634
 30
0.0
  0
SPLINE
  5
39C
100
AcDbEntity
  8
AI0193_9
100
AcDbSpline
 62
9
  6
CONTINUOUS
 70
0
 71
3
 72
13
 73
9
 74
0
 42
0.0000001
 43
0.0000001
 44
0.0000000001
 40
0.0
 40
0.0
 40
0.0
 40
0.0
 40
0.3525255792
 40
0.5219436774
 40
0.6736586647
 40
0.7993480211
 40
0.8943342939
 40
1.0
 40
1.0
 40
1.0
 40
1.0
 10
91.5338237273
 20
238.7465882196
 30
0.0
 10
91.5186038786
 20
238.6311986626
 30
0.0
 10
91.5026829736
 20
238.4593822507
 30
0.0
 10
91.4993288633
 20
238.2366703556
 30
0.0
 10
91.5062078567
 20
238.0897537418
 30
0.0
 10
91.5239467221
 20
237.9661322995
 30
0.0
 10
91.5497554016
 20
237.8663040597
 30
0.0
 10
91.5922351129
 20
237.7967827237
 30
0.0
 10
91.626744176
 20
237.7916660351
 30
0.0
  0
SPLINE
  5
39D
100
AcDbEntity
  8
AI0193_9
100
AcDbSpline
 62
9
  6
CONTINUOUS
 70
0
 71
3
 72
13
 73
9
 74
0
 42
0.0000001
 43
0.0000001
 44
0.0000000001
 40
0.0
 40
0.0
 40
0.0
 40
0.0
 40
0.1056477584
 40
0.2006279256
 40
0.3263164591
 40
0.4780352946
 40
0.647460212
 40
1.0
 40
1.0
 40
1.0
 40
1.0
 10
34.2646376394
 20
246.2967491939
 30
0.0
 10
34.2301338794
 20
246.3018650963
 30
0.0
 10
34.1876722826
 20
246.3713985823
 30
0.0
 10
34.1619072051
 20
246.4712286616
 30
0.0
 10
34.1442081747
 20
246.5948574875
 30
0.0
 10
34.1373703928
 20
246.7417811059
 30
0.0
 10
34.1407713205
 20
246.9645040283
 30
0.0
 10
34.1567096578
 20
247.1363273758
 30
0.0
 10
34.1719303381
 20
247.2517234548
 30
0.0
  0
SPLINE
  5
39E
100
AcDbEntity
  8
AI0193_9
100
AcDbSpline
 62
9
  6
CONTINUOUS
 70
0
 71
3
 72
13
 73
9
 74
0
 42
0.0000001
 43
0.0000001
 44
0.0000000001
 40
0.0
 40
0.0
 40
0.0
 40
0.0
 40
0.1066635249
 40
0.2029652383
 40
0.3304000436
 40
0.4836305291
 40
0.6533896354
 40
1.0
 40
1.0
 40
1.0
 40
1.0
 10
34.2646375526
 20
274.9831423814
 30
0.0
 10
34.2272712907
 20
274.9776020505
 30
0.0
 10
34.1811818858
 20
274.902126918
 30
0.0
 10
34.1536096048
 20
274.7935857128
 30
0.0
 10
34.135099688
 20
274.6592375506
 30
0.0
 10
34.1288877721
 20
274.5003108296
 30
0.0
 10
34.1347503137
 20
274.2628967383
 30
0.0
 10
34.1538963554
 20
274.080748248
 30
0.0
 10
34.1718747904
 20
273.9593203029
 30
0.0
  0
SPLINE
  5
39F
100
AcDbEntity
  8
AI0193_9
100
AcDbSpline
 62
9
  6
CONTINUOUS
 70
0
 71
3
 72
12
 73
8
 74
0
 42
0.0000001
 43
0.0000001
 44
0.0000000001
 40
0.0
 40
0.0
 40
0.0
 40
0.0
 40
0.0216274069
 40
0.0680211539
 40
0.2505936348
 40
0.5608601666
 40
1.0
 40
1.0
 40
1.0
 40
1.0
 10
21.891335411
 20
260.6699596483
 30
0.0
 10
21.8913333719
 20
260.6689745141
 30
0.0
 10
21.8943950965
 20
260.6667707196
 30
0.0
 10
21.9047434515
 20
260.6637247916
 30
0.0
 10
21.9296679743
 20
260.6595553987
 30
0.0
 10
21.9715116432
 20
260.6553804715
 30
0.0
 10
22.0056933384
 20
260.6528568082
 30
0.0
 10
22.0256546637
 20
260.6515665601
 30
0.0
  0
SPLINE
  5
3A0
100
AcDbEntity
  8
AI0193_9
100
AcDbSpline
 62
9
  6
CONTINUOUS
 70
0
 71
3
 72
9
 73
5
 74
0
 42
0.0000001
 43
0.0000001
 44
0.0000000001
 40
0.0
 40
0.0
 40
0.0
 40
0.0
 40
0.4376574723
 40
1.0
 40
1.0
 40
1.0
 40
1.0
 10
22.0256546637
 20
260.6515665601
 30
0.0
 10
22.1168704792
 20
260.6456706072
 30
0.0
 10
22.3256535904
 20
260.6383667813
 30
0.0
 10
22.5344644276
 20
260.6345455056
 30
0.0
 10
22.6519043759
 20
260.6332548584
 30
0.0
  0
SPLINE
  5
3A1
100
AcDbEntity
  8
AI0193_9
100
AcDbSpline
 62
9
  6
CONTINUOUS
 70
0
 71
3
 72
13
 73
9
 74
0
 42
0.0000001
 43
0.0000001
 44
0.0000000001
 40
0.0
 40
0.0
 40
0.0
 40
0.0
 40
0.3466030021
 40
0.5163589262
 40
0.6695878342
 40
0.7970233735
 40
0.8933282672
 40
1.0
 40
1.0
 40
1.0
 40
1.0
 10
91.0318000905
 20
282.3899769912
 30
0.0
 10
91.0138219216
 20
282.5114025539
 30
0.0
 10
90.9946848148
 20
282.6935491993
 30
0.0
 10
90.9888461566
 20
282.9309600444
 30
0.0
 10
90.9950793495
 20
283.0898850369
 30
0.0
 10
91.0136098763
 20
283.2242311673
 30
0.0
 10
91.0412045918
 20
283.3327724433
 30
0.0
 10
91.0873031676
 20
283.4082426992
 30
0.0
 10
91.1246723884
 20
283.4137833375
 30
0.0
  0
SPLINE
  5
3A2
100
AcDbEntity
  8
AI0193_9
100
AcDbSpline
 62
9
  6
CONTINUOUS
 70
0
 71
3
 72
22
 73
18
 74
0
 42
0.0000001
 43
0.0000001
 44
0.0000000001
 40
0.0
 40
0.0
 40
0.0
 40
0.0
 40
0.2383011826
 40
0.3589211324
 40
0.4813197544
 40
0.6061121327
 40
0.6695913881
 40
0.7338834259
 40
0.799049331
 40
0.8651232685
 40
0.8985059393
 40
0.9321170202
 40
0.9490065706
 40
0.9659505774
 40
0.9829481595
 40
0.9914664429
 40
1.0
 40
1.0
 40
1.0
 40
1.0
 10
115.1313040836
 20
285.8641881751
 30
0.0
 10
116.4658563424
 20
285.6663195289
 30
0.0
 10
118.4703757471
 20
285.3294823829
 30
0.0
 10
121.145242436
 20
284.8089080302
 30
0.0
 10
123.1832258678
 20
284.3809469662
 30
0.0
 10
124.9001356767
 20
283.9989712974
 30
0.0
 10
126.2938849429
 20
283.6795196439
 30
0.0
 10
127.3577533458
 20
283.4318586516
 30
0.0
 10
128.4352899923
 20
283.1781426639
 30
0.0
 10
129.3421356661
 20
282.9630306352
 30
0.0
 10
130.0750503067
 20
282.7887007469
 30
0.0
 10
130.537050834
 20
282.6787472009
 30
0.0
 10
130.9084962224
 20
282.5902657741
 30
0.0
 10
131.188494013
 20
282.5238049452
 30
0.0
 10
131.4222371492
 20
282.4676398231
 30
0.0
 10
131.6100184415
 20
282.4241349452
 30
0.0
 10
131.7034524885
 20
282.3995908586
 30
0.0
 10
131.7507994298
 20
282.3899792105
 30
0.0
  0
SPLINE
  5
3A3
100
AcDbEntity
  8
AI0193_9
100
AcDbSpline
 62
9
  6
CONTINUOUS
 70
0
 71
3
 72
17
 73
13
 74
0
 42
0.0000001
 43
0.0000001
 44
0.0000000001
 40
0.0
 40
0.0
 40
0.0
 40
0.0
 40
0.1824813388
 40
0.3610718945
 40
0.5286751045
 40
0.6781907547
 40
0.8034118589
 40
0.8998491235
 40
0.9364851231
 40
0.9652852507
 40
0.9863613386
 40
1.0
 40
1.0
 40
1.0
 40
1.0
 10
140.6938333227
 20
260.6733963276
 30
0.0
 10
140.463685808
 20
260.6724888167
 30
0.0
 10
140.0083015134
 20
260.6695143863
 30
0.0
 10
139.3415717849
 20
260.6612382836
 30
0.0
 10
138.7164863941
 20
260.6490720296
 30
0.0
 10
138.158806214
 20
260.6332962264
 30
0.0
 10
137.6910556515
 20
260.614356093
 30
0.0
 10
137.3657748254
 20
260.5955880731
 30
0.0
 10
137.1623416061
 20
260.5784754591
 30
0.0
 10
137.0538119004
 20
260.5667277897
 30
0.0
 10
136.9746403142
 20
260.5548595089
 30
0.0
 10
136.9316587032
 20
260.5456136658
 30
0.0
 10
136.9153934518
 20
260.5400164691
 30
0.0
  0
LINE
  5
3A4
100
AcDbEntity
  8
AI0193_9
100
AcDbLine
 62
9
  6
CONTINUOUS
 10
136.9153934518
 20
260.5400164691
 11
136.9088785848
 21
260.5375969464
  0
SPLINE
  5
3A5
100
AcDbEntity
  8
AI0193_9
100
AcDbSpline
 62
9
  6
CONTINUOUS
 70
0
 71
3
 72
9
 73
5
 74
0
 42
0.0000001
 43
0.0000001
 44
0.0000000001
 40
0.0
 40
0.0
 40
0.0
 40
0.0
 40
0.3700926213
 40
1.0
 40
1.0
 40
1.0
 40
1.0
 10
136.9088785848
 20
260.5375969464
 30
0.0
 10
136.9062022771
 20
260.5365177731
 30
0.0
 10
136.899537254
 20
260.5335315525
 30
0.0
 10
136.8910592683
 20
260.5280390515
 30
0.0
 10
136.8910367681
 20
260.5231275736
 30
0.0
  0
SPLINE
  5
3A6
100
AcDbEntity
  8
AI0193_9
100
AcDbSpline
 62
9
  6
CONTINUOUS
 70
0
 71
3
 72
29
 73
25
 74
0
 42
0.0000001
 43
0.0000001
 44
0.0000000001
 40
0.0
 40
0.0
 40
0.0
 40
0.0
 40
0.0312726546
 40
0.0625457038
 40
0.1250232755
 40
0.1875011539
 40
0.2187742449
 40
0.2500470586
 40
0.3125250133
 40
0.3750026843
 40
0.4062754725
 40
0.4375480913
 40
0.5000252957
 40
0.5625041844
 40
0.5781441676
 40
0.5937842918
 40
0.6250569343
 40
0.6875321473
 40
0.7500130439
 40
0.8125001543
 40
0.8749732244
 40
0.9062408562
 40
0.9375134997
 40
1.0
 40
1.0
 40
1.0
 40
1.0
 10
101.5052415903
 20
237.1803805377
 30
0.0
 10
100.8349732452
 20
237.4625144114
 30
0.0
 10
99.5173694858
 20
238.0837363919
 30
0.0
 10
97.0037792641
 20
239.55044016
 30
0.0
 10
94.1097447234
 20
241.7778720859
 30
0.0
 10
91.6385027001
 20
244.4663951779
 30
0.0
 10
89.9575268646
 20
246.8424377274
 30
0.0
 10
88.4908349515
 20
249.3564106359
 30
0.0
 10
87.0667333266
 20
252.7190092987
 30
0.0
 10
86.2370000533
 20
256.2753822777
 30
0.0
 10
85.9433999831
 20
259.171047807
 30
0.0
 10
85.9026943979
 20
262.0812674315
 30
0.0
 10
86.3166107294
 20
265.7093295296
 30
0.0
 10
87.2417519344
 20
268.8636089003
 30
0.0
 10
88.0734663469
 20
270.8794386898
 30
0.0
 10
88.6881594817
 20
272.1983542723
 30
0.0
 10
89.9084958295
 20
274.4333590502
 30
0.0
 10
92.0549482499
 20
277.3881547995
 30
0.0
 10
95.1933085695
 20
280.4435163757
 30
0.0
 10
98.8100510727
 20
282.9141793025
 30
0.0
 10
102.1321999779
 20
284.4311639652
 30
0.0
 10
104.9125012725
 20
285.2911567912
 30
0.0
 10
107.7554421996
 20
285.9124447305
 30
0.0
 10
109.9421384235
 20
286.0975617719
 30
0.0
 10
111.3952248334
 20
286.0969759369
 30
0.0
  0
SPLINE
  5
3A7
100
AcDbEntity
  8
AI0193_9
100
AcDbSpline
 62
9
  6
CONTINUOUS
 70
0
 71
3
 72
13
 73
9
 74
0
 42
0.0000001
 43
0.0000001
 44
0.0000000001
 40
0.0
 40
0.0
 40
0.0
 40
0.0
 40
0.3466101783
 40
0.5163693064
 40
0.6695998731
 40
0.7970347844
 40
0.8933365832
 40
1.0
 40
1.0
 40
1.0
 40
1.0
 10
188.6107335123
 20
273.9593187956
 30
0.0
 10
188.6287120387
 20
274.0807468135
 30
0.0
 10
188.6478581405
 20
274.262895469
 30
0.0
 10
188.6537206957
 20
274.5003098265
 30
0.0
 10
188.6475087643
 20
274.6592368095
 30
0.0
 10
188.6289988503
 20
274.7935852585
 30
0.0
 10
188.6014265662
 20
274.902126579
 30
0.0
 10
188.5553373805
 20
274.9776020091
 30
0.0
 10
188.517971117
 20
274.9831423853
 30
0.0
  0
SPLINE
  5
3A8
100
AcDbEntity
  8
AI0193_9
100
AcDbSpline
 62
9
  6
CONTINUOUS
 70
0
 71
3
 72
12
 73
8
 74
0
 42
0.0000001
 43
0.0000001
 44
0.0000000001
 40
0.0
 40
0.0
 40
0.0
 40
0.0
 40
0.0216272067
 40
0.0680189334
 40
0.2505936885
 40
0.560860322
 40
1.0
 40
1.0
 40
1.0
 40
1.0
 10
200.8912732847
 20
260.6699596328
 30
0.0
 10
200.8912753123
 20
260.6689744005
 30
0.0
 10
200.8882131462
 20
260.6667706277
 30
0.0
 10
200.8778638837
 20
260.663724186
 30
0.0
 10
200.8529363019
 20
260.6595550065
 30
0.0
 10
200.8110881371
 20
260.6553795858
 30
0.0
 10
200.7769026548
 20
260.6528559016
 30
0.0
 10
200.7569391597
 20
260.6515655989
 30
0.0
  0
SPLINE
  5
3A9
100
AcDbEntity
  8
AI0193_9
100
AcDbSpline
 62
9
  6
CONTINUOUS
 70
0
 71
3
 72
9
 73
5
 74
0
 42
0.0000001
 43
0.0000001
 44
0.0000000001
 40
0.0
 40
0.0
 40
0.0
 40
0.0
 40
0.437663001
 40
1.0
 40
1.0
 40
1.0
 40
1.0
 10
200.7569391597
 20
260.6515655989
 30
0.0
 10
200.6657241151
 20
260.645670087
 30
0.0
 10
200.4569454709
 20
260.6383665432
 30
0.0
 10
200.2481390881
 20
260.6345454416
 30
0.0
 10
200.1307028029
 20
260.6332548417
 30
0.0
  0
SPLINE
  5
3AA
100
AcDbEntity
  8
AI0193_9
100
AcDbSpline
 62
9
  6
CONTINUOUS
 70
0
 71
3
 72
13
 73
9
 74
0
 42
0.0000001
 43
0.0000001
 44
0.0000000001
 40
0.0
 40
0.0
 40
0.0
 40
0.0
 40
0.3466052345
 40
0.5163610164
 40
0.6695892485
 40
0.797023964
 40
0.8933282422
 40
1.0
 40
1.0
 40
1.0
 40
1.0
 10
131.7508105276
 20
282.3899963115
 30
0.0
 10
131.7687879089
 20
282.5114205449
 30
0.0
 10
131.7879239724
 20
282.6935647156
 30
0.0
 10
131.7937614487
 20
282.9309717863
 30
0.0
 10
131.7875276077
 20
283.0898933168
 30
0.0
 10
131.7689967921
 20
283.224236101
 30
0.0
 10
131.7414019521
 20
283.3327749509
 30
0.0
 10
131.6953037705
 20
283.4082428766
 30
0.0
 10
131.6579352292
 20
283.4137834974
 30
0.0
  0
SPLINE
  5
3AB
100
AcDbEntity
  8
AI0193_9
100
AcDbSpline
 62
9
  6
CONTINUOUS
 70
0
 71
3
 72
13
 73
9
 74
0
 42
0.0000001
 43
0.0000001
 44
0.0000000001
 40
0.0
 40
0.0
 40
0.0
 40
0.0
 40
0.3525397827
 40
0.5219646584
 40
0.6736834345
 40
0.7993719007
 40
0.8943520236
 40
1.0
 40
1.0
 40
1.0
 40
1.0
 10
188.6106781489
 20
247.2517231086
 30
0.0
 10
188.6258987175
 20
247.1363270389
 30
0.0
 10
188.641837042
 20
246.9645037464
 30
0.0
 10
188.6452381181
 20
246.7417809083
 30
0.0
 10
188.6384004975
 20
246.5948573576
 30
0.0
 10
188.620701588
 20
246.4712286194
 30
0.0
 10
188.5949366135
 20
246.3713984339
 30
0.0
 10
188.5524747711
 20
246.3018650895
 30
0.0
 10
188.5179709464
 20
246.2967491777
 30
0.0
  0
SPLINE
  5
3AC
100
AcDbEntity
  8
AI0193_9
100
AcDbSpline
 62
9
  6
CONTINUOUS
 70
0
 71
3
 72
13
 73
9
 74
0
 42
0.0000001
 43
0.0000001
 44
0.0000000001
 40
0.0
 40
0.0
 40
0.0
 40
0.0
 40
0.1056657072
 40
0.2006519717
 40
0.3263413169
 40
0.4780562958
 40
0.6474743893
 40
1.0
 40
1.0
 40
1.0
 40
1.0
 10
131.1558465172
 20
237.7916633659
 30
0.0
 10
131.1903555707
 20
237.796780053
 30
0.0
 10
131.2328352791
 20
237.8663013537
 30
0.0
 10
131.2586439649
 20
237.9661295577
 30
0.0
 10
131.2763828397
 20
238.0897509519
 30
0.0
 10
131.2832618439
 20
238.2366675149
 30
0.0
 10
131.2799077599
 20
238.4593793517
 30
0.0
 10
131.2639868703
 20
238.631195724
 30
0.0
 10
131.2487670328
 20
238.7465852589
 30
0.0
  0
SPLINE
  5
3AD
100
AcDbEntity
  8
AI0193_9
100
AcDbSpline
 62
9
  6
CONTINUOUS
 70
0
 71
3
 72
22
 73
18
 74
0
 42
0.0000001
 43
0.0000001
 44
0.0000000001
 40
0.0
 40
0.0
 40
0.0
 40
0.0
 40
0.0082726023
 40
0.016535754
 40
0.0330349283
 40
0.0495078779
 40
0.0659539933
 40
0.0987621824
 40
0.1314552718
 40
0.1964848281
 40
0.2610278762
 40
0.3250743026
 40
0.3886286742
 40
0.5142883919
 40
0.6381022956
 40
0.7602123055
 40
1.0
 40
1.0
 40
1.0
 40
1.0
 10
131.2488333299
 20
238.7461492684
 30
0.0
 10
131.2204334242
 20
238.7405685084
 30
0.0
 10
131.1642966454
 20
238.7264374145
 30
0.0
 10
131.0518757486
 20
238.6996727403
 30
0.0
 10
130.9114276891
 20
238.6666597818
 30
0.0
 10
130.7431595663
 20
238.6269277414
 30
0.0
 10
130.519340323
 20
238.574147709
 30
0.0
 10
130.2402892473
 20
238.5083393151
 30
0.0
 10
129.7957812014
 20
238.4035903585
 30
0.0
 10
129.2431633669
 20
238.2735468162
 30
0.0
 10
128.5836611175
 20
238.1188280637
 30
0.0
 10
127.9290362812
 20
237.9659172866
 30
0.0
 10
127.0659388518
 20
237.7654467086
 30
0.0
 10
125.9985883712
 20
237.520120321
 30
0.0
 10
124.7303380389
 20
237.2343292364
 30
0.0
 10
123.0705511773
 20
236.8698065463
 30
0.0
 10
121.8311786451
 20
236.610428474
 30
0.0
 10
121.0085499523
 20
236.4458204369
 30
0.0
  0
SPLINE
  5
3AE
100
AcDbEntity
  8
AI0193_9
100
AcDbSpline
 62
9
  6
CONTINUOUS
 70
0
 71
3
 72
11
 73
7
 74
0
 42
0.0000001
 43
0.0000001
 44
0.0000000001
 40
0.0
 40
0.0
 40
0.0
 40
0.0
 40
0.4305340256
 40
0.7440213017
 40
0.934757146
 40
1.0
 40
1.0
 40
1.0
 40
1.0
 10
111.3952247951
 20
286.0969735207
 30
0.0
 10
111.3958453252
 20
286.1031540842
 30
0.0
 10
111.3967146734
 20
286.1134687501
 30
0.0
 10
111.3989047386
 20
286.1279957082
 30
0.0
 10
111.3993144092
 20
286.1341101042
 30
0.0
 10
111.4002136257
 20
286.1399441739
 30
0.0
 10
111.3992723183
 20
286.1399445493
 30
0.0
  0
SPLINE
  5
3AF
100
AcDbEntity
  8
AI0193_9
100
AcDbSpline
 62
9
  6
CONTINUOUS
 70
0
 71
3
 72
31
 73
27
 74
0
 42
0.0000001
 43
0.0000001
 44
0.0000000001
 40
0.0
 40
0.0
 40
0.0
 40
0.0
 40
0.0624660875
 40
0.0937327001
 40
0.125002746
 40
0.1562725941
 40
0.1875386111
 40
0.2500048782
 40
0.3124856073
 40
0.3437552177
 40
0.375019178
 40
0.4374867784
 40
0.4999680028
 40
0.5624422053
 40
0.6249121513
 40
0.6561817257
 40
0.6718202771
 40
0.6874587771
 40
0.7187282284
 40
0.7499882999
 40
0.8124598515
 40
0.8437294741
 40
0.8749994255
 40
0.9062674577
 40
0.9375280636
 40
1.0
 40
1.0
 40
1.0
 40
1.0
 10
111.3952248177
 20
286.0969735207
 30
0.0
 10
112.8477637887
 20
286.0963878972
 30
0.0
 10
115.0333422809
 20
285.9083421735
 30
0.0
 10
117.8758748714
 20
285.2898065581
 30
0.0
 10
119.9631811531
 20
284.6463359841
 30
0.0
 10
121.9858070159
 20
283.8222294386
 30
0.0
 10
124.5777822007
 20
282.5002156573
 30
0.0
 10
127.591150281
 20
280.4383514887
 30
0.0
 10
130.2109802681
 20
277.8945675505
 30
0.0
 10
132.0178738522
 20
275.613287052
 30
0.0
 10
133.6244432373
 20
273.1873242663
 30
0.0
 10
135.2345999277
 20
269.9098382974
 30
0.0
 10
136.4684466071
 20
265.7078431519
 30
0.0
 10
136.9624459014
 20
261.3564170177
 30
0.0
 10
136.752428214
 20
257.7108919283
 30
0.0
 10
136.2818448493
 20
255.2086245746
 30
0.0
 10
135.9221754858
 20
253.7989054554
 30
0.0
 10
135.5000039476
 20
252.4067335688
 30
0.0
 10
134.862307147
 20
250.7019027073
 30
0.0
 10
133.6139138005
 20
248.0740577737
 30
0.0
 10
132.0315730552
 20
245.6156908637
 30
0.0
 10
130.157937422
 20
243.3895746963
 30
0.0
 10
128.6112248028
 20
241.8473960992
 30
0.0
 10
126.938776357
 20
240.4429393018
 30
0.0
 10
124.5596239826
 20
238.7689284714
 30
0.0
 10
122.6188810546
 20
237.7464598676
 30
0.0
 10
121.2805421399
 20
237.1815582153
 30
0.0
  0
SPLINE
  5
3B0
100
AcDbEntity
  8
CO830K-A1198_2
100
AcDbSpline
 62
7
  6
CONTINUOUS
 70
0
 71
3
 72
27
 73
23
 74
0
 42
0.0000001
 43
0.0000001
 44
0.0000000001
 40
0.0
 40
0.0
 40
0.0
 40
0.0
 40
0.0004320363
 40
0.0017185046
 40
0.0038450706
 40
0.0067974219
 40
0.0105612684
 40
0.015122343
 40
0.0265695248
 40
0.0409426969
 40
0.0580138629
 40
0.0775575484
 40
0.0993649247
 40
0.1490302756
 40
0.2056426263
 40
0.2682170386
 40
0.3360089708
 40
0.4084807412
 40
0.4851723452
 40
0.6492682785
 40
0.823345544
 40
1.0
 40
1.0
 40
1.0
 40
1.0
 10
387.4479573458
 20
235.4793536201
 30
0.0
 10
387.4479573458
 20
235.4799362034
 30
0.0
 10
387.4452526062
 20
235.4810918979
 30
0.0
 10
387.4424628475
 20
235.4850709937
 30
0.0
 10
387.4356492131
 20
235.4907067067
 30
0.0
 10
387.4271727551
 20
235.498944953
 30
0.0
 10
387.4159303924
 20
235.5092462892
 30
0.0
 10
387.3963707791
 20
235.5273363048
 30
0.0
 10
387.3660883872
 20
235.5549484145
 30
0.0
 10
387.3230177365
 20
235.5935437086
 30
0.0
 10
387.2712480107
 20
235.6387953639
 30
0.0
 10
387.2112186031
 20
235.6898163815
 30
0.0
 10
387.1164536794
 20
235.7678156354
 30
0.0
 10
386.980087709
 20
235.8738899656
 30
0.0
 10
386.794551068
 20
236.0060050388
 30
0.0
 10
386.5822119994
 20
236.1421679293
 30
0.0
 10
386.3441373159
 20
236.2771247372
 30
0.0
 10
386.081343319
 20
236.4061258309
 30
0.0
 10
385.6909143581
 20
236.5680213343
 30
0.0
 10
385.1532677735
 20
236.7292905666
 30
0.0
 10
384.465742516
 20
236.8382895124
 30
0.0
 10
383.9918073101
 20
236.8540484001
 30
0.0
 10
383.7536473964
 20
236.8491000356
 30
0.0
  0
SPLINE
  5
3B1
100
AcDbEntity
  8
CO830K-A1198_2
100
AcDbSpline
 62
9
  6
CONTINUOUS
 70
0
 71
3
 72
13
 73
9
 74
0
 42
0.0000001
 43
0.0000001
 44
0.0000000001
 40
0.0
 40
0.0
 40
0.0
 40
0.0
 40
0.2468074385
 40
0.4953229245
 40
0.6203746173
 40
0.7460717202
 40
0.8726290914
 40
1.0
 40
1.0
 40
1.0
 40
1.0
 10
394.0249554811
 20
232.134124948
 30
0.0
 10
394.074553678
 20
232.3646241237
 30
0.0
 10
394.188501475
 20
232.8242201088
 30
0.0
 10
394.3751502654
 20
233.3878319286
 30
0.0
 10
394.5653461846
 20
233.8255612569
 30
0.0
 10
394.7378021812
 20
234.1430570386
 30
0.0
 10
394.9523006113
 20
234.4365022198
 30
0.0
 10
395.1462195493
 20
234.5940458485
 30
0.0
 10
395.2568977772
 20
234.6445998631
 30
0.0
  0
SPLINE
  5
3B2
100
AcDbEntity
  8
CO830K-A1198_2
100
AcDbSpline
 62
9
  6
CONTINUOUS
 70
0
 71
3
 72
8
 73
4
 74
0
 42
0.0000001
 43
0.0000001
 44
0.0000000001
 40
0.0
 40
0.0
 40
0.0
 40
0.0
 40
1.0
 40
1.0
 40
1.0
 40
1.0
 10
395.2568780014
 20
234.6445888214
 30
0.0
 10
395.5732702639
 20
234.6742037688
 30
0.0
 10
395.88738442
 20
234.7299315497
 30
0.0
 10
396.1977656358
 20
234.7980829234
 30
0.0
  0
SPLINE
  5
3B3
100
AcDbEntity
  8
CO830K-A1198_2
100
AcDbSpline
 62
9
  6
CONTINUOUS
 70
0
 71
3
 72
14
 73
10
 74
0
 42
0.0000001
 43
0.0000001
 44
0.0000000001
 40
0.0
 40
0.0
 40
0.0
 40
0.0
 40
0.0850240977
 40
0.18501116
 40
0.2986324377
 40
0.4241989284
 40
0.7023381201
 40
0.8500107547
 40
1.0
 40
1.0
 40
1.0
 40
1.0
 10
396.1979564637
 20
240.0465846551
 30
0.0
 10
396.2032356769
 20
239.8979238973
 30
0.0
 10
396.2062790392
 20
239.5741977216
 30
0.0
 10
396.210800124
 20
239.0517680935
 30
0.0
 10
396.2150993646
 20
238.4583680501
 30
0.0
 10
396.2161069398
 20
237.5532750317
 30
0.0
 10
396.2122739079
 20
236.5886071153
 30
0.0
 10
396.205574546
 20
235.5812384539
 30
0.0
 10
396.2019719626
 20
235.0604638731
 30
0.0
 10
396.1977656324
 20
234.7980829238
 30
0.0
  0
SPLINE
  5
3B4
100
AcDbEntity
  8
CO830K-A1198_2
100
AcDbSpline
 62
9
  6
CONTINUOUS
 70
0
 71
3
 72
10
 73
6
 74
0
 42
0.0000001
 43
0.0000001
 44
0.0000000001
 40
0.0
 40
0.0
 40
0.0
 40
0.0
 40
0.5210192565
 40
0.76596944
 40
1.0
 40
1.0
 40
1.0
 40
1.0
 10
396.1979573458
 20
240.046610874
 30
0.0
 10
396.2730014052
 20
240.046610874
 30
0.0
 10
396.3894825784
 20
240.0850417718
 30
0.0
 10
396.4812397051
 20
240.2004330438
 30
0.0
 10
396.4979573458
 20
240.2703193952
 30
0.0
 10
396.4979573458
 20
240.3040275605
 30
0.0
  0
SPLINE
  5
3B5
100
AcDbEntity
  8
CO830K-A1198_2
100
AcDbSpline
 62
9
  6
CONTINUOUS
 70
0
 71
3
 72
12
 73
8
 74
0
 42
0.0000001
 43
0.0000001
 44
0.0000000001
 40
0.0
 40
0.0
 40
0.0
 40
0.0
 40
0.2964299297
 40
0.5734113047
 40
0.8129579673
 40
0.9138496528
 40
1.0
 40
1.0
 40
1.0
 40
1.0
 10
395.2568809722
 20
234.6445889009
 30
0.0
 10
395.210052027
 20
235.1836001514
 30
0.0
 10
395.1394327807
 20
236.2281508574
 30
0.0
 10
395.1001478345
 20
237.7117891116
 30
0.0
 10
395.1252711791
 20
238.8392690937
 30
0.0
 10
395.1871862609
 20
239.6155890278
 30
0.0
 10
395.2308912476
 20
239.9544179893
 30
0.0
 10
395.2569070955
 20
240.1094918277
 30
0.0
  0
SPLINE
  5
3B6
100
AcDbEntity
  8
CO830K-A1198_2
100
AcDbSpline
 62
9
  6
CONTINUOUS
 70
0
 71
3
 72
27
 73
23
 74
0
 42
0.0000001
 43
0.0000001
 44
0.0000000001
 40
0.0
 40
0.0
 40
0.0
 40
0.0
 40
0.000317069
 40
0.0012654052
 40
0.0028406345
 40
0.0050383838
 40
0.0078542815
 40
0.0112839573
 40
0.0199671679
 40
0.0310530819
 40
0.0445034067
 40
0.0602587887
 40
0.0782517809
 40
0.120680819
 40
0.1712491957
 40
0.2293752268
 40
0.2944400665
 40
0.3658248715
 40
0.4429561216
 40
0.6124672447
 40
0.7991758781
 40
1.0
 40
1.0
 40
1.0
 40
1.0
 10
391.2979573458
 20
228.6399459215
 30
0.0
 10
391.298091977
 20
228.6394971017
 30
0.0
 10
391.2995066261
 20
228.6430416214
 30
0.0
 10
391.3016198941
 20
228.6445169259
 30
0.0
 10
391.3058496714
 20
228.6513049923
 30
0.0
 10
391.3114256974
 20
228.6587449193
 30
0.0
 10
391.3187127216
 20
228.6690835433
 30
0.0
 10
391.3315430687
 20
228.6869322337
 30
0.0
 10
391.3515511271
 20
228.7148371754
 30
0.0
 10
391.3802518369
 20
228.7546387891
 30
0.0
 10
391.4151534786
 20
228.8028923441
 30
0.0
 10
391.4561318231
 20
228.8593348925
 30
0.0
 10
391.5224241323
 20
228.9503262312
 30
0.0
 10
391.6193650445
 20
229.0826399578
 30
0.0
 10
391.7519731803
 20
229.2623467938
 30
0.0
 10
391.9052332854
 20
229.4683856223
 30
0.0
 10
392.0778642583
 20
229.6983534538
 30
0.0
 10
392.2685766431
 20
229.9498636955
 30
0.0
 10
392.5545639139
 20
230.3228341195
 30
0.0
 10
392.9489999166
 20
230.8274025866
 30
0.0
 10
393.4654230363
 20
231.468537648
 30
0.0
 10
393.8324799113
 20
231.9082154725
 30
0.0
 10
394.0249554811
 20
232.1341250114
 30
0.0
  0
SPLINE
  5
3B7
100
AcDbEntity
  8
CO830K-A1198_2
100
AcDbSpline
 62
9
  6
CONTINUOUS
 70
0
 71
3
 72
12
 73
8
 74
0
 42
0.0000001
 43
0.0000001
 44
0.0000000001
 40
0.0
 40
0.0
 40
0.0
 40
0.0
 40
0.2538116087
 40
0.5144957939
 40
0.6429871766
 40
0.7677317799
 40
1.0
 40
1.0
 40
1.0
 40
1.0
 10
394.0249557268
 20
232.1341260882
 30
0.0
 10
393.8286483724
 20
232.8928313173
 30
0.0
 10
393.2232897348
 20
234.3815058446
 30
0.0
 10
392.0654707996
 20
236.0159990543
 30
0.0
 10
390.9336611699
 20
237.1338524734
 30
0.0
 10
389.7449081519
 20
238.0499557572
 30
0.0
 10
388.7408491305
 20
238.5530108507
 30
0.0
 10
388.0545423364
 20
238.7611385415
 30
0.0
  0
SPLINE
  5
3B8
100
AcDbEntity
  8
CO830K-A1198_2
100
AcDbSpline
 62
9
  6
CONTINUOUS
 70
0
 71
3
 72
10
 73
6
 74
0
 42
0.0000001
 43
0.0000001
 44
0.0000000001
 40
0.0
 40
0.0
 40
0.0
 40
0.0
 40
0.5328940127
 40
0.7792869036
 40
1.0
 40
1.0
 40
1.0
 40
1.0
 10
395.2569070955
 20
240.1094918277
 30
0.0
 10
393.9479390487
 20
240.1560187231
 30
0.0
 10
392.0170112055
 20
239.9795117646
 30
0.0
 10
389.634469063
 20
239.3683813198
 30
0.0
 10
388.553334557
 20
238.974442355
 30
0.0
 10
388.0545410626
 20
238.7611379894
 30
0.0
  0
SPLINE
  5
3B9
100
AcDbEntity
  8
CO830K-A1198_2
100
AcDbSpline
 62
9
  6
CONTINUOUS
 70
0
 71
3
 72
9
 73
5
 74
0
 42
0.0000001
 43
0.0000001
 44
0.0000000001
 40
0.0
 40
0.0
 40
0.0
 40
0.0
 40
0.2197614746
 40
1.0
 40
1.0
 40
1.0
 40
1.0
 10
383.7536473965
 20
236.8491000269
 30
0.0
 10
383.7888433716
 20
236.8652462711
 30
0.0
 10
383.949010046
 20
236.9386932436
 30
0.0
 10
384.1092411466
 20
237.0119998081
 30
0.0
 10
384.2343102621
 20
237.0690854117
 30
0.0
  0
LINE
  5
3BA
100
AcDbEntity
  8
CO830K-A1198_2
100
AcDbLine
 62
9
  6
CONTINUOUS
 10
384.2343102621
 20
237.0690854117
 11
384.2552914924
 21
237.0786606731
  0
LINE
  5
3BB
100
AcDbEntity
  8
CO830K-A1198_2
100
AcDbLine
 62
9
  6
CONTINUOUS
 10
384.2552914924
 20
237.0786606731
 11
384.271188321
 21
237.0859138748
  0
SPLINE
  5
3BC
100
AcDbEntity
  8
CO830K-A1198_2
100
AcDbSpline
 62
9
  6
CONTINUOUS
 70
0
 71
3
 72
9
 73
5
 74
0
 42
0.0000001
 43
0.0000001
 44
0.0000000001
 40
0.0
 40
0.0
 40
0.0
 40
0.0
 40
0.2491662261
 40
1.0
 40
1.0
 40
1.0
 40
1.0
 10
396.1979573458
 20
240.0465844081
 30
0.0
 10
396.1199194875
 20
240.0534329706
 30
0.0
 10
395.806671827
 20
240.0801812011
 30
0.0
 10
395.4928150829
 20
240.1009677344
 30
0.0
 10
395.2569070955
 20
240.1094918277
 30
0.0
  0
SPLINE
  5
3BD
100
AcDbEntity
  8
AI0193_9
100
AcDbSpline
 62
9
  6
CONTINUOUS
 70
0
 71
3
 72
16
 73
12
 74
0
 42
0.0000001
 43
0.0000001
 44
0.0000000001
 40
0.0
 40
0.0
 40
0.0
 40
0.0
 40
0.0362603234
 40
0.0783716571
 40
0.1776218617
 40
0.2930951495
 40
0.4208830257
 40
0.5578374764
 40
0.7013942819
 40
0.8494088535
 40
1.0
 40
1.0
 40
1.0
 40
1.0
 10
331.5659405302
 20
237.7916646317
 30
0.0
 10
331.6683614009
 20
237.7288093122
 30
0.0
 10
331.8988369452
 20
237.607854724
 30
0.0
 10
332.4401256096
 20
237.375789616
 30
0.0
 10
333.2482351418
 20
237.1048797533
 30
0.0
 10
334.3426890452
 20
236.8032193153
 30
0.0
 10
335.5687248469
 20
236.5113764753
 30
0.0
 10
336.8919677566
 20
236.2282295149
 30
0.0
 10
338.2851471075
 20
235.9524449716
 30
0.0
 10
339.7253257424
 20
235.6818519246
 30
0.0
 10
340.6989902163
 20
235.5049269329
 30
0.0
 10
341.1900224961
 20
235.4157034795
 30
0.0
  0
SPLINE
  5
3BE
100
AcDbEntity
  8
AI0193_9
100
AcDbSpline
 62
9
  6
CONTINUOUS
 70
0
 71
3
 72
16
 73
12
 74
0
 42
0.0000001
 43
0.0000001
 44
0.0000000001
 40
0.0
 40
0.0
 40
0.0
 40
0.0
 40
0.0267921965
 40
0.0594062464
 40
0.0978558273
 40
0.1420343748
 40
0.246731139
 40
0.3713025837
 40
0.512762996
 40
0.6675334644
 40
1.0
 40
1.0
 40
1.0
 40
1.0
 10
334.6318051507
 20
235.4157033211
 30
0.0
 10
334.4953715176
 20
235.4945416104
 30
0.0
 10
334.179237738
 20
235.6456248139
 30
0.0
 10
333.639119795
 20
235.8455120511
 30
0.0
 10
332.9891639647
 20
236.0391142186
 30
0.0
 10
331.9189093647
 20
236.3018157736
 30
0.0
 10
330.336058037
 20
236.5932661547
 30
0.0
 10
328.1744084283
 20
236.8823224801
 30
0.0
 10
325.7101649421
 20
237.1173249562
 30
0.0
 10
322.019806916
 20
237.3541995693
 30
0.0
 10
319.1533077023
 20
237.4210962763
 30
0.0
 10
317.1979573458
 20
237.4210962763
 30
0.0
  0
SPLINE
  5
3BF
100
AcDbEntity
  8
AI0193_9
100
AcDbSpline
 62
9
  6
CONTINUOUS
 70
0
 71
3
 72
16
 73
12
 74
0
 42
0.0000001
 43
0.0000001
 44
0.0000000001
 40
0.0
 40
0.0
 40
0.0
 40
0.0
 40
0.332483868
 40
0.4872518985
 40
0.628711554
 40
0.7532778655
 40
0.8579709412
 40
0.902147746
 40
0.9405957204
 40
0.9732086003
 40
1.0
 40
1.0
 40
1.0
 40
1.0
 10
317.1979573458
 20
237.4210962864
 30
0.0
 10
315.2425050515
 20
237.4210962864
 30
0.0
 10
312.3759180828
 20
237.354194195
 30
0.0
 10
308.6854777627
 20
237.1173035869
 30
0.0
 10
306.2212838418
 20
236.8822970309
 30
0.0
 10
304.0596912604
 20
236.5932394162
 30
0.0
 10
302.4769023107
 20
236.3017935813
 30
0.0
 10
301.4066890559
 20
236.0390972632
 30
0.0
 10
300.7567595353
 20
235.8454999597
 30
0.0
 10
300.2166620186
 20
235.6456181317
 30
0.0
 10
299.9005390651
 20
235.4945392751
 30
0.0
 10
299.7641094937
 20
235.4157033237
 30
0.0
  0
SPLINE
  5
3C0
100
AcDbEntity
  8
AI0193_9
100
AcDbSpline
 62
7
  6
CONTINUOUS
 70
0
 71
3
 72
9
 73
5
 74
0
 42
0.0000001
 43
0.0000001
 44
0.0000000001
 40
0.0
 40
0.0
 40
0.0
 40
0.0
 40
0.2706861811
 40
1.0
 40
1.0
 40
1.0
 40
1.0
 10
298.6979573458
 20
275.7796699144
 30
0.0
 10
298.7451499621
 20
275.7521615892
 30
0.0
 10
298.9179412851
 20
275.6480276762
 30
0.0
 10
299.0847032416
 20
275.5329279656
 30
0.0
 10
299.1979573458
 20
275.4389371382
 30
0.0
  0
SPLINE
  5
3C1
100
AcDbEntity
  8
AI0193_9
100
AcDbSpline
 62
7
  6
CONTINUOUS
 70
0
 71
3
 72
9
 73
5
 74
0
 42
0.0000001
 43
0.0000001
 44
0.0000000001
 40
0.0
 40
0.0
 40
0.0
 40
0.0
 40
0.2291116489
 40
1.0
 40
1.0
 40
1.0
 40
1.0
 10
299.1979573458
 20
245.84095445
 30
0.0
 10
299.162374899
 20
245.8114241858
 30
0.0
 10
299.0032732449
 20
245.6871001325
 30
0.0
 10
298.8323726082
 20
245.5785716157
 30
0.0
 10
298.6979573458
 20
245.5002216738
 30
0.0
  0
SPLINE
  5
3C2
100
AcDbEntity
  8
AI0193_9
100
AcDbSpline
 62
9
  6
CONTINUOUS
 70
0
 71
3
 72
16
 73
12
 74
0
 42
0.0000001
 43
0.0000001
 44
0.0000000001
 40
0.0
 40
0.0
 40
0.0
 40
0.0
 40
0.1483791473
 40
0.2949766307
 40
0.437888772
 40
0.5749302483
 40
0.7034633836
 40
0.8201791388
 40
0.9208100825
 40
0.9634634651
 40
1.0
 40
1.0
 40
1.0
 40
1.0
 10
343.3438806088
 20
285.8641881352
 30
0.0
 10
342.8249303105
 20
285.7715610868
 30
0.0
 10
341.7931055921
 20
285.5882870339
 30
0.0
 10
340.2625622088
 20
285.3095909979
 30
0.0
 10
338.7738530492
 20
285.0261254754
 30
0.0
 10
337.3519949159
 20
284.7353212143
 30
0.0
 10
336.0271142722
 20
284.4354705639
 30
0.0
 10
334.8380211402
 20
284.1250552469
 30
0.0
 10
333.9563187465
 20
283.8458313554
 30
0.0
 10
333.3641163929
 20
283.6054435047
 30
0.0
 10
333.1118176431
 20
283.4795729699
 30
0.0
 10
332.9999200056
 20
283.4137841396
 30
0.0
  0
SPLINE
  5
3C3
100
AcDbEntity
  8
AI0193_9
100
AcDbSpline
 62
9
  6
CONTINUOUS
 70
0
 71
3
 72
19
 73
15
 74
0
 42
0.0000001
 43
0.0000001
 44
0.0000000001
 40
0.0
 40
0.0
 40
0.0
 40
0.0
 40
0.1706119336
 40
0.3358663882
 40
0.4907739773
 40
0.631095844
 40
0.6947257495
 40
0.7535453595
 40
0.8073139129
 40
0.8558823203
 40
0.8992120768
 40
0.9374116286
 40
0.9707998186
 40
1.0
 40
1.0
 40
1.0
 40
1.0
 10
335.8446213393
 20
260.6399457903
 30
0.0
 10
335.9101182719
 20
262.1740391884
 30
0.0
 10
336.1188258903
 20
265.1912724013
 30
0.0
 10
336.6609587269
 20
269.5770605312
 30
0.0
 10
337.4090347163
 20
273.6557979474
 30
0.0
 10
338.2035992042
 20
276.7898132125
 30
0.0
 10
338.9317621909
 20
279.0406218227
 30
0.0
 10
339.4926641594
 20
280.5248435412
 30
0.0
 10
340.0816071719
 20
281.8512759855
 30
0.0
 10
340.6941747531
 20
283.0117342319
 30
0.0
 10
341.3259573027
 20
283.9994726354
 30
0.0
 10
341.9733885708
 20
284.8092656489
 30
0.0
 10
342.6329439067
 20
285.436648575
 30
0.0
 10
343.108059419
 20
285.7482074063
 30
0.0
 10
343.3438807081
 20
285.8641881642
 30
0.0
  0
SPLINE
  5
3C4
100
AcDbEntity
  8
AI0193_9
100
AcDbSpline
 62
9
  6
CONTINUOUS
 70
0
 71
3
 72
23
 73
19
 74
0
 42
0.0000001
 43
0.0000001
 44
0.0000000001
 40
0.0
 40
0.0
 40
0.0
 40
0.0
 40
0.0049238523
 40
0.0099295966
 40
0.0201825979
 40
0.0307526161
 40
0.0416329292
 40
0.064292025
 40
0.0880966682
 40
0.1129796678
 40
0.1388735317
 40
0.19342878
 40
0.2512622921
 40
0.3119215628
 40
0.4400987462
 40
0.5751466186
 40
0.7147500891
 40
1.0
 40
1.0
 40
1.0
 40
1.0
 10
333.9701910923
 20
282.38997902
 30
0.0
 10
333.9831080211
 20
282.4003023684
 30
0.0
 10
334.0065368275
 20
282.4241751624
 30
0.0
 10
334.057835242
 20
282.4684659144
 30
0.0
 10
334.1237349518
 20
282.5248807562
 30
0.0
 10
334.206929455
 20
282.5913452433
 30
0.0
 10
334.3247775457
 20
282.6811055957
 30
0.0
 10
334.4820226001
 20
282.7923895985
 30
0.0
 10
334.6827906268
 20
282.9232388567
 30
0.0
 10
334.8970701132
 20
283.0529913677
 30
0.0
 10
335.2048371774
 20
283.2274360108
 30
0.0
 10
335.6175056707
 20
283.4407975311
 30
0.0
 10
336.1441042415
 20
283.6868631395
 30
0.0
 10
336.9059826646
 20
284.0123571446
 30
0.0
 10
337.9240944305
 20
284.3965321677
 30
0.0
 10
339.2097306777
 20
284.818522763
 30
0.0
 10
341.0168437726
 20
285.3390648803
 30
0.0
 10
342.4064907655
 20
285.6668739228
 30
0.0
 10
343.3438807994
 20
285.8641881753
 30
0.0
  0
SPLINE
  5
3C5
100
AcDbEntity
  8
AI0193_9
100
AcDbSpline
 62
9
  6
CONTINUOUS
 70
0
 71
3
 72
23
 73
19
 74
0
 42
0.0000001
 43
0.0000001
 44
0.0000000001
 40
0.0
 40
0.0
 40
0.0
 40
0.0
 40
0.2891821385
 40
0.4294164462
 40
0.5642914193
 40
0.6916092799
 40
0.7516437858
 40
0.8087716173
 40
0.8625934141
 40
0.8881335039
 40
0.9126875764
 40
0.9361998473
 40
0.9586191842
 40
0.9694047028
 40
0.9798998429
 40
0.9900996285
 40
0.995087977
 40
1.0
 40
1.0
 40
1.0
 40
1.0
 10
341.1900230822
 20
235.4157033537
 30
0.0
 10
340.3084245363
 20
235.6048745337
 30
0.0
 10
339.0058001944
 20
235.9192134159
 30
0.0
 10
337.3189259573
 20
236.4205530503
 30
0.0
 10
336.1308156568
 20
236.8251787605
 30
0.0
 10
335.1955217692
 20
237.1936127447
 30
0.0
 10
334.4998362989
 20
237.5055471494
 30
0.0
 10
334.0213972466
 20
237.7410347028
 30
0.0
 10
333.6477962201
 20
237.9452223463
 30
0.0
 10
333.3700082199
 20
238.1120795363
 30
0.0
 10
333.1769055403
 20
238.2361862807
 30
0.0
 10
332.9962051679
 20
238.3613577934
 30
0.0
 10
332.8548784905
 20
238.4677671758
 30
0.0
 10
332.7490298047
 20
238.5535824591
 30
0.0
 10
332.6742223343
 20
238.617154737
 30
0.0
 10
332.6150702874
 20
238.671156718
 30
0.0
 10
332.5688049442
 20
238.7134118071
 30
0.0
 10
332.5480277885
 20
238.73644078
 30
0.0
 10
332.536182683
 20
238.7461496302
 30
0.0
  0
SPLINE
  5
3C6
100
AcDbEntity
  8
AI0193_9
100
AcDbSpline
 62
9
  6
CONTINUOUS
 70
0
 71
3
 72
11
 73
7
 74
0
 42
0.0000001
 43
0.0000001
 44
0.0000000001
 40
0.0
 40
0.0
 40
0.0
 40
0.0
 40
0.129899611
 40
0.3648555972
 40
0.6732420882
 40
1.0
 40
1.0
 40
1.0
 40
1.0
 10
330.9882342524
 20
260.6733963334
 30
0.0
 10
331.1983776082
 20
260.6700363779
 30
0.0
 10
331.7884907042
 20
260.6539000824
 30
0.0
 10
332.8772722409
 20
260.621709787
 30
0.0
 10
334.2843126796
 20
260.5761063741
 30
0.0
 10
335.3113527714
 20
260.5413898023
 30
0.0
 10
335.8397130564
 20
260.5231275634
 30
0.0
  0
SPLINE
  5
3C7
100
AcDbEntity
  8
AI0193_9
100
AcDbSpline
 62
9
  6
CONTINUOUS
 70
0
 71
3
 72
11
 73
7
 74
0
 42
0.0000001
 43
0.0000001
 44
0.0000000001
 40
0.0
 40
0.0
 40
0.0
 40
0.0
 40
0.241915651
 40
0.5028719676
 40
0.7620580316
 40
1.0
 40
1.0
 40
1.0
 40
1.0
 10
332.5362101625
 20
238.7465882196
 30
0.0
 10
332.5281289057
 20
238.627389371
 30
0.0
 10
332.4666185717
 20
238.3806504513
 30
0.0
 10
332.2473371701
 20
238.0642064265
 30
0.0
 10
331.9291819182
 20
237.850526716
 30
0.0
 10
331.6833785709
 20
237.7957801672
 30
0.0
 10
331.5659405811
 20
237.7916660351
 30
0.0
  0
SPLINE
  5
3C8
100
AcDbEntity
  8
AI0193_9
100
AcDbSpline
 62
9
  6
CONTINUOUS
 70
0
 71
3
 72
11
 73
7
 74
0
 42
0.0000001
 43
0.0000001
 44
0.0000000001
 40
0.0
 40
0.0
 40
0.0
 40
0.0
 40
0.2379410244
 40
0.4971281814
 40
0.7580854585
 40
1.0
 40
1.0
 40
1.0
 40
1.0
 10
317.7148791218
 20
246.2967491939
 30
0.0
 10
317.832322993
 20
246.3008635321
 30
0.0
 10
318.0781395188
 20
246.3556143757
 30
0.0
 10
318.3963116429
 20
246.5693065442
 30
0.0
 10
318.6156066359
 20
246.8857667247
 30
0.0
 10
318.6771217932
 20
247.1325187103
 30
0.0
 10
318.6852034483
 20
247.2517234548
 30
0.0
  0
SPLINE
  5
3C9
100
AcDbEntity
  8
AI0193_9
100
AcDbSpline
 62
9
  6
CONTINUOUS
 70
0
 71
3
 72
12
 73
8
 74
0
 42
0.0000001
 43
0.0000001
 44
0.0000000001
 40
0.0
 40
0.0
 40
0.0
 40
0.0
 40
0.1037307742
 40
0.2155288368
 40
0.4597470986
 40
0.7245296424
 40
1.0
 40
1.0
 40
1.0
 40
1.0
 10
333.9701903357
 20
282.389978995
 30
0.0
 10
333.7635793409
 20
281.6590937317
 30
0.0
 10
333.3692189239
 20
280.1304758004
 30
0.0
 10
332.6526527605
 20
276.8407029218
 30
0.0
 10
331.9129368669
 20
272.3524938955
 30
0.0
 10
331.290306364
 20
266.640096043
 30
0.0
 10
331.0579107745
 20
262.6892139424
 30
0.0
 10
330.9882346149
 20
260.6733963276
 30
0.0
  0
SPLINE
  5
3CA
100
AcDbEntity
  8
AI0193_9
100
AcDbSpline
 62
9
  6
CONTINUOUS
 70
0
 71
3
 72
12
 73
8
 74
0
 42
0.0000001
 43
0.0000001
 44
0.0000000001
 40
0.0
 40
0.0
 40
0.0
 40
0.0
 40
0.2774690657
 40
0.5433941338
 40
0.7871900804
 40
0.8979418889
 40
1.0
 40
1.0
 40
1.0
 40
1.0
 10
330.9882342524
 20
260.6733963334
 30
0.0
 10
330.9178429242
 20
258.6368879895
 30
0.0
 10
330.8774729754
 20
254.6444047399
 30
0.0
 10
331.1144960539
 20
248.865759647
 30
0.0
 10
331.5612194903
 20
244.3273542561
 30
0.0
 10
332.0716706605
 20
241.012438971
 30
0.0
 10
332.3729926931
 20
239.4782371922
 30
0.0
 10
332.5360683741
 20
238.7466812284
 30
0.0
  0
SPLINE
  5
3CB
100
AcDbEntity
  8
AI0193_9
100
AcDbSpline
 62
9
  6
CONTINUOUS
 70
0
 71
3
 72
18
 73
14
 74
0
 42
0.0000001
 43
0.0000001
 44
0.0000000001
 40
0.0
 40
0.0
 40
0.0
 40
0.0
 40
0.0258178387
 40
0.0563420911
 40
0.0922766462
 40
0.1339416373
 40
0.1814102459
 40
0.2346180241
 40
0.3573306699
 40
0.4994902728
 40
0.6572383157
 40
0.8258441323
 40
1.0
 40
1.0
 40
1.0
 40
1.0
 10
318.6851747408
 20
247.2513013261
 30
0.0
 10
318.583374427
 20
247.3138106215
 30
0.0
 10
318.3812718133
 20
247.483110012
 30
0.0
 10
318.1131460167
 20
247.8174658179
 30
0.0
 10
317.8570703319
 20
248.2487260863
 30
0.0
 10
317.6145341867
 20
248.7749647293
 30
0.0
 10
317.3868940657
 20
249.3935772814
 30
0.0
 10
317.091695332
 20
250.3847064248
 30
0.0
 10
316.7839709136
 20
251.8261407292
 30
0.0
 10
316.5141578082
 20
253.7640540042
 30
0.0
 10
316.3399391284
 20
255.9259630949
 30
0.0
 10
316.2683268145
 20
258.2415263806
 30
0.0
 10
316.2910256538
 20
259.8279568175
 30
0.0
 10
316.3201822201
 20
260.6332548584
 30
0.0
  0
SPLINE
  5
3CC
100
AcDbEntity
  8
AI0193_9
100
AcDbSpline
 62
9
  6
CONTINUOUS
 70
0
 71
3
 72
18
 73
14
 74
0
 42
0.0000001
 43
0.0000001
 44
0.0000000001
 40
0.0
 40
0.0
 40
0.0
 40
0.0
 40
0.1730152002
 40
0.3404800784
 40
0.4972395871
 40
0.6388604156
 40
0.7617169529
 40
0.815270114
 40
0.8632522255
 40
0.9055613343
 40
0.9422339818
 40
0.9735193984
 40
1.0
 40
1.0
 40
1.0
 40
1.0
 10
316.3201822725
 20
260.633254856
 30
0.0
 10
316.3494095085
 20
261.4405047801
 30
0.0
 10
316.4417946468
 20
263.0280852421
 30
0.0
 10
316.6808695794
 20
265.3380570435
 30
0.0
 10
317.0103792948
 20
267.4889691251
 30
0.0
 10
317.4181809077
 20
269.414021592
 30
0.0
 10
317.8272179153
 20
270.8434939896
 30
0.0
 10
318.191144732
 20
271.8264205409
 30
0.0
 10
318.4619985555
 20
272.4415184034
 30
0.0
 10
318.7412238353
 20
272.9651761431
 30
0.0
 10
319.027238251
 20
273.3946149298
 30
0.0
 10
319.3183530799
 20
273.7276661319
 30
0.0
 10
319.5319585502
 20
273.8966344106
 30
0.0
 10
319.6385217376
 20
273.9593203139
 30
0.0
  0
SPLINE
  5
3CD
100
AcDbEntity
  8
AI0193_9
100
AcDbSpline
 62
9
  6
CONTINUOUS
 70
0
 71
3
 72
11
 73
7
 74
0
 42
0.0000001
 43
0.0000001
 44
0.0000000001
 40
0.0
 40
0.0
 40
0.0
 40
0.0
 40
0.2368507872
 40
0.4970228118
 40
0.7590643448
 40
1.0
 40
1.0
 40
1.0
 40
1.0
 10
318.6682261596
 20
274.9831423814
 30
0.0
 10
318.7902735272
 20
274.9786793197
 30
0.0
 10
319.0468501171
 20
274.9189183728
 30
0.0
 10
319.3741841585
 20
274.6862939567
 30
0.0
 10
319.5894009961
 20
274.3450855506
 30
0.0
 10
319.6384175714
 20
274.0835555105
 30
0.0
 10
319.638521719
 20
273.9593203029
 30
0.0
  0
SPLINE
  5
3CE
100
AcDbEntity
  8
AI0193_9
100
AcDbSpline
 62
9
  6
CONTINUOUS
 70
0
 71
3
 72
9
 73
5
 74
0
 42
0.0000001
 43
0.0000001
 44
0.0000000001
 40
0.0
 40
0.0
 40
0.0
 40
0.0
 40
0.6351434858
 40
1.0
 40
1.0
 40
1.0
 40
1.0
 10
315.3498862715
 20
260.6699596483
 30
0.0
 10
315.5553244582
 20
260.6625215992
 30
0.0
 10
315.8787578262
 20
260.6503687102
 30
0.0
 10
316.2022087834
 20
260.6385173881
 30
0.0
 10
316.3201822201
 20
260.6332548584
 30
0.0
  0
SPLINE
  5
3CF
100
AcDbEntity
  8
AI0193_9
100
AcDbSpline
 62
9
  6
CONTINUOUS
 70
0
 71
3
 72
18
 73
14
 74
0
 42
0.0000001
 43
0.0000001
 44
0.0000000001
 40
0.0
 40
0.0
 40
0.0
 40
0.0
 40
0.0254927524
 40
0.0560160045
 40
0.0921257748
 40
0.1340422077
 40
0.1817773602
 40
0.2352098639
 40
0.3581470841
 40
0.5001936763
 40
0.6576435865
 40
0.8259891211
 40
1.0
 40
1.0
 40
1.0
 40
1.0
 10
318.6682261784
 20
274.9831423933
 30
0.0
 10
318.5607955978
 20
274.915264986
 30
0.0
 10
318.3461329982
 20
274.732267703
 30
0.0
 10
318.0556789965
 20
274.3747561971
 30
0.0
 10
317.7700889013
 20
273.9138084503
 30
0.0
 10
317.4911495763
 20
273.3516566038
 30
0.0
 10
317.2204719596
 20
272.6912337573
 30
0.0
 10
316.8563254152
 20
271.634630336
 30
0.0
 10
316.447414666
 20
270.0989772398
 30
0.0
 10
316.0398350055
 20
268.0319970312
 30
0.0
 10
315.7104603433
 20
265.7222576231
 30
0.0
 10
315.4714552382
 20
263.2415583424
 30
0.0
 10
315.3791095966
 20
261.5368845418
 30
0.0
 10
315.3498864501
 20
260.6699596423
 30
0.0
  0
SPLINE
  5
3D0
100
AcDbEntity
  8
AI0193_9
100
AcDbSpline
 62
9
  6
CONTINUOUS
 70
0
 71
3
 72
18
 73
14
 74
0
 42
0.0000001
 43
0.0000001
 44
0.0000000001
 40
0.0
 40
0.0
 40
0.0
 40
0.0
 40
0.1749941705
 40
0.3443534506
 40
0.5027116431
 40
0.6452755214
 40
0.7681107208
 40
0.8212419909
 40
0.8685198091
 40
0.9098587774
 40
0.9452997252
 40
0.975125133
 40
1.0
 40
1.0
 40
1.0
 40
1.0
 10
315.3488818601
 20
260.6399457879
 30
0.0
 10
315.320180292
 20
259.7763088647
 30
0.0
 10
315.2982799951
 20
258.0754705531
 30
0.0
 10
315.3707585018
 20
255.593424548
 30
0.0
 10
315.5454582113
 20
253.2767596312
 30
0.0
 10
315.8153495488
 20
251.2006903173
 30
0.0
 10
316.1228467305
 20
249.6560946323
 30
0.0
 10
316.4179416206
 20
248.5934393489
 30
0.0
 10
316.6451993181
 20
247.9308608829
 30
0.0
 10
316.8871803106
 20
247.3673176361
 30
0.0
 10
317.1424957121
 20
246.9055381244
 30
0.0
 10
317.4095286859
 20
246.5474751387
 30
0.0
 10
317.6123407245
 20
246.3643756142
 30
0.0
 10
317.7148791498
 20
246.2967491939
 30
0.0
  0
SPLINE
  5
3D1
100
AcDbEntity
  8
AI0193_9
100
AcDbSpline
 62
9
  6
CONTINUOUS
 70
0
 71
3
 72
11
 73
7
 74
0
 42
0.0000001
 43
0.0000001
 44
0.0000000001
 40
0.0
 40
0.0
 40
0.0
 40
0.0
 40
0.2409364512
 40
0.5029778382
 40
0.7631490816
 40
1.0
 40
1.0
 40
1.0
 40
1.0
 10
333.9701887445
 20
282.3899769912
 30
0.0
 10
333.9700847961
 20
282.5142101955
 30
0.0
 10
333.921070855
 20
282.7757355607
 30
0.0
 10
333.705861564
 20
283.1169394393
 30
0.0
 10
333.3785351943
 20
283.3495610482
 30
0.0
 10
333.1219637109
 20
283.4093204926
 30
0.0
 10
332.9999186422
 20
283.4137833375
 30
0.0
  0
SPLINE
  5
3D2
100
AcDbEntity
  8
AI0193_9
100
AcDbSpline
 62
9
  6
CONTINUOUS
 70
0
 71
3
 72
15
 73
11
 74
0
 42
0.0000001
 43
0.0000001
 44
0.0000000001
 40
0.0
 40
0.0
 40
0.0
 40
0.0
 40
0.1171637718
 40
0.2415725377
 40
0.3711674161
 40
0.5032456028
 40
0.634790175
 40
0.7629038898
 40
0.8851961026
 40
1.0
 40
1.0
 40
1.0
 40
1.0
 10
304.607216233
 20
230.4697734488
 30
0.0
 10
304.5966388109
 20
230.7661060587
 30
0.0
 10
304.520918752
 20
231.3764344447
 30
0.0
 10
304.2402353132
 20
232.2781327643
 30
0.0
 10
303.7800963631
 20
233.1467817027
 30
0.0
 10
303.1520870819
 20
233.9267373247
 30
0.0
 10
302.3885576357
 20
234.5689335042
 30
0.0
 10
301.5373993219
 20
235.0398854471
 30
0.0
 10
300.6533713802
 20
235.3273030608
 30
0.0
 10
300.0544572192
 20
235.4048945487
 30
0.0
 10
299.7641094459
 20
235.4157032961
 30
0.0
  0
SPLINE
  5
3D3
100
AcDbEntity
  8
AI0193_9
100
AcDbSpline
 62
9
  6
CONTINUOUS
 70
0
 71
3
 72
16
 73
12
 74
0
 42
0.0000001
 43
0.0000001
 44
0.0000000001
 40
0.0
 40
0.0
 40
0.0
 40
0.0
 40
0.0698369166
 40
0.1097677887
 40
0.1535313006
 40
0.2533992643
 40
0.3704837625
 40
0.5046943815
 40
0.6553199089
 40
0.8210136806
 40
1.0
 40
1.0
 40
1.0
 40
1.0
 10
341.1900228102
 20
235.4157034824
 30
0.0
 10
340.8854754336
 20
235.5720507327
 30
0.0
 10
340.4500821012
 20
235.904134654
 30
0.0
 10
339.9382247919
 20
236.4560977965
 30
0.0
 10
339.3942058207
 20
237.1748441711
 30
0.0
 10
338.7584953973
 20
238.2890054685
 30
0.0
 10
338.0858604823
 20
239.8763570741
 30
0.0
 10
337.4818034679
 20
241.7539042327
 30
0.0
 10
336.9554864552
 20
243.900247095
 30
0.0
 10
336.5155574938
 20
246.2891622731
 30
0.0
 10
336.2926369659
 20
247.9647095791
 30
0.0
 10
336.1954773957
 20
248.8366911829
 30
0.0
  0
SPLINE
  5
3D4
100
AcDbEntity
  8
AI0193_9
100
AcDbSpline
 62
9
  6
CONTINUOUS
 70
0
 71
3
 72
9
 73
5
 74
0
 42
0.0000001
 43
0.0000001
 44
0.0000000001
 40
0.0
 40
0.0
 40
0.0
 40
0.0
 40
0.485311171
 40
1.0
 40
1.0
 40
1.0
 40
1.0
 10
336.1954773957
 20
248.8366911829
 30
0.0
 10
335.9858798629
 20
250.717773947
 30
0.0
 10
335.7295418763
 20
254.6141618547
 30
0.0
 10
335.7567979799
 20
258.5175434558
 30
0.0
 10
335.8397130564
 20
260.5231275614
 30
0.0
  0
LINE
  5
3D5
100
AcDbEntity
  8
AI0193_9
100
AcDbLine
 62
9
  6
CONTINUOUS
 10
335.8397127608
 20
260.5231275736
 11
335.8446212489
 21
260.6399457941
  0
SPLINE
  5
3D6
100
AcDbEntity
  8
AI0193_9
100
AcDbSpline
 62
9
  6
CONTINUOUS
 70
0
 71
3
 72
16
 73
12
 74
0
 42
0.0000001
 43
0.0000001
 44
0.0000000001
 40
0.0
 40
0.0
 40
0.0
 40
0.0
 40
0.0287947952
 40
0.0628695155
 40
0.1023548516
 40
0.1472268893
 40
0.2524890319
 40
0.3768008862
 40
0.5173959677
 40
0.6708618986
 40
1.0
 40
1.0
 40
1.0
 40
1.0
 10
304.6072162696
 20
230.469773478
 30
0.0
 10
304.7037136534
 20
230.5469834107
 30
0.0
 10
304.9292424454
 20
230.6970207699
 30
0.0
 10
305.320494612
 20
230.897942322
 30
0.0
 10
305.7907429705
 20
231.0921620892
 30
0.0
 10
306.5615919858
 20
231.354377634
 30
0.0
 10
307.7043968251
 20
231.6462913668
 30
0.0
 10
309.2672402864
 20
231.935850465
 30
0.0
 10
311.0481098916
 20
232.171155232
 30
0.0
 10
313.7128144964
 20
232.4080914516
 30
0.0
 10
315.7853286303
 20
232.4751669006
 30
0.0
 10
317.1979573458
 20
232.4751669006
 30
0.0
  0
SPLINE
  5
3D7
100
AcDbEntity
  8
AI0193_9
100
AcDbSpline
 62
9
  6
CONTINUOUS
 70
0
 71
3
 72
16
 73
12
 74
0
 42
0.0000001
 43
0.0000001
 44
0.0000000001
 40
0.0
 40
0.0
 40
0.0
 40
0.0
 40
0.3291211389
 40
0.4825904316
 40
0.6231850155
 40
0.7475019261
 40
0.8527676468
 40
0.8976415223
 40
0.9371284614
 40
0.9712043757
 40
1.0
 40
1.0
 40
1.0
 40
1.0
 10
317.1979573458
 20
232.475166906
 30
0.0
 10
318.6105132499
 20
232.475166906
 30
0.0
 10
320.6829687606
 20
232.4080964317
 30
0.0
 10
323.3476140517
 20
232.1711763343
 30
0.0
 10
325.1285183439
 20
231.9358750343
 30
0.0
 10
326.691397781
 20
231.6463183459
 30
0.0
 10
327.834247851
 20
231.3543999172
 30
0.0
 10
328.6051269286
 20
231.0921791981
 30
0.0
 10
329.0753947857
 20
230.8979544171
 30
0.0
 10
329.4666615645
 20
230.697027259
 30
0.0
 10
329.692198294
 20
230.5469860021
 30
0.0
 10
329.7886984543
 20
230.469773845
 30
0.0
  0
SPLINE
  5
3D8
100
AcDbEntity
  8
AI0193_9
100
AcDbSpline
 62
9
  6
CONTINUOUS
 70
0
 71
3
 72
111
 73
107
 74
0
 42
0.0000001
 43
0.0000001
 44
0.0000000001
 40
0.0
 40
0.0
 40
0.0
 40
0.0
 40
0.000213969
 40
0.0006947358
 40
0.0014629434
 40
0.0025263409
 40
0.0038864745
 40
0.0055433362
 40
0.0074960261
 40
0.0097438387
 40
0.0151214803
 40
0.0216643947
 40
0.0293554467
 40
0.0381805104
 40
0.0430111344
 40
0.0481169783
 40
0.0534947748
 40
0.0562842287
 40
0.0591406062
 40
0.0620661126
 40
0.0650622299
 40
0.0681247459
 40
0.0712506482
 40
0.077694875
 40
0.0843921011
 40
0.0985308296
 40
0.1136290265
 40
0.1296556568
 40
0.1465745996
 40
0.1643384798
 40
0.1829142092
 40
0.1924915135
 40
0.2022541502
 40
0.2121963533
 40
0.2172327163
 40
0.2223112003
 40
0.2274324152
 40
0.2325974282
 40
0.2378044961
 40
0.2430505224
 40
0.2536566715
 40
0.2644102592
 40
0.2863347004
 40
0.3087660298
 40
0.3316556501
 40
0.3549548646
 40
0.3785962538
 40
0.4025351002
 40
0.4145976857
 40
0.4267117372
 40
0.438870877
 40
0.4510670008
 40
0.4571765303
 40
0.463292789
 40
0.4694149353
 40
0.4755419093
 40
0.487805437
 40
0.5000759223
 40
0.5490749244
 40
0.5975971496
 40
0.6215323864
 40
0.6451798718
 40
0.6684834919
 40
0.6799878719
 40
0.6913845576
 40
0.7026663691
 40
0.7138198935
 40
0.7248444213
 40
0.735733757
 40
0.7570791769
 40
0.7778031938
 40
0.8171980648
 40
0.8357739051
 40
0.8535451142
 40
0.8704719145
 40
0.8786045512
 40
0.8865101891
 40
0.8903772695
 40
0.8941855739
 40
0.8979308907
 40
0.9016129999
 40
0.905234144
 40
0.9087948952
 40
0.915731454
 40
0.9288495713
 40
0.940935226
 40
0.9519583048
 40
0.9618982946
 40
0.9707269901
 40
0.9784258178
 40
0.9849789179
 40
0.9878203627
 40
0.9903698447
 40
0.9915350436
 40
0.9926294193
 40
0.9936456389
 40
0.9945812377
 40
0.9954435491
 40
0.9962311261
 40
0.9975813812
 40
0.9986326023
 40
0.9993844506
 40
0.9996482435
 40
0.9998375376
 40
0.9999531218
 40
1.0
 40
1.0
 40
1.0
 40
1.0
 10
344.9824143323
 20
235.1810574428
 30
0.0
 10
344.9855186198
 20
235.1833390493
 30
0.0
 10
344.9932270064
 20
235.1922172297
 30
0.0
 10
344.9980816409
 20
235.2176522615
 30
0.0
 10
345.0042834037
 20
235.2558665594
 30
0.0
 10
345.0090309047
 20
235.3101177096
 30
0.0
 10
345.0134437805
 20
235.3791456144
 30
0.0
 10
345.0169802979
 20
235.4634776314
 30
0.0
 10
345.019793501
 20
235.5628596111
 30
0.0
 10
345.0226535043
 20
235.7254378475
 30
0.0
 10
345.023884789
 20
235.9659566864
 30
0.0
 10
345.0222759475
 20
236.2988772835
 30
0.0
 10
345.0175488569
 20
236.6902937872
 30
0.0
 10
345.0111444333
 20
237.0526136018
 30
0.0
 10
345.004615316
 20
237.3710370144
 30
0.0
 10
344.9985077496
 20
237.6309338272
 30
0.0
 10
344.993705338
 20
237.8562077256
 30
0.0
 10
344.9873981179
 20
238.0432338888
 30
0.0
 10
344.9823410712
 20
238.1886583728
 30
0.0
 10
344.982217378
 20
238.3377086068
 30
0.0
 10
344.9871313998
 20
238.4901489814
 30
0.0
 10
344.9921539952
 20
238.6459816771
 30
0.0
 10
344.9963502609
 20
238.8603917392
 30
0.0
 10
345.0018719135
 20
239.1364843996
 30
0.0
 10
345.0092231586
 20
239.5995272106
 30
0.0
 10
345.0164640781
 20
240.2094929602
 30
0.0
 10
345.0217392959
 20
240.9778570566
 30
0.0
 10
345.0238594271
 20
241.7934316873
 30
0.0
 10
345.0228309133
 20
242.6542600198
 30
0.0
 10
345.0186380777
 20
243.5583516211
 30
0.0
 10
345.0125349389
 20
244.337799572
 30
0.0
 10
345.0061017792
 20
244.9814114406
 30
0.0
 10
345.0004342418
 20
245.4784638039
 30
0.0
 10
344.9950379313
 20
245.8984264993
 30
0.0
 10
344.9903918193
 20
246.2388794177
 30
0.0
 10
344.984754909
 20
246.4974593059
 30
0.0
 10
344.9814117589
 20
246.7582792783
 30
0.0
 10
344.9841483468
 20
247.0212913732
 30
0.0
 10
344.9897826215
 20
247.2863583962
 30
0.0
 10
344.9947801433
 20
247.6438207521
 30
0.0
 10
345.0001129032
 20
248.095439207
 30
0.0
 10
345.0078246723
 20
248.8301773491
 30
0.0
 10
345.0153409091
 20
249.7656670586
 30
0.0
 10
345.0211437815
 20
250.9071895972
 30
0.0
 10
345.0237410228
 20
252.0720616156
 30
0.0
 10
345.0231871636
 20
253.2574778596
 30
0.0
 10
345.0194686881
 20
254.4606997716
 30
0.0
 10
345.0137037193
 20
255.4731615309
 30
0.0
 10
345.0075196675
 20
256.2899309809
 30
0.0
 10
345.0020363681
 20
256.9067310041
 30
0.0
 10
344.9958839523
 20
257.5257916557
 30
0.0
 10
344.989671661
 20
258.0429156071
 30
0.0
 10
344.9825871238
 20
258.4574368013
 30
0.0
 10
344.9819958909
 20
258.7689231117
 30
0.0
 10
344.9867244128
 20
259.080657192
 30
0.0
 10
344.9934950873
 20
259.4967200614
 30
0.0
 10
344.9982307835
 20
260.0171936026
 30
0.0
 10
345.0105606696
 20
261.2654028953
 30
0.0
 10
345.0219482698
 20
263.1291682563
 30
0.0
 10
345.02456982
 20
265.1909796303
 30
0.0
 10
345.0202186029
 20
266.8224217419
 30
0.0
 10
345.0136922871
 20
268.025749181
 30
0.0
 10
345.0058179757
 20
269.018038848
 30
0.0
 10
344.9973295229
 20
269.8023531744
 30
0.0
 10
344.9916878967
 20
270.3825897905
 30
0.0
 10
344.9783052245
 20
270.956847026
 30
0.0
 10
344.9898867362
 20
271.5248228526
 30
0.0
 10
344.9966549111
 20
272.086104081
 30
0.0
 10
345.0048589994
 20
272.8204199054
 30
0.0
 10
345.0130380542
 20
273.7193919283
 30
0.0
 10
345.0218752996
 20
275.1022771834
 30
0.0
 10
345.0246662857
 20
276.4381799789
 30
0.0
 10
345.0209030374
 20
277.7239470012
 30
0.0
 10
345.0148872409
 20
278.6282880982
 30
0.0
 10
345.0072686484
 20
279.3553306304
 30
0.0
 10
344.9991879074
 20
279.9148758857
 30
0.0
 10
344.9941648302
 20
280.252747721
 30
0.0
 10
344.9882462281
 20
280.5171809009
 30
0.0
 10
344.9828850036
 20
280.7109828279
 30
0.0
 10
344.9818146656
 20
280.9017424758
 30
0.0
 10
344.986282959
 20
281.0892579385
 30
0.0
 10
344.9916245008
 20
281.2736034226
 30
0.0
 10
344.9958064289
 20
281.5132406132
 30
0.0
 10
345.0032842081
 20
281.9140567325
 30
0.0
 10
345.0116434635
 20
282.4595990651
 30
0.0
 10
345.0189089441
 20
283.0745324838
 30
0.0
 10
345.0229348212
 20
283.635544764
 30
0.0
 10
345.0238324237
 20
284.1412822141
 30
0.0
 10
345.0216142751
 20
284.590584528
 30
0.0
 10
345.0162891884
 20
284.9823646303
 30
0.0
 10
345.0089205278
 20
285.272449765
 30
0.0
 10
345.0012363185
 20
285.4750708679
 30
0.0
 10
344.9956293008
 20
285.5862159351
 30
0.0
 10
344.9911439115
 20
285.6677484398
 30
0.0
 10
344.9856760926
 20
285.7230813909
 30
0.0
 10
344.9815920484
 20
285.7746823019
 30
0.0
 10
344.9833327886
 20
285.8225336779
 30
0.0
 10
344.9888448688
 20
285.8660873717
 30
0.0
 10
344.9940410286
 20
285.9167467105
 30
0.0
 10
344.9989049053
 20
285.9706966019
 30
0.0
 10
345.004618902
 20
286.0238299527
 30
0.0
 10
345.0090001643
 20
286.0588371018
 30
0.0
 10
345.0121695867
 20
286.0787910179
 30
0.0
 10
345.0141822951
 20
286.0886670803
 30
0.0
 10
345.0155757628
 20
286.0936820625
 30
0.0
 10
345.0170708499
 20
286.0970432121
 30
0.0
 10
345.0178637901
 20
286.0969759369
 30
0.0
  0
SPLINE
  5
3D9
100
AcDbEntity
  8
AI0193_9
100
AcDbSpline
 62
9
  6
CONTINUOUS
 70
0
 71
3
 72
15
 73
11
 74
0
 42
0.0000001
 43
0.0000001
 44
0.0000000001
 40
0.0
 40
0.0
 40
0.0
 40
0.0
 40
0.1148039013
 40
0.2370961224
 40
0.3652098424
 40
0.4967544122
 40
0.628832589
 40
0.7584274557
 40
0.8828362168
 40
1.0
 40
1.0
 40
1.0
 40
1.0
 10
334.6318052241
 20
235.4157032787
 30
0.0
 10
334.3414574315
 20
235.404894538
 30
0.0
 10
333.7425432194
 20
235.3273030867
 30
0.0
 10
332.8585151641
 20
235.0398855976
 30
0.0
 10
332.007356696
 20
234.5689338147
 30
0.0
 10
331.2438271013
 20
233.9267377853
 30
0.0
 10
330.6158177366
 20
233.1467822581
 30
0.0
 10
330.1556788238
 20
232.2781333276
 30
0.0
 10
329.8749955804
 20
231.3764349174
 30
0.0
 10
329.7992757796
 20
230.7661064545
 30
0.0
 10
329.7886985093
 20
230.469773801
 30
0.0
  0
SPLINE
  5
3DA
100
AcDbEntity
  8
CO830K-A1198_2
100
AcDbSpline
 62
7
  6
CONTINUOUS
 70
0
 71
3
 72
11
 73
7
 74
0
 42
0.0000001
 43
0.0000001
 44
0.0000000001
 40
0.0
 40
0.0
 40
0.0
 40
0.0
 40
0.0882040838
 40
0.2804888613
 40
0.5850525985
 40
1.0
 40
1.0
 40
1.0
 40
1.0
 10
366.9979573458
 20
81.0383610954
 30
0.0
 10
366.9979573458
 20
81.0413049152
 30
0.0
 10
367.0076731416
 20
81.0475191697
 30
0.0
 10
367.0246332392
 20
81.0535329305
 30
0.0
 10
367.0548133736
 20
81.0617574965
 30
0.0
 10
367.0780642733
 20
81.0666454402
 30
0.0
 10
367.0916495587
 20
81.0693347363
 30
0.0
  0
SPLINE
  5
3DB
100
AcDbEntity
  8
CO830K-A1198_2
100
AcDbSpline
 62
7
  6
CONTINUOUS
 70
0
 71
3
 72
11
 73
7
 74
0
 42
0.0000001
 43
0.0000001
 44
0.0000000001
 40
0.0
 40
0.0
 40
0.0
 40
0.0
 40
0.4149431456
 40
0.7195033847
 40
0.911788788
 40
1.0
 40
1.0
 40
1.0
 40
1.0
 10
367.0916495587
 20
127.3369079235
 30
0.0
 10
367.0780642937
 20
127.3395970738
 30
0.0
 10
367.0548132967
 20
127.3444844956
 30
0.0
 10
367.024633279
 20
127.3527083285
 30
0.0
 10
367.0076724488
 20
127.3587223681
 30
0.0
 10
366.9979573458
 20
127.3649377636
 30
0.0
 10
366.9979573458
 20
127.3678818412
 30
0.0
  0
SPLINE
  5
3DC
100
AcDbEntity
  8
CO830K-A1198_2
100
AcDbSpline
 62
7
  6
CONTINUOUS
 70
0
 71
3
 72
11
 73
7
 74
0
 42
0.0000001
 43
0.0000001
 44
0.0000000001
 40
0.0
 40
0.0
 40
0.0
 40
0.0
 40
0.4172772819
 40
0.7225258506
 40
0.9139364728
 40
1.0
 40
1.0
 40
1.0
 40
1.0
 10
367.0916495587
 20
80.2634824042
 30
0.0
 10
367.0780710669
 20
80.2614134801
 30
0.0
 10
367.0548727714
 20
80.2576201817
 30
0.0
 10
367.0246359355
 20
80.2507918873
 30
0.0
 10
367.0078374691
 20
80.2457621776
 30
0.0
 10
366.9979573458
 20
80.2400250625
 30
0.0
 10
366.9979573458
 20
80.2371921734
 30
0.0
  0
SPLINE
  5
3DD
100
AcDbEntity
  8
CO830K-A1198_2
100
AcDbSpline
 62
7
  6
CONTINUOUS
 70
0
 71
3
 72
11
 73
7
 74
0
 42
0.0000001
 43
0.0000001
 44
0.0000000001
 40
0.0
 40
0.0
 40
0.0
 40
0.0
 40
0.0860625232
 40
0.2774730238
 40
0.5827221017
 40
1.0
 40
1.0
 40
1.0
 40
1.0
 10
366.9979573458
 20
128.1690655536
 30
0.0
 10
366.9979573458
 20
128.1662327004
 30
0.0
 10
367.0078375683
 20
128.1604957571
 30
0.0
 10
367.0246359316
 20
128.1554661115
 30
0.0
 10
367.0548727822
 20
128.1486376831
 30
0.0
 10
367.0780710624
 20
128.1448442838
 30
0.0
 10
367.0916495587
 20
128.1427753454
 30
0.0
  0
SPLINE
  5
3DE
100
AcDbEntity
  8
AI0193_9
100
AcDbSpline
 62
9
  6
CONTINUOUS
 70
0
 71
3
 72
15
 73
11
 74
0
 42
0.0000001
 43
0.0000001
 44
0.0000000001
 40
0.0
 40
0.0
 40
0.0
 40
0.0
 40
0.0305332771
 40
0.0556782787
 40
0.0891814645
 40
0.1828310052
 40
0.3106781471
 40
0.4665277947
 40
0.6406377019
 40
1.0
 40
1.0
 40
1.0
 40
1.0
 10
333.9695654823
 20
124.567606907
 30
0.0
 10
333.9670980444
 20
124.5773944095
 30
0.0
 10
333.9490887962
 20
124.5894632096
 30
0.0
 10
333.9213771453
 20
124.5969501854
 30
0.0
 10
333.8710696676
 20
124.6043366239
 30
0.0
 10
333.786757487
 20
124.6044241864
 30
0.0
 10
333.6622338927
 20
124.5950153679
 30
0.0
 10
333.5121671899
 20
124.5750949438
 30
0.0
 10
333.2875723109
 20
124.5363137702
 30
0.0
 10
333.1152617963
 20
124.4982027893
 30
0.0
 10
332.9999194575
 20
124.4697558814
 30
0.0
  0
SPLINE
  5
3DF
100
AcDbEntity
  8
AI0193_9
100
AcDbSpline
 62
9
  6
CONTINUOUS
 70
0
 71
3
 72
15
 73
11
 74
0
 42
0.0000001
 43
0.0000001
 44
0.0000000001
 40
0.0
 40
0.0
 40
0.0
 40
0.0
 40
0.0305362894
 40
0.055682793
 40
0.0891871018
 40
0.1828376677
 40
0.3106844152
 40
0.4665326128
 40
0.6406405684
 40
1.0
 40
1.0
 40
1.0
 40
1.0
 10
319.6378984019
 20
181.4275319625
 30
0.0
 10
319.6354310114
 20
181.4373207528
 30
0.0
 10
319.6174236227
 20
181.4493939727
 30
0.0
 10
319.5897108382
 20
181.4568881369
 30
0.0
 10
319.5394027675
 20
181.4642859121
 30
0.0
 10
319.4550877386
 20
181.4643904024
 30
0.0
 10
319.3305598619
 20
181.455002237
 30
0.0
 10
319.1804880024
 20
181.435101835
 30
0.0
 10
318.9558858344
 20
181.3963427508
 30
0.0
 10
318.7835706378
 20
181.3582391204
 30
0.0
 10
318.6682264599
 20
181.3297917691
 30
0.0
  0
SPLINE
  5
3E0
100
AcDbEntity
  8
AI0193_9
100
AcDbSpline
 62
9
  6
CONTINUOUS
 70
0
 71
3
 72
15
 73
11
 74
0
 42
0.0000001
 43
0.0000001
 44
0.0000000001
 40
0.0
 40
0.0
 40
0.0
 40
0.0
 40
0.0305301708
 40
0.055673148
 40
0.089174423
 40
0.1828212831
 40
0.3106677299
 40
0.4665185709
 40
0.6406310525
 40
1.0
 40
1.0
 40
1.0
 40
1.0
 10
333.9695664332
 20
83.838646705
 30
0.0
 10
333.9671015934
 20
83.8288595528
 30
0.0
 10
333.9490954446
 20
83.8167879795
 30
0.0
 10
333.9213860529
 20
83.8093006576
 30
0.0
 10
333.8710807765
 20
83.8019126117
 30
0.0
 10
333.7867697848
 20
83.8018242543
 30
0.0
 10
333.6622462386
 20
83.8112321181
 30
0.0
 10
333.5121776591
 20
83.8311522991
 30
0.0
 10
333.287578146
 20
83.8699337768
 30
0.0
 10
333.115263721
 20
83.9080454905
 30
0.0
 10
332.9999186422
 20
83.9364930405
 30
0.0
  0
SPLINE
  5
3E1
100
AcDbEntity
  8
AI0193_9
100
AcDbSpline
 62
9
  6
CONTINUOUS
 70
0
 71
3
 72
16
 73
12
 74
0
 42
0.0000001
 43
0.0000001
 44
0.0000000001
 40
0.0
 40
0.0
 40
0.0
 40
0.0
 40
0.1220768585
 40
0.2451928375
 40
0.3692490937
 40
0.4941527281
 40
0.6197951605
 40
0.7460690577
 40
0.8728485621
 40
0.9363863155
 40
1.0
 40
1.0
 40
1.0
 40
1.0
 10
334.0880353299
 20
84.2825900996
 30
0.0
 10
334.2945035473
 20
85.0160594481
 30
0.0
 10
334.7966294244
 20
86.4652454217
 30
0.0
 10
335.7395564812
 20
88.5703512833
 30
0.0
 10
336.8261524698
 20
90.6243428992
 30
0.0
 10
338.0188967709
 20
92.6361628888
 30
0.0
 10
339.288894046
 20
94.6162348239
 30
0.0
 10
340.6126509724
 20
96.5746912864
 30
0.0
 10
341.7435268075
 20
98.1952383987
 30
0.0
 10
342.6564631465
 20
99.490884435
 30
0.0
 10
343.1152288579
 20
100.1385079962
 30
0.0
 10
343.3438807994
 20
100.4631252657
 30
0.0
  0
SPLINE
  5
3E2
100
AcDbEntity
  8
AI0193_9
100
AcDbSpline
 62
9
  6
CONTINUOUS
 70
0
 71
3
 72
15
 73
11
 74
0
 42
0.0000001
 43
0.0000001
 44
0.0000000001
 40
0.0
 40
0.0
 40
0.0
 40
0.0
 40
0.3593593351
 40
0.5334672692
 40
0.6893154698
 40
0.8171622426
 40
0.9108128496
 40
0.9443171808
 40
0.9694637043
 40
1.0
 40
1.0
 40
1.0
 40
1.0
 10
318.6682261596
 20
27.0764582048
 30
0.0
 10
318.7835703064
 20
27.0480107127
 30
0.0
 10
318.9558854935
 20
27.0099069596
 30
0.0
 10
319.1804876864
 20
26.9711478389
 30
0.0
 10
319.3305595968
 20
26.9512474582
 30
0.0
 10
319.455087539
 20
26.94185934
 30
0.0
 10
319.5394026206
 20
26.9419638815
 30
0.0
 10
319.5897107323
 20
26.9493616824
 30
0.0
 10
319.6174235343
 20
26.9568558626
 30
0.0
 10
319.635430952
 20
26.9689290617
 30
0.0
 10
319.6378983559
 20
26.9787178539
 30
0.0
  0
SPLINE
  5
3E3
100
AcDbEntity
  8
AI0193_9
100
AcDbSpline
 62
9
  6
CONTINUOUS
 70
0
 71
3
 72
62
 73
58
 74
0
 42
0.0000001
 43
0.0000001
 44
0.0000000001
 40
0.0
 40
0.0
 40
0.0
 40
0.0
 40
0.0004742465
 40
0.0009608651
 40
0.0019374233
 40
0.0029140024
 40
0.0038905678
 40
0.0058438307
 40
0.0077969777
 40
0.0097501382
 40
0.0117032983
 40
0.0156096119
 40
0.0195159303
 40
0.0234222507
 40
0.0273285731
 40
0.0312348967
 40
0.0390475363
 40
0.0468601778
 40
0.0546728205
 40
0.0624854636
 40
0.0702981069
 40
0.0781106648
 40
0.0859228528
 40
0.0937348832
 40
0.1015474304
 40
0.1093600719
 40
0.1249853451
 40
0.1406106238
 40
0.1562359045
 40
0.1874864419
 40
0.2187369921
 40
0.2499875531
 40
0.2812381187
 40
0.3124886849
 40
0.3437392529
 40
0.35936454
 40
0.3749897792
 40
0.3906148146
 40
0.4062397932
 40
0.4218650266
 40
0.4374903134
 40
0.4687408813
 40
0.4999914504
 40
0.5624925564
 40
0.6249936702
 40
0.6874947916
 40
0.7499959138
 40
0.7812464866
 40
0.7968717741
 40
0.8124970617
 40
0.8437473183
 40
0.859372459
 40
0.8749977274
 40
0.8906230149
 40
0.9062483025
 40
0.9374988752
 40
1.0
 40
1.0
 40
1.0
 40
1.0
 10
345.0042291769
 20
78.7453799226
 30
0.0
 10
345.0079214428
 20
78.7469839526
 30
0.0
 10
345.0102763102
 20
78.7565751224
 30
0.0
 10
345.0134168017
 20
78.7718492481
 30
0.0
 10
345.0155813107
 20
78.7929042174
 30
0.0
 10
345.0174922659
 20
78.8175562996
 30
0.0
 10
345.0193483263
 20
78.8507129675
 30
0.0
 10
345.0208690069
 20
78.892113542
 30
0.0
 10
345.022056186
 20
78.9418463193
 30
0.0
 10
345.0227918168
 20
78.9915774615
 30
0.0
 10
345.0233528816
 20
79.0578934619
 30
0.0
 10
345.0234585514
 20
79.1407908568
 30
0.0
 10
345.0229722159
 20
79.2402663093
 30
0.0
 10
345.0220363715
 20
79.3397384051
 30
0.0
 10
345.0207578653
 20
79.4392066468
 30
0.0
 10
345.0186820621
 20
79.5718255664
 30
0.0
 10
345.0155246864
 20
79.7375897933
 30
0.0
 10
345.0110746769
 20
79.9364926317
 30
0.0
 10
345.0061419298
 20
80.1353847117
 30
0.0
 10
345.0007664332
 20
80.3342628724
 30
0.0
 10
344.9951832285
 20
80.5331433359
 30
0.0
 10
344.9888300531
 20
80.7319651952
 30
0.0
 10
344.9797401563
 20
80.9308105821
 30
0.0
 10
344.9869310078
 20
81.1297403078
 30
0.0
 10
344.9937060046
 20
81.3285430319
 30
0.0
 10
344.9995294146
 20
81.5937615941
 30
0.0
 10
345.0062896217
 20
81.9252745704
 30
0.0
 10
345.012267733
 20
82.3231382428
 30
0.0
 10
345.0183662865
 20
82.8536430302
 30
0.0
 10
345.0226897824
 20
83.5168083012
 30
0.0
 10
345.0238953878
 20
84.3126193001
 30
0.0
 10
345.0218520529
 20
85.1084286292
 30
0.0
 10
345.0170331608
 20
85.9042252126
 30
0.0
 10
345.009830877
 20
86.7000046581
 30
0.0
 10
345.0019753631
 20
87.363131519
 30
0.0
 10
344.9949556906
 20
87.8936297613
 30
0.0
 10
344.9886228085
 20
88.2914682304
 30
0.0
 10
344.979573021
 20
88.6893267241
 30
0.0
 10
344.9876417764
 20
89.0872080589
 30
0.0
 10
344.9943238908
 20
89.4850387494
 30
0.0
 10
345.0007359294
 20
90.0155459421
 30
0.0
 10
345.0080097786
 20
90.6786788135
 30
0.0
 10
345.0166837116
 20
91.7397256194
 30
0.0
 10
345.0230237521
 20
93.0660641812
 30
0.0
 10
345.0240557155
 20
94.6576876796
 30
0.0
 10
345.0192297668
 20
96.2493035666
 30
0.0
 10
345.0104246578
 20
97.5756275312
 30
0.0
 10
345.0021575223
 20
98.50403527
 30
0.0
 10
344.9964525493
 20
99.0345467436
 30
0.0
 10
344.9915300099
 20
99.5650540927
 30
0.0
 10
344.9790044636
 20
100.095534544
 30
0.0
 10
344.9861102716
 20
100.6260626574
 30
0.0
 10
344.9927140481
 20
101.0239053032
 30
0.0
 10
344.9965665183
 20
101.4217953693
 30
0.0
 10
345.0020984877
 20
101.9523055961
 30
0.0
 10
345.0102125177
 20
102.8807165299
 30
0.0
 10
345.0153426984
 20
103.6765114667
 30
0.0
 10
345.0178637901
 20
104.2070454855
 30
0.0
  0
SPLINE
  5
3E4
100
AcDbEntity
  8
AI0193_9
100
AcDbSpline
 62
9
  6
CONTINUOUS
 70
0
 71
3
 72
17
 73
13
 74
0
 42
0.0000001
 43
0.0000001
 44
0.0000000001
 40
0.0
 40
0.0
 40
0.0
 40
0.0
 40
0.1817994555
 40
0.3551659083
 40
0.5158894434
 40
0.6599222926
 40
0.7834681551
 40
0.8831440864
 40
0.9230925486
 40
0.9560438952
 40
0.9817394921
 40
1.0
 40
1.0
 40
1.0
 40
1.0
 10
318.6682261784
 20
27.0764582852
 30
0.0
 10
318.4930945496
 20
26.3301669027
 30
0.0
 10
318.1473167427
 20
24.873052367
 30
0.0
 10
317.6336286442
 20
22.7592942241
 30
0.0
 10
317.1455521699
 20
20.8032292049
 30
0.0
 10
316.6954915717
 20
19.0542265137
 30
0.0
 10
316.295183257
 20
17.5583014367
 30
0.0
 10
315.9942089823
 20
16.4901429344
 30
0.0
 10
315.7840355338
 20
15.7934743649
 30
0.0
 10
315.6574124581
 20
15.3974367062
 30
0.0
 10
315.5507529093
 20
15.0912160525
 30
0.0
 10
315.4827569301
 20
14.9185759966
 30
0.0
 10
315.450435139
 20
14.8486924079
 30
0.0
  0
SPLINE
  5
3E5
100
AcDbEntity
  8
AI0193_9
100
AcDbSpline
 62
9
  6
CONTINUOUS
 70
0
 71
3
 72
9
 73
5
 74
0
 42
0.0000001
 43
0.0000001
 44
0.0000000001
 40
0.0
 40
0.0
 40
0.0
 40
0.0
 40
0.5918750049
 40
1.0
 40
1.0
 40
1.0
 40
1.0
 10
315.450435139
 20
14.8486924079
 30
0.0
 10
315.4387426994
 20
14.8234119512
 30
0.0
 10
315.417969793
 20
14.7812299486
 30
0.0
 10
315.3933378359
 20
14.7407829776
 30
0.0
 10
315.3811467395
 20
14.7259419356
 30
0.0
  0
SPLINE
  5
3E6
100
AcDbEntity
  8
AI0193_9
100
AcDbSpline
 62
9
  6
CONTINUOUS
 70
0
 71
3
 72
9
 73
5
 74
0
 42
0.0000001
 43
0.0000001
 44
0.0000000001
 40
0.0
 40
0.0
 40
0.0
 40
0.0
 40
0.3328868963
 40
1.0
 40
1.0
 40
1.0
 40
1.0
 10
315.3811467395
 20
14.7259419356
 30
0.0
 10
315.3783929851
 20
14.7225896051
 30
0.0
 10
315.369906402
 20
14.713099811
 30
0.0
 10
315.3585642601
 20
14.7036889307
 30
0.0
 10
315.3498864501
 20
14.7031560632
 30
0.0
  0
SPLINE
  5
3E7
100
AcDbEntity
  8
AI0193_9
100
AcDbSpline
 62
9
  6
CONTINUOUS
 70
0
 71
3
 72
15
 73
11
 74
0
 42
0.0000001
 43
0.0000001
 44
0.0000000001
 40
0.0
 40
0.0
 40
0.0
 40
0.0
 40
0.0620097998
 40
0.1240314125
 40
0.248154102
 40
0.4970009112
 40
0.6219447646
 40
0.7473527234
 40
0.8733265963
 40
1.0
 40
1.0
 40
1.0
 40
1.0
 10
343.3438806088
 20
100.4631249951
 30
0.0
 10
343.0842905523
 20
100.1506287851
 30
0.0
 10
342.5636007577
 20
99.5267971365
 30
0.0
 10
341.5267522405
 20
98.2745392955
 30
0.0
 10
339.7271416161
 20
96.0651134718
 30
0.0
 10
337.7506804985
 20
93.4657927525
 30
0.0
 10
335.9637793578
 20
90.7246705931
 30
0.0
 10
334.7530329614
 20
88.5742870112
 30
0.0
 10
333.7228280843
 20
86.3182533889
 30
0.0
 10
333.2028537706
 20
84.7411949059
 30
0.0
 10
332.9999200056
 20
83.9364984499
 30
0.0
  0
SPLINE
  5
3E8
100
AcDbEntity
  8
AI0193_9
100
AcDbSpline
 62
9
  6
CONTINUOUS
 70
0
 71
3
 72
16
 73
12
 74
0
 42
0.0000001
 43
0.0000001
 44
0.0000000001
 40
0.0
 40
0.0
 40
0.0
 40
0.0
 40
0.0636136768
 40
0.1271514227
 40
0.2539309143
 40
0.3802048023
 40
0.5058472296
 40
0.6307508647
 40
0.7548071275
 40
0.8779231197
 40
1.0
 40
1.0
 40
1.0
 40
1.0
 10
343.3438807984
 20
107.9431247358
 30
0.0
 10
343.1152298472
 20
108.2677405915
 30
0.0
 10
342.6564661226
 20
108.9153613349
 30
0.0
 10
341.7435337117
 20
110.2110017336
 30
0.0
 10
340.6126626473
 20
111.8315417696
 30
0.0
 10
339.2889110089
 20
113.789989545
 30
0.0
 10
338.0189182842
 20
115.7700524836
 30
0.0
 10
336.8261774242
 20
117.781863028
 30
0.0
 10
335.7395832662
 20
119.8358446169
 30
0.0
 10
334.7966556833
 20
121.9409398019
 30
0.0
 10
334.2945271989
 20
123.3901181479
 30
0.0
 10
334.088056787
 20
124.1235836761
 30
0.0
  0
SPLINE
  5
3E9
100
AcDbEntity
  8
AI0193_9
100
AcDbSpline
 62
9
  6
CONTINUOUS
 70
0
 71
3
 72
15
 73
11
 74
0
 42
0.0000001
 43
0.0000001
 44
0.0000000001
 40
0.0
 40
0.0
 40
0.0
 40
0.0
 40
0.1266734037
 40
0.2526472766
 40
0.3780552353
 40
0.5029990888
 40
0.7518458979
 40
0.8759685874
 40
0.9379902001
 40
1.0
 40
1.0
 40
1.0
 40
1.0
 10
332.9999200086
 20
124.4697515508
 30
0.0
 10
333.2028537735
 20
123.665055095
 30
0.0
 10
333.7228280869
 20
122.0879966122
 30
0.0
 10
334.7530329635
 20
119.8319629901
 30
0.0
 10
335.9637793594
 20
117.6815794082
 30
0.0
 10
337.7506804995
 20
114.9404572488
 30
0.0
 10
339.7271416165
 20
112.3411365293
 30
0.0
 10
341.5267522404
 20
110.1317107055
 30
0.0
 10
342.5636007574
 20
108.8794528641
 30
0.0
 10
343.0842905521
 20
108.2556212152
 30
0.0
 10
343.3438806088
 20
107.9431250049
 30
0.0
  0
SPLINE
  5
3EA
100
AcDbEntity
  8
AI0193_9
100
AcDbSpline
 62
9
  6
CONTINUOUS
 70
0
 71
3
 72
24
 73
20
 74
0
 42
0.0000001
 43
0.0000001
 44
0.0000000001
 40
0.0
 40
0.0
 40
0.0
 40
0.0
 40
0.0027236417
 40
0.0073544017
 40
0.0141689321
 40
0.0232294766
 40
0.034543191
 40
0.0480955283
 40
0.0817958692
 40
0.1240187636
 40
0.1743529843
 40
0.2323279819
 40
0.2974274592
 40
0.3690679135
 40
0.4466439194
 40
0.5295197136
 40
0.6170413312
 40
0.8033261929
 40
1.0
 40
1.0
 40
1.0
 40
1.0
 10
335.8446213393
 20
78.7031250041
 30
0.0
 10
335.8655622481
 20
78.7031250358
 30
0.0
 10
335.9174007655
 20
78.7368272542
 30
0.0
 10
335.9857313746
 20
78.8193581315
 30
0.0
 10
336.0727276967
 20
78.952287422
 30
0.0
 10
336.173505868
 20
79.1351020154
 30
0.0
 10
336.2898472793
 20
79.3687827478
 30
0.0
 10
336.4780804747
 20
79.7778263791
 30
0.0
 10
336.7447282707
 20
80.4121947161
 30
0.0
 10
337.0990795218
 20
81.3159729678
 30
0.0
 10
337.5032459015
 20
82.4005432189
 30
0.0
 10
337.9534246446
 20
83.6555287926
 30
0.0
 10
338.4454377162
 20
85.0694694071
 30
0.0
 10
338.9749893822
 20
86.6298560054
 30
0.0
 10
339.5375895659
 20
88.3233161123
 30
0.0
 10
340.1286840982
 20
90.1359424955
 30
0.0
 10
340.9661761648
 20
92.7473186169
 30
0.0
 10
342.0478952734
 20
96.1991587821
 30
0.0
 10
342.9074128119
 20
99.0153459836
 30
0.0
 10
343.3438807081
 20
100.4631249608
 30
0.0
  0
SPLINE
  5
3EB
100
AcDbEntity
  8
AI0193_9
100
AcDbSpline
 62
9
  6
CONTINUOUS
 70
0
 71
3
 72
9
 73
5
 74
0
 42
0.0000001
 43
0.0000001
 44
0.0000000001
 40
0.0
 40
0.0
 40
0.0
 40
0.0
 40
0.3742932804
 40
1.0
 40
1.0
 40
1.0
 40
1.0
 10
315.3498867
 20
193.7030939368
 30
0.0
 10
315.3570341505
 20
193.7026550423
 30
0.0
 10
315.3740665698
 20
193.6906134267
 30
0.0
 10
315.3852560765
 20
193.6755676185
 30
0.0
 10
315.3920649519
 20
193.6657217095
 30
0.0
  0
SPLINE
  5
3EC
100
AcDbEntity
  8
AI0193_9
100
AcDbSpline
 62
9
  6
CONTINUOUS
 70
0
 71
3
 72
9
 73
5
 74
0
 42
0.0000001
 43
0.0000001
 44
0.0000000001
 40
0.0
 40
0.0
 40
0.0
 40
0.0
 40
0.1973126338
 40
1.0
 40
1.0
 40
1.0
 40
1.0
 10
315.3920649519
 20
193.6657217095
 30
0.0
 10
315.3966652915
 20
193.6590694325
 30
0.0
 10
315.418580013
 20
193.6243915181
 30
0.0
 10
315.436613562
 20
193.5874407492
 30
0.0
 10
315.4504260827
 20
193.5575775542
 30
0.0
  0
SPLINE
  5
3ED
100
AcDbEntity
  8
AI0193_9
100
AcDbSpline
 62
9
  6
CONTINUOUS
 70
0
 71
3
 72
17
 73
13
 74
0
 42
0.0000001
 43
0.0000001
 44
0.0000000001
 40
0.0
 40
0.0
 40
0.0
 40
0.0
 40
0.018257841
 40
0.0439491554
 40
0.0768969735
 40
0.1168552773
 40
0.2165263879
 40
0.3400749991
 40
0.4841155623
 40
0.6448363405
 40
0.8182026639
 40
1.0
 40
1.0
 40
1.0
 40
1.0
 10
315.4504260827
 20
193.5575775542
 30
0.0
 10
315.4827442181
 20
193.4877045171
 30
0.0
 10
315.5507313252
 20
193.315092119
 30
0.0
 10
315.6573792405
 20
193.0089136048
 30
0.0
 10
315.7840075419
 20
192.6128678563
 30
0.0
 10
315.9941846298
 20
191.9161924802
 30
0.0
 10
316.2951692277
 20
190.8480008527
 30
0.0
 10
316.6954852304
 20
189.3520504161
 30
0.0
 10
317.1455543851
 20
187.6030131356
 30
0.0
 10
317.6336365059
 20
185.6469249392
 30
0.0
 10
318.1473203749
 20
183.5331836024
 30
0.0
 10
318.4930965644
 20
182.0760757565
 30
0.0
 10
318.6682264576
 20
181.3297917789
 30
0.0
  0
SPLINE
  5
3EE
100
AcDbEntity
  8
AI0193_9
100
AcDbSpline
 62
9
  6
CONTINUOUS
 70
0
 71
3
 72
24
 73
20
 74
0
 42
0.0000001
 43
0.0000001
 44
0.0000000001
 40
0.0
 40
0.0
 40
0.0
 40
0.0
 40
0.1966738071
 40
0.3829586688
 40
0.4704802864
 40
0.5533560806
 40
0.6309320865
 40
0.7025725408
 40
0.7676720181
 40
0.8256470157
 40
0.8759812364
 40
0.9182041308
 40
0.9519044717
 40
0.965456809
 40
0.9767705234
 40
0.9858310679
 40
0.9926455983
 40
0.9972763583
 40
1.0
 40
1.0
 40
1.0
 40
1.0
 10
343.3438807076
 20
107.943125039
 30
0.0
 10
342.9074128114
 20
109.3909040162
 30
0.0
 10
342.0478952728
 20
112.2070912179
 30
0.0
 10
340.9661761643
 20
115.6589313831
 30
0.0
 10
340.1286840977
 20
118.2703075045
 30
0.0
 10
339.5375895654
 20
120.0829338875
 30
0.0
 10
338.9749893818
 20
121.7763939945
 30
0.0
 10
338.4454377158
 20
123.3367805929
 30
0.0
 10
337.9534246441
 20
124.7507212073
 30
0.0
 10
337.503245901
 20
126.005706781
 30
0.0
 10
337.0990795213
 20
127.0902770322
 30
0.0
 10
336.7447282702
 20
127.9940552839
 30
0.0
 10
336.4780804743
 20
128.6284236209
 30
0.0
 10
336.2898472788
 20
129.0374672521
 30
0.0
 10
336.1735058676
 20
129.2711479846
 30
0.0
 10
336.0727276962
 20
129.453962578
 30
0.0
 10
335.9857313742
 20
129.5868918685
 30
0.0
 10
335.9174007651
 20
129.6694227458
 30
0.0
 10
335.8655622476
 20
129.7031249642
 30
0.0
 10
335.8446213389
 20
129.7031249959
 30
0.0
  0
SPLINE
  5
3EF
100
AcDbEntity
  8
AI0193_9
100
AcDbSpline
 62
9
  6
CONTINUOUS
 70
0
 71
3
 72
57
 73
53
 74
0
 42
0.0000001
 43
0.0000001
 44
0.0000000001
 40
0.0
 40
0.0
 40
0.0
 40
0.0
 40
0.0980021227
 40
0.1950585363
 40
0.2429557182
 40
0.2666928369
 40
0.2902717705
 40
0.3136773734
 40
0.3368921046
 40
0.3598946707
 40
0.3826811006
 40
0.4052369151
 40
0.4275471935
 40
0.4713824674
 40
0.5555307916
 40
0.5956559986
 40
0.6343445628
 40
0.6715221238
 40
0.6895119459
 40
0.707089283
 40
0.7242427307
 40
0.7409627929
 40
0.7572136777
 40
0.7730065597
 40
0.7883351337
 40
0.8031884932
 40
0.8314377647
 40
0.8576800532
 40
0.881863797
 40
0.9039314939
 40
0.9238239664
 40
0.9415048004
 40
0.9495008748
 40
0.9569280354
 40
0.9637819044
 40
0.9669949777
 40
0.970064596
 40
0.9729771274
 40
0.9757357596
 40
0.9783481644
 40
0.9808129226
 40
0.9852993906
 40
0.9891928539
 40
0.9924911325
 40
0.9951924481
 40
0.9972945964
 40
0.9981207446
 40
0.998796854
 40
0.9993228613
 40
0.9996987093
 40
0.9999243642
 40
1.0
 40
1.0
 40
1.0
 40
1.0
 10
345.0179098957
 20
104.2070454699
 30
0.0
 10
345.0218615082
 20
105.0386030976
 30
0.0
 10
345.0254977396
 20
106.6937169822
 30
0.0
 10
345.0195776117
 20
108.7552436667
 30
0.0
 10
345.0097445851
 20
110.1865863084
 30
0.0
 10
345.0024841753
 20
110.9944546832
 30
0.0
 10
344.9964093742
 20
111.5945169795
 30
0.0
 10
344.9889315556
 20
112.1901037117
 30
0.0
 10
344.97867056
 20
112.7808626446
 30
0.0
 10
344.9924221645
 20
113.3662923221
 30
0.0
 10
344.9977349785
 20
113.9461781924
 30
0.0
 10
345.004110765
 20
114.5201901856
 30
0.0
 10
345.0108580485
 20
115.2728078947
 30
0.0
 10
345.0200891832
 20
116.5480484049
 30
0.0
 10
345.0244896742
 20
117.97448704
 30
0.0
 10
345.022420044
 20
119.3572523161
 30
0.0
 10
345.0177421389
 20
120.3414521195
 30
0.0
 10
345.011005014
 20
121.1378117739
 30
0.0
 10
345.0041799287
 20
121.7550266402
 30
0.0
 10
344.9977602127
 20
122.2023290601
 30
0.0
 10
344.9925744238
 20
122.6388563601
 30
0.0
 10
344.9786753389
 20
123.0640621357
 30
0.0
 10
344.988814358
 20
123.4778224096
 30
0.0
 10
344.9963383254
 20
123.879688363
 30
0.0
 10
345.0024164299
 20
124.2697536619
 30
0.0
 10
345.0095443788
 20
124.7655003946
 30
0.0
 10
345.0164771544
 20
125.3538671004
 30
0.0
 10
345.021776447
 20
126.0214228383
 30
0.0
 10
345.0238994089
 20
126.6365449769
 30
0.0
 10
345.0228959021
 20
127.1977910876
 30
0.0
 10
345.0187659343
 20
127.7038438115
 30
0.0
 10
345.0124750344
 20
128.0904635144
 30
0.0
 10
345.0057148977
 20
128.3712783827
 30
0.0
 10
344.9998753983
 20
128.5602147639
 30
0.0
 10
344.9946438467
 20
128.7085639155
 30
0.0
 10
344.9891682719
 20
128.8199041575
 30
0.0
 10
344.9836279594
 20
128.8977272194
 30
0.0
 10
344.9815682267
 20
128.9719328699
 30
0.0
 10
344.9854228352
 20
129.0421622367
 30
0.0
 10
344.9909836272
 20
129.1084148295
 30
0.0
 10
344.9952708245
 20
129.1894590098
 30
0.0
 10
345.0005454095
 20
129.2813243544
 30
0.0
 10
345.0061265127
 20
129.3802574021
 30
0.0
 10
345.0109301816
 20
129.4640712617
 30
0.0
 10
345.0149538819
 20
129.5326787437
 30
0.0
 10
345.0177747868
 20
129.5804085487
 30
0.0
 10
345.0197195857
 20
129.6108625511
 30
0.0
 10
345.0207138586
 20
129.6281872784
 30
0.0
 10
345.0218874859
 20
129.6411598329
 30
0.0
 10
345.0219570322
 20
129.6515769917
 30
0.0
 10
345.0235282302
 20
129.6557665762
 30
0.0
 10
345.0226736529
 20
129.6599033208
 30
0.0
 10
345.0233145634
 20
129.6598698434
 30
0.0
  0
SPLINE
  5
3F0
100
AcDbEntity
  8
AI0261_31
100
AcDbSpline
 62
7
  6
CONTINUOUS
 70
0
 71
3
 72
13
 73
9
 74
0
 42
0.0000001
 43
0.0000001
 44
0.0000000001
 40
0.0
 40
0.0
 40
0.0
 40
0.0
 40
0.2889791229
 40
0.5498179028
 40
0.6698299652
 40
0.7837310288
 40
0.8930851969
 40
1.0
 40
1.0
 40
1.0
 40
1.0
 10
189.8102909763
 20
152.0390294595
 30
0.0
 10
189.2014204444
 20
152.6076774487
 30
0.0
 10
187.9335740402
 20
153.5815471127
 30
0.0
 10
186.1415261104
 20
154.3692930448
 30
0.0
 10
184.7326032792
 20
154.6268120732
 30
0.0
 10
183.7375626253
 20
154.6365933749
 30
0.0
 10
182.7951156891
 20
154.4665224896
 30
0.0
 10
182.2115270599
 20
154.232781384
 30
0.0
 10
181.9387255373
 20
154.0893027133
 30
0.0
  0
SPLINE
  5
3F1
100
AcDbEntity
  8
AI0261_31
100
AcDbSpline
 62
7
  6
CONTINUOUS
 70
0
 71
3
 72
13
 73
9
 74
0
 42
0.0000001
 43
0.0000001
 44
0.0000000001
 40
0.0
 40
0.0
 40
0.0
 40
0.0
 40
0.2651282546
 40
0.3983471826
 40
0.5293777477
 40
0.6564198089
 40
0.7779651827
 40
1.0
 40
1.0
 40
1.0
 40
1.0
 10
184.2285069882
 20
139.9925520793
 30
0.0
 10
183.892974221
 20
141.1412586108
 30
0.0
 10
183.1921807308
 20
142.8171383957
 30
0.0
 10
181.9335893835
 20
144.8516958669
 30
0.0
 10
180.8458761774
 20
146.2478534977
 30
0.0
 10
179.6428911111
 20
147.4746667099
 30
0.0
 10
177.9809413681
 20
148.8005557823
 30
0.0
 10
176.5755357726
 20
149.5287243262
 30
0.0
 10
175.6165783012
 20
149.8199276619
 30
0.0
  0
SPLINE
  5
3F2
100
AcDbEntity
  8
AI0261_31
100
AcDbSpline
 62
7
  6
CONTINUOUS
 70
0
 71
3
 72
11
 73
7
 74
0
 42
0.0000001
 43
0.0000001
 44
0.0000000001
 40
0.0
 40
0.0
 40
0.0
 40
0.0
 40
0.2502109615
 40
0.5042257657
 40
0.7560449034
 40
1.0
 40
1.0
 40
1.0
 40
1.0
 10
193.9134307071
 20
145.3661230111
 30
0.0
 10
193.7554598883
 20
145.9668395396
 30
0.0
 10
193.3482291263
 20
147.155562141
 30
0.0
 10
192.5027769114
 20
148.8373164916
 30
0.0
 10
191.4476239933
 20
150.3773899086
 30
0.0
 10
190.6131745611
 20
151.2892111233
 30
0.0
 10
190.1705723153
 20
151.7025717175
 30
0.0
  0
SPLINE
  5
3F3
100
AcDbEntity
  8
AI0261_31
100
AcDbSpline
 62
7
  6
CONTINUOUS
 70
0
 71
3
 72
14
 73
10
 74
0
 42
0.0000001
 43
0.0000001
 44
0.0000000001
 40
0.0
 40
0.0
 40
0.0
 40
0.0
 40
0.1068446119
 40
0.2161268589
 40
0.3299512456
 40
0.4498836881
 40
0.576857141
 40
0.7111483466
 40
1.0
 40
1.0
 40
1.0
 40
1.0
 10
191.4811435236
 20
135.9457992142
 30
0.0
 10
191.7539317647
 20
136.0892708995
 30
0.0
 10
192.2771908084
 20
136.4376503987
 30
0.0
 10
192.9513252167
 20
137.1177934825
 30
0.0
 10
193.5070632499
 20
137.9431120586
 30
0.0
 10
193.934912097
 20
138.8966026141
 30
0.0
 10
194.2282628109
 20
139.9604767671
 30
0.0
 10
194.4401655128
 20
141.5367675395
 30
0.0
 10
194.3756957873
 20
142.7694238522
 30
0.0
 10
194.2521049183
 20
143.593463173
 30
0.0
  0
SPLINE
  5
3F4
100
AcDbEntity
  8
AI0261_31
100
AcDbSpline
 62
7
  6
CONTINUOUS
 70
0
 71
3
 72
11
 73
7
 74
0
 42
0.0000001
 43
0.0000001
 44
0.0000000001
 40
0.0
 40
0.0
 40
0.0
 40
0.0
 40
0.2206113287
 40
0.4615591395
 40
0.7225153581
 40
1.0
 40
1.0
 40
1.0
 40
1.0
 10
183.7527220257
 20
131.7228106589
 30
0.0
 10
184.0511482132
 20
132.235820909
 30
0.0
 10
184.5268832134
 20
133.3990023213
 30
0.0
 10
184.8466486171
 20
135.3288629379
 30
0.0
 10
184.7987801771
 20
137.4354830564
 30
0.0
 10
184.5307177828
 20
138.8657689339
 30
0.0
 10
184.3408652891
 20
139.5877220886
 30
0.0
  0
SPLINE
  5
3F5
100
AcDbEntity
  8
AI0261_31
100
AcDbSpline
 62
7
  6
CONTINUOUS
 70
0
 71
3
 72
11
 73
7
 74
0
 42
0.0000001
 43
0.0000001
 44
0.0000000001
 40
0.0
 40
0.0
 40
0.0
 40
0.0
 40
0.2502061847
 40
0.5042182044
 40
0.7560372214
 40
1.0
 40
1.0
 40
1.0
 40
1.0
 10
193.9577790376
 20
145.0175509637
 30
0.0
 10
193.7827335043
 20
145.683197606
 30
0.0
 10
193.3314903827
 20
147.0004140818
 30
0.0
 10
192.3946498553
 20
148.8639631196
 30
0.0
 10
191.2254362706
 20
150.5705560874
 30
0.0
 10
190.3007562946
 20
151.5809647274
 30
0.0
 10
189.8102909763
 20
152.0390294595
 30
0.0
  0
SPLINE
  5
3F6
100
AcDbEntity
  8
AI0261_31
100
AcDbSpline
 62
9
  6
CONTINUOUS
 70
0
 71
3
 72
11
 73
7
 74
0
 42
0.0000001
 43
0.0000001
 44
0.0000000001
 40
0.0
 40
0.0
 40
0.0
 40
0.0
 40
0.2403430845
 40
0.4918292249
 40
0.7475182995
 40
1.0
 40
1.0
 40
1.0
 40
1.0
 10
179.4317261885
 20
147.6123726984
 30
0.0
 10
180.0067258693
 20
147.156250323
 30
0.0
 10
181.0972207232
 20
146.110748517
 30
0.0
 10
182.4754941271
 20
144.2802796715
 30
0.0
 10
183.5799088031
 20
142.2307043893
 30
0.0
 10
184.1046754761
 20
140.7624650667
 30
0.0
 10
184.3044980951
 20
140.0177980958
 30
0.0
  0
SPLINE
  5
3F7
100
AcDbEntity
  8
AI0261_31
100
AcDbSpline
 62
9
  6
CONTINUOUS
 70
0
 71
3
 72
9
 73
5
 74
0
 42
0.0000001
 43
0.0000001
 44
0.0000000001
 40
0.0
 40
0.0
 40
0.0
 40
0.0
 40
0.254959547
 40
1.0
 40
1.0
 40
1.0
 40
1.0
 10
184.4096599866
 20
139.6002095871
 30
0.0
 10
184.4496768086
 20
139.4301791056
 30
0.0
 10
184.5938993065
 20
138.7603949096
 30
0.0
 10
184.6867809052
 20
138.0792419041
 30
0.0
 10
184.7224685567
 20
137.5700543449
 30
0.0
  0
SPLINE
  5
3F8
100
AcDbEntity
  8
1263_9
100
AcDbSpline
 62
7
  6
CONTINUOUS
 70
0
 71
3
 72
9
 73
5
 74
0
 42
0.0000001
 43
0.0000001
 44
0.0000000001
 40
0.0
 40
0.0
 40
0.0
 40
0.0
 40
0.5078616236
 40
1.0
 40
1.0
 40
1.0
 40
1.0
 10
71.7548355921
 20
136.906901577
 30
0.0
 10
71.0739666565
 20
136.9068934611
 30
0.0
 10
69.7299534126
 20
136.7917355888
 30
0.0
 10
68.4307333365
 20
136.4235579684
 30
0.0
 10
67.8170961906
 20
136.1811295283
 30
0.0
  0
SPLINE
  5
3F9
100
AcDbEntity
  8
1263_9
100
AcDbSpline
 62
7
  6
CONTINUOUS
 70
0
 71
3
 72
11
 73
7
 74
0
 42
0.0000001
 43
0.0000001
 44
0.0000000001
 40
0.0
 40
0.0
 40
0.0
 40
0.0
 40
0.2222752061
 40
0.4631251656
 40
0.7230614926
 40
1.0
 40
1.0
 40
1.0
 40
1.0
 10
91.7106360214
 20
99.8665761437
 30
0.0
 10
92.2760313306
 20
100.7625840785
 30
0.0
 10
93.2147575983
 20
102.7864989185
 30
0.0
 10
93.9769990965
 20
106.1684211085
 30
0.0
 10
94.1336638848
 20
109.8892279599
 30
0.0
 10
93.8407315727
 20
112.4422804183
 30
0.0
 10
93.6011851713
 20
113.7403996643
 30
0.0
  0
SPLINE
  5
3FA
100
AcDbEntity
  8
1263_9
100
AcDbSpline
 62
7
  6
CONTINUOUS
 70
0
 71
3
 72
11
 73
7
 74
0
 42
0.0000001
 43
0.0000001
 44
0.0000000001
 40
0.0
 40
0.0
 40
0.0
 40
0.0
 40
0.2469528643
 40
0.5003072988
 40
0.7535039314
 40
1.0
 40
1.0
 40
1.0
 40
1.0
 10
93.5604490102
 20
113.9565367177
 30
0.0
 10
93.2636444196
 20
115.4990994981
 30
0.0
 10
92.408826952
 20
118.5796712415
 30
0.0
 10
90.4632215749
 20
122.9771451556
 30
0.0
 10
87.9161563408
 20
127.0524156482
 30
0.0
 10
85.8472963262
 20
129.484716125
 30
0.0
 10
84.7380767547
 20
130.5929149019
 30
0.0
  0
SPLINE
  5
3FB
100
AcDbEntity
  8
1263_9
100
AcDbSpline
 62
7
  6
CONTINUOUS
 70
0
 71
3
 72
11
 73
7
 74
0
 42
0.0000001
 43
0.0000001
 44
0.0000000001
 40
0.0
 40
0.0
 40
0.0
 40
0.0
 40
0.2782058087
 40
0.5385182816
 40
0.7788246607
 40
1.0
 40
1.0
 40
1.0
 40
1.0
 10
84.7380767547
 20
130.5929149019
 30
0.0
 10
83.7686189009
 20
131.5614805813
 30
0.0
 10
81.7550102364
 20
133.3068187257
 30
0.0
 10
78.4698693994
 20
135.325306132
 30
0.0
 10
75.1233010115
 20
136.5932938489
 30
0.0
 10
72.8443039046
 20
136.9068885908
 30
0.0
 10
71.7548355921
 20
136.906901577
 30
0.0
  0
SPLINE
  5
3FC
100
AcDbEntity
  8
CO830K-A1198_2
100
AcDbSpline
 62
7
  6
CONTINUOUS
 70
0
 71
3
 72
17
 73
13
 74
0
 42
0.0000001
 43
0.0000001
 44
0.0000000001
 40
0.0
 40
0.0
 40
0.0
 40
0.0
 40
0.0493883599
 40
0.0994934226
 40
0.1509708589
 40
0.2043692624
 40
0.3181496264
 40
0.4424179525
 40
0.5760713404
 40
0.7162426245
 40
0.8589882732
 40
1.0
 40
1.0
 40
1.0
 40
1.0
 10
79.4740555821
 20
22.5907027648
 30
0.0
 10
79.2487720602
 20
22.4722168543
 30
0.0
 10
78.7723853671
 20
22.2739558773
 30
0.0
 10
78.0091280954
 20
22.1049345196
 30
0.0
 10
77.2078093963
 20
22.0645335722
 30
0.0
 10
76.0832480709
 20
22.1829286683
 30
0.0
 10
74.6402023304
 20
22.6626068625
 30
0.0
 10
72.9974127871
 20
23.6733774612
 30
0.0
 10
71.4790219979
 20
25.0698026951
 30
0.0
 10
70.1608652721
 20
26.7765612141
 30
0.0
 10
69.1102511699
 20
28.7018914458
 30
0.0
 10
68.6171332211
 20
30.0868061574
 30
0.0
 10
68.4323012298
 20
30.7896678188
 30
0.0
  0
SPLINE
  5
3FD
100
AcDbEntity
  8
CO830K-A1198_2
100
AcDbSpline
 62
7
  6
CONTINUOUS
 70
0
 71
3
 72
14
 73
10
 74
0
 42
0.0000001
 43
0.0000001
 44
0.0000000001
 40
0.0
 40
0.0
 40
0.0
 40
0.0
 40
0.2751711252
 40
0.4059153114
 40
0.5316617728
 40
0.6528779091
 40
0.7705377753
 40
0.8858306879
 40
1.0
 40
1.0
 40
1.0
 40
1.0
 10
82.7469153748
 20
31.5754779715
 30
0.0
 10
82.9743748716
 20
30.7105164531
 30
0.0
 10
83.1734167959
 20
29.3887890777
 30
0.0
 10
83.0877197138
 20
27.6584794862
 30
0.0
 10
82.8479721643
 20
26.4492618536
 30
0.0
 10
82.4276206838
 20
25.3348132086
 30
0.0
 10
81.8254402437
 20
24.3449663789
 30
0.0
 10
81.0489982986
 20
23.5150933021
 30
0.0
 10
80.4261737225
 20
23.0914610262
 30
0.0
 10
80.0977507638
 20
22.9187298253
 30
0.0
  0
SPLINE
  5
3FE
100
AcDbEntity
  8
CO830K-A1198_2
100
AcDbSpline
 62
7
  6
CONTINUOUS
 70
0
 71
3
 72
9
 73
5
 74
0
 42
0.0000001
 43
0.0000001
 44
0.0000000001
 40
0.0
 40
0.0
 40
0.0
 40
0.0
 40
0.259048177
 40
1.0
 40
1.0
 40
1.0
 40
1.0
 10
91.7202376296
 20
115.959629826
 30
0.0
 10
91.7099892762
 20
115.9934293266
 30
0.0
 10
91.6649680556
 20
116.1221227767
 30
0.0
 10
91.5976123163
 20
116.2435005887
 30
0.0
 10
91.5353863797
 20
116.3230838247
 30
0.0
  0
SPLINE
  5
3FF
100
AcDbEntity
  8
CO830K-A1198_2
100
AcDbSpline
 62
7
  6
CONTINUOUS
 70
0
 71
3
 72
21
 73
17
 74
0
 42
0.0000001
 43
0.0000001
 44
0.0000000001
 40
0.0
 40
0.0
 40
0.0
 40
0.0
 40
0.0480221144
 40
0.0971458207
 40
0.1483263372
 40
0.2022672425
 40
0.2593755787
 40
0.3197653705
 40
0.3832906339
 40
0.4495899612
 40
0.5181328965
 40
0.5882647207
 40
0.7301470524
 40
0.8004924332
 40
0.8693793811
 40
1.0
 40
1.0
 40
1.0
 40
1.0
 10
44.5646005595
 20
125.8245083049
 30
0.0
 10
43.8897461839
 20
125.469574511
 30
0.0
 10
42.5980582979
 20
124.601488878
 30
0.0
 10
40.9493864946
 20
122.8981160751
 30
0.0
 10
39.6112044614
 20
120.8299122601
 30
0.0
 10
38.6068456997
 20
118.4451827265
 30
0.0
 10
37.9501360713
 20
115.7934005986
 30
0.0
 10
37.6494825617
 20
112.9266645914
 30
0.0
 10
37.7077285995
 20
109.8999943131
 30
0.0
 10
38.1219564355
 20
106.771570773
 30
0.0
 10
38.8832366651
 20
103.601256247
 30
0.0
 10
40.3451302424
 20
99.3876765714
 30
0.0
 10
42.4127828314
 20
95.374145847
 30
0.0
 10
44.9982802237
 20
91.7281922784
 30
0.0
 10
47.807450144
 20
88.4878839625
 30
0.0
 10
50.2437541724
 20
86.4100024805
 30
0.0
 10
51.9776067809
 20
85.271906158
 30
0.0
  0
SPLINE
  5
400
100
AcDbEntity
  8
CO830K-A1198_2
100
AcDbSpline
 62
7
  6
CONTINUOUS
 70
0
 71
3
 72
16
 73
12
 74
0
 42
0.0000001
 43
0.0000001
 44
0.0000000001
 40
0.0
 40
0.0
 40
0.0
 40
0.0
 40
0.0514530762
 40
0.1033267615
 40
0.2097292974
 40
0.3220641807
 40
0.4420510694
 40
0.5703928691
 40
0.7068866668
 40
0.8505840759
 40
1.0
 40
1.0
 40
1.0
 40
1.0
 10
86.2605009428
 20
93.5202133029
 30
0.0
 10
86.6387499532
 20
93.7191512604
 30
0.0
 10
87.3747893566
 20
94.1655239852
 30
0.0
 10
88.747323104
 20
95.2439050376
 30
0.0
 10
90.2534437394
 20
96.9412891905
 30
0.0
 10
91.6329737619
 20
99.4148698334
 30
0.0
 10
92.5765193106
 20
102.2747920706
 30
0.0
 10
93.0658201182
 20
105.4463111989
 30
0.0
 10
93.0930109642
 20
108.8501636139
 30
0.0
 10
92.6598114336
 20
112.4008717226
 30
0.0
 10
92.0803452205
 20
114.7719617953
 30
0.0
 10
91.7202321542
 20
115.959629826
 30
0.0
  0
SPLINE
  5
401
100
AcDbEntity
  8
CO830K-A1198_2
100
AcDbSpline
 62
9
  6
CONTINUOUS
 70
0
 71
3
 72
10
 73
6
 74
0
 42
0.0000001
 43
0.0000001
 44
0.0000000001
 40
0.0
 40
0.0
 40
0.0
 40
0.0
 40
0.2449522862
 40
0.4920768564
 40
1.0
 40
1.0
 40
1.0
 40
1.0
 10
44.5646155263
 20
125.824479848
 30
0.0
 10
44.9584059701
 20
126.0315945153
 30
0.0
 10
45.7770308447
 20
126.3978172977
 30
0.0
 10
47.518139171
 20
126.9270237014
 30
0.0
 10
48.8982219193
 20
127.0779612222
 30
0.0
 10
49.8208216924
 20
127.0779612222
 30
0.0
  0
SPLINE
  5
402
100
AcDbEntity
  8
CO830K-A1198_2
100
AcDbSpline
 62
9
  6
CONTINUOUS
 70
0
 71
3
 72
14
 73
10
 74
0
 42
0.0000001
 43
0.0000001
 44
0.0000000001
 40
0.0
 40
0.0
 40
0.0
 40
0.0
 40
0.1140677677
 40
0.2300846453
 40
0.3508785889
 40
0.475697574
 40
0.6036032012
 40
0.7339118041
 40
1.0
 40
1.0
 40
1.0
 40
1.0
 10
69.3787034911
 20
80.5462417908
 30
0.0
 10
69.4447479016
 20
80.5372893644
 30
0.0
 10
69.5729954023
 20
80.4800872159
 30
0.0
 10
69.7195417681
 20
80.334311538
 30
0.0
 10
69.8407999022
 20
80.1604495326
 30
0.0
 10
69.9444142191
 20
79.9680253218
 30
0.0
 10
70.0350855692
 20
79.7632381335
 30
0.0
 10
70.1426469633
 20
79.4762754832
 30
0.0
 10
70.2088627879
 20
79.2539980076
 30
0.0
 10
70.2484056297
 20
79.1036386564
 30
0.0
  0
SPLINE
  5
403
100
AcDbEntity
  8
CO830K-A1198_2
100
AcDbSpline
 62
9
  6
CONTINUOUS
 70
0
 71
3
 72
10
 73
6
 74
0
 42
0.0000001
 43
0.0000001
 44
0.0000000001
 40
0.0
 40
0.0
 40
0.0
 40
0.0
 40
0.2482646071
 40
0.6223416522
 40
1.0
 40
1.0
 40
1.0
 40
1.0
 10
68.7170122234
 20
80.3627246479
 30
0.0
 10
68.7727554349
 20
80.3740234138
 30
0.0
 10
68.9119602302
 20
80.4048989614
 30
0.0
 10
69.134165757
 20
80.46117318
 30
0.0
 10
69.2976165664
 20
80.5160472598
 30
0.0
 10
69.3786983652
 20
80.5462390949
 30
0.0
  0
SPLINE
  5
404
100
AcDbEntity
  8
CO830K-A1198_2
100
AcDbSpline
 62
9
  6
CONTINUOUS
 70
0
 71
3
 72
13
 73
9
 74
0
 42
0.0000001
 43
0.0000001
 44
0.0000000001
 40
0.0
 40
0.0
 40
0.0
 40
0.0
 40
0.2885268827
 40
0.5519735052
 40
0.6731797063
 40
0.7874691972
 40
0.8958493961
 40
1.0
 40
1.0
 40
1.0
 40
1.0
 10
81.7332017306
 20
30.8659650009
 30
0.0
 10
81.9416631876
 20
30.073247436
 30
0.0
 10
82.1981711265
 20
28.5138994842
 30
0.0
 10
82.0785979031
 20
26.5827277682
 30
0.0
 10
81.6894871686
 20
25.2145467819
 30
0.0
 10
81.2745948056
 20
24.3248575077
 30
0.0
 10
80.7359702579
 20
23.5622575261
 30
0.0
 10
80.2939187317
 20
23.1437044333
 30
0.0
 10
80.0587229683
 20
22.9641848188
 30
0.0
  0
SPLINE
  5
405
100
AcDbEntity
  8
CO830K-A1198_2
100
AcDbSpline
 62
9
  6
CONTINUOUS
 70
0
 71
3
 72
11
 73
7
 74
0
 42
0.0000001
 43
0.0000001
 44
0.0000000001
 40
0.0
 40
0.0
 40
0.0
 40
0.0
 40
0.22634731
 40
0.4938052638
 40
0.7645123239
 40
1.0
 40
1.0
 40
1.0
 40
1.0
 10
81.3222337388
 20
30.7613933868
 30
0.0
 10
81.3544480203
 20
30.7613927562
 30
0.0
 10
81.424670764
 20
30.7684348219
 30
0.0
 10
81.5313546665
 20
30.7904175437
 30
0.0
 10
81.6368133367
 20
30.8225350937
 30
0.0
 10
81.7035389779
 20
30.8503641339
 30
0.0
 10
81.7332017306
 20
30.8659650009
 30
0.0
  0
SPLINE
  5
406
100
AcDbEntity
  8
CO830K-A1198_2
100
AcDbSpline
 62
9
  6
CONTINUOUS
 70
0
 71
3
 72
11
 73
7
 74
0
 42
0.0000001
 43
0.0000001
 44
0.0000000001
 40
0.0
 40
0.0
 40
0.0
 40
0.0
 40
0.3696765823
 40
0.5251602835
 40
0.6597526462
 40
1.0
 40
1.0
 40
1.0
 40
1.0
 10
82.3568969122
 20
31.1939920613
 30
0.0
 10
82.4184654619
 20
31.226373505
 30
0.0
 10
82.5040196954
 20
31.2754181523
 30
0.0
 10
82.6056154246
 20
31.3489377458
 30
0.0
 10
82.6927399181
 20
31.4234382473
 30
0.0
 10
82.7631947529
 20
31.5135553703
 30
0.0
 10
82.7468889859
 20
31.5754710314
 30
0.0
  0
SPLINE
  5
407
100
AcDbEntity
  8
CO830K-A1198_2
100
AcDbSpline
 62
9
  6
CONTINUOUS
 70
0
 71
3
 72
11
 73
7
 74
0
 42
0.0000001
 43
0.0000001
 44
0.0000000001
 40
0.0
 40
0.0
 40
0.0
 40
0.0
 40
0.2957724869
 40
0.4907759629
 40
0.6868684614
 40
1.0
 40
1.0
 40
1.0
 40
1.0
 10
73.5016339801
 20
86.9151487686
 30
0.0
 10
73.514807466
 20
86.9083724285
 30
0.0
 10
73.5362290484
 20
86.8965441725
 30
0.0
 10
73.5568740758
 20
86.8637293962
 30
0.0
 10
73.5372255897
 20
86.8290400831
 30
0.0
 10
73.5148339273
 20
86.8167003879
 30
0.0
 10
73.5009528534
 20
86.8094002749
 30
0.0
  0
SPLINE
  5
408
100
AcDbEntity
  8
CO830K-A1198_2
100
AcDbSpline
 62
9
  6
CONTINUOUS
 70
0
 71
3
 72
12
 73
8
 74
0
 42
0.0000001
 43
0.0000001
 44
0.0000000001
 40
0.0
 40
0.0
 40
0.0
 40
0.0
 40
0.2929790531
 40
0.5616546997
 40
0.6842470137
 40
0.7981196754
 40
1.0
 40
1.0
 40
1.0
 40
1.0
 10
69.3786931578
 20
80.5462398018
 30
0.0
 10
69.2805710762
 20
81.0594628388
 30
0.0
 10
69.163541433
 20
82.0587803554
 30
0.0
 10
69.2252118085
 20
83.2852640195
 30
0.0
 10
69.4152033431
 20
84.1682977228
 30
0.0
 10
69.670829454
 20
84.9075357805
 30
0.0
 10
69.9659682882
 20
85.4031380972
 30
0.0
 10
70.2094509571
 20
85.6683740073
 30
0.0
  0
SPLINE
  5
409
100
AcDbEntity
  8
CO830K-A1198_2
100
AcDbSpline
 62
9
  6
CONTINUOUS
 70
0
 71
3
 72
17
 73
13
 74
0
 42
0.0000001
 43
0.0000001
 44
0.0000000001
 40
0.0
 40
0.0
 40
0.0
 40
0.0
 40
0.2125208417
 40
0.4018828504
 40
0.5666898266
 40
0.7062031329
 40
0.8196782223
 40
0.9064958694
 40
0.9398175037
 40
0.9664034403
 40
0.9863477731
 40
1.0
 40
1.0
 40
1.0
 40
1.0
 10
70.2094509566
 20
85.668374008
 30
0.0
 10
70.4301270186
 20
85.7898441166
 30
0.0
 10
70.8509008171
 20
86.013353182
 30
0.0
 10
71.4553220861
 20
86.3067333573
 30
0.0
 10
71.9921558955
 20
86.5400452073
 30
0.0
 10
72.455504882
 20
86.7155120516
 30
0.0
 10
72.8398425556
 20
86.8365592621
 30
0.0
 10
73.1096166314
 20
86.9010659529
 30
0.0
 10
73.281668749
 20
86.9267850012
 30
0.0
 10
73.3762941162
 20
86.9338034733
 30
0.0
 10
73.447504523
 20
86.9312986091
 30
0.0
 10
73.487246261
 20
86.9225545298
 30
0.0
 10
73.5016339801
 20
86.9151487686
 30
0.0
  0
SPLINE
  5
40A
100
AcDbEntity
  8
CO830K-A1198_2
100
AcDbSpline
 62
9
  6
CONTINUOUS
 70
0
 71
3
 72
12
 73
8
 74
0
 42
0.0000001
 43
0.0000001
 44
0.0000000001
 40
0.0
 40
0.0
 40
0.0
 40
0.0
 40
0.1447573682
 40
0.2850812944
 40
0.5478641272
 40
0.7849385327
 40
1.0
 40
1.0
 40
1.0
 40
1.0
 10
68.7170008176
 20
80.3627246498
 30
0.0
 10
68.6502657038
 20
80.6047650773
 30
0.0
 10
68.5423968237
 20
81.0883406719
 30
0.0
 10
68.4232617105
 20
82.031885723
 30
0.0
 10
68.4533062589
 20
83.1527156857
 30
0.0
 10
68.807649371
 20
84.3574950827
 30
0.0
 10
69.2621854255
 20
85.0185955559
 30
0.0
 10
69.5271443759
 20
85.2811465645
 30
0.0
  0
SPLINE
  5
40B
100
AcDbEntity
  8
CO830K-A1198_2
100
AcDbSpline
 62
9
  6
CONTINUOUS
 70
0
 71
3
 72
10
 73
6
 74
0
 42
0.0000001
 43
0.0000001
 44
0.0000000001
 40
0.0
 40
0.0
 40
0.0
 40
0.0
 40
0.3649804909
 40
0.6529028356
 40
1.0
 40
1.0
 40
1.0
 40
1.0
 10
55.5076154973
 20
80.2575017451
 30
0.0
 10
55.4955665607
 20
80.2575009026
 30
0.0
 10
55.4736308263
 20
80.2585695982
 30
0.0
 10
55.4423580847
 20
80.2634302767
 30
0.0
 10
55.4192016629
 20
80.2746970852
 30
0.0
 10
55.4162782863
 20
80.285776459
 30
0.0
  0
SPLINE
  5
40C
100
AcDbEntity
  8
CO830K-A1198_2
100
AcDbSpline
 62
9
  6
CONTINUOUS
 70
0
 71
3
 72
9
 73
5
 74
0
 42
0.0000001
 43
0.0000001
 44
0.0000000001
 40
0.0
 40
0.0
 40
0.0
 40
0.0
 40
0.2433625149
 40
1.0
 40
1.0
 40
1.0
 40
1.0
 10
70.2094509566
 20
85.668374008
 30
0.0
 10
70.1537050526
 20
85.6376698488
 30
0.0
 10
69.9251702397
 20
85.5105383331
 30
0.0
 10
69.6984600383
 20
85.3801634073
 30
0.0
 10
69.5271461694
 20
85.2811472701
 30
0.0
  0
SPLINE
  5
40D
100
AcDbEntity
  8
CO830K-A1198_2
100
AcDbSpline
 62
9
  6
CONTINUOUS
 70
0
 71
3
 72
9
 73
5
 74
0
 42
0.0000001
 43
0.0000001
 44
0.0000000001
 40
0.0
 40
0.0
 40
0.0
 40
0.0
 40
0.4876893586
 40
1.0
 40
1.0
 40
1.0
 40
1.0
 10
52.0359751873
 20
85.3563678153
 30
0.0
 10
52.8700457412
 20
84.7870657284
 30
0.0
 10
54.3409065108
 20
83.2538730277
 30
0.0
 10
55.216671789
 20
81.3323411039
 30
0.0
 10
55.4939571469
 20
80.3083983194
 30
0.0
  0
SPLINE
  5
40E
100
AcDbEntity
  8
CO830K-A1198_2
100
AcDbSpline
 62
9
  6
CONTINUOUS
 70
0
 71
3
 72
23
 73
19
 74
0
 42
0.0000001
 43
0.0000001
 44
0.0000000001
 40
0.0
 40
0.0
 40
0.0
 40
0.0
 40
0.0520904712
 40
0.1077903683
 40
0.1673907559
 40
0.2307521575
 40
0.2973983992
 40
0.3665973106
 40
0.4374394015
 40
0.5089091545
 40
0.5799521129
 40
0.6495402514
 40
0.71673842
 40
0.7807747013
 40
0.8411169479
 40
0.8975570313
 40
0.950292252
 40
1.0
 40
1.0
 40
1.0
 40
1.0
 10
49.8208216924
 20
127.0779612222
 30
0.0
 10
50.7680475838
 20
127.0779612222
 30
0.0
 10
52.7321319719
 20
126.8590394167
 30
0.0
 10
55.6531174127
 20
125.951950657
 30
0.0
 10
58.5677076907
 20
124.4872157336
 30
0.0
 10
61.4019229605
 20
122.5052771303
 30
0.0
 10
64.0854714334
 20
120.0584375261
 30
0.0
 10
66.5501439215
 20
117.2101214188
 30
0.0
 10
68.7328834632
 20
114.0340512544
 30
0.0
 10
70.5774336447
 20
110.612435917
 30
0.0
 10
72.0360830047
 20
107.0338280386
 30
0.0
 10
73.0709613998
 20
103.39069331
 30
0.0
 10
73.6549768969
 20
99.7768465639
 30
0.0
 10
73.7721700409
 20
96.2848031023
 30
0.0
 10
73.417844172
 20
93.0035641341
 30
0.0
 10
72.5968540744
 20
90.0162965543
 30
0.0
 10
71.3257301093
 20
87.4021111215
 30
0.0
 10
70.1655281812
 20
85.9210689553
 30
0.0
 10
69.5271461694
 20
85.2811472701
 30
0.0
  0
SPLINE
  5
40F
100
AcDbEntity
  8
CO830K-A1198_2
100
AcDbSpline
 62
9
  6
CONTINUOUS
 70
0
 71
3
 72
11
 73
7
 74
0
 42
0.0000001
 43
0.0000001
 44
0.0000000001
 40
0.0
 40
0.0
 40
0.0
 40
0.0
 40
0.2354958575
 40
0.5061947359
 40
0.7736446846
 40
1.0
 40
1.0
 40
1.0
 40
1.0
 10
68.7170128884
 20
80.3627001332
 30
0.0
 10
68.6873491063
 20
80.3470987248
 30
0.0
 10
68.6206233453
 20
80.3192699443
 30
0.0
 10
68.5151657888
 20
80.2871527138
 30
0.0
 10
68.4084830429
 20
80.2651702592
 30
0.0
 10
68.3382603165
 20
80.2581278886
 30
0.0
 10
68.3060448967
 20
80.2581285191
 30
0.0
  0
SPLINE
  5
410
100
AcDbEntity
  8
CO830K-A1198_2
100
AcDbSpline
 62
9
  6
CONTINUOUS
 70
0
 71
3
 72
11
 73
7
 74
0
 42
0.0000001
 43
0.0000001
 44
0.0000000001
 40
0.0
 40
0.0
 40
0.0
 40
0.0
 40
0.2747324384
 40
0.5412882043
 40
0.784389881
 40
1.0
 40
1.0
 40
1.0
 40
1.0
 10
69.1559526636
 20
85.4178710691
 30
0.0
 10
69.1786276716
 20
85.3861346191
 30
0.0
 10
69.2327475396
 20
85.3298439766
 30
0.0
 10
69.3307304352
 20
85.2736777181
 30
0.0
 10
69.4336457745
 20
85.252514208
 30
0.0
 10
69.5000739563
 20
85.2669184226
 30
0.0
 10
69.5271662078
 20
85.2811673568
 30
0.0
  0
SPLINE
  5
411
100
AcDbEntity
  8
CO830K-A1198_2
100
AcDbSpline
 62
9
  6
CONTINUOUS
 70
0
 71
3
 72
14
 73
10
 74
0
 42
0.0000001
 43
0.0000001
 44
0.0000000001
 40
0.0
 40
0.0
 40
0.0
 40
0.0
 40
0.2852039432
 40
0.4201167901
 40
0.5486947222
 40
0.6705181118
 40
0.7857977808
 40
0.8952253581
 40
1.0
 40
1.0
 40
1.0
 40
1.0
 10
68.3060258089
 20
80.2581931124
 30
0.0
 10
68.1754054937
 20
80.7605201721
 30
0.0
 10
68.0404175587
 20
81.5191944132
 30
0.0
 10
68.0237661279
 20
82.5192427086
 30
0.0
 10
68.0916662282
 20
83.2189610777
 30
0.0
 10
68.2415575479
 20
83.869417905
 30
0.0
 10
68.4690528272
 20
84.4601181493
 30
0.0
 10
68.7706840501
 20
84.9813341958
 30
0.0
 10
69.021692801
 20
85.2825156243
 30
0.0
 10
69.1559502441
 20
85.4179115561
 30
0.0
  0
SPLINE
  5
412
100
AcDbEntity
  8
CO830K-A1198_2
100
AcDbSpline
 62
9
  6
CONTINUOUS
 70
0
 71
3
 72
23
 73
19
 74
0
 42
0.0000001
 43
0.0000001
 44
0.0000000001
 40
0.0
 40
0.0
 40
0.0
 40
0.0
 40
0.0519930846
 40
0.1075869639
 40
0.1670897202
 40
0.2303740291
 40
0.2969702457
 40
0.3661478564
 40
0.436996143
 40
0.5084959872
 40
0.5795877128
 40
0.6492370362
 40
0.716502121
 40
0.780604543
 40
0.8410060996
 40
0.8974946923
 40
0.9502664827
 40
1.0
 40
1.0
 40
1.0
 40
1.0
 10
49.592808643
 20
126.6917834902
 30
0.0
 10
50.5281928337
 20
126.6994382287
 30
0.0
 10
52.4695349635
 20
126.4976738648
 30
0.0
 10
55.3598728716
 20
125.6192198637
 30
0.0
 10
58.2461955459
 20
124.1863765298
 30
0.0
 10
61.0549231244
 20
122.2389900545
 30
0.0
 10
63.7161210549
 20
119.8287474585
 30
0.0
 10
66.1618550092
 20
117.0184253427
 30
0.0
 10
68.3292742397
 20
113.8811105754
 30
0.0
 10
70.1622686018
 20
110.49838575
 30
0.0
 10
71.6132134543
 20
106.9582020484
 30
0.0
 10
72.6442697079
 20
103.3524547725
 30
0.0
 10
73.2283270848
 20
99.7744245373
 30
0.0
 10
73.3493602948
 20
96.3161395409
 30
0.0
 10
73.0025847151
 20
93.06614496
 30
0.0
 10
72.1927026497
 20
90.1071902249
 30
0.0
 10
70.9361124657
 20
87.5179533623
 30
0.0
 10
69.7878801292
 20
86.0513671324
 30
0.0
 10
69.1559502441
 20
85.4179115561
 30
0.0
  0
SPLINE
  5
413
100
AcDbEntity
  8
CO830K-A1198_2
100
AcDbSpline
 62
9
  6
CONTINUOUS
 70
0
 71
3
 72
23
 73
19
 74
0
 42
0.0000001
 43
0.0000001
 44
0.0000000001
 40
0.0
 40
0.0
 40
0.0
 40
0.0
 40
0.0662523991
 40
0.1356602048
 40
0.2074116092
 40
0.2805328577
 40
0.3539668138
 40
0.426635493
 40
0.497508984
 40
0.5656735234
 40
0.6304046072
 40
0.6912469288
 40
0.7481009689
 40
0.8013071177
 40
0.8516975657
 40
0.9005630403
 40
0.9494744651
 40
1.0
 40
1.0
 40
1.0
 40
1.0
 10
51.9395720699
 20
85.4210567026
 30
0.0
 10
50.9742288001
 20
86.0547055029
 30
0.0
 10
49.0887029621
 20
87.4950249415
 30
0.0
 10
46.506458444
 20
90.0363887821
 30
0.0
 10
44.1583876485
 20
92.950921652
 30
0.0
 10
42.1055455037
 20
96.1632773574
 30
0.0
 10
40.4003449001
 20
99.5907405505
 30
0.0
 10
39.0868436118
 20
103.1450565588
 30
0.0
 10
38.1989976999
 20
106.7348863346
 30
0.0
 10
37.7600685101
 20
110.2683695919
 30
0.0
 10
37.7823530646
 20
113.6556265168
 30
0.0
 10
38.2675453113
 20
116.8109406438
 30
0.0
 10
39.2075718324
 20
119.6541137821
 30
0.0
 10
40.5852172229
 20
122.110292456
 30
0.0
 10
42.3720880879
 20
124.1086986286
 30
0.0
 10
44.5236835578
 20
125.5840009665
 30
0.0
 10
46.9727476385
 20
126.4860919191
 30
0.0
 10
48.7122166372
 20
126.6845771448
 30
0.0
 10
49.592808643
 20
126.6917834902
 30
0.0
  0
SPLINE
  5
414
100
AcDbEntity
  8
CO830K-A1198_2
100
AcDbSpline
 62
9
  6
CONTINUOUS
 70
0
 71
3
 72
23
 73
19
 74
0
 42
0.0000001
 43
0.0000001
 44
0.0000000001
 40
0.0
 40
0.0
 40
0.0
 40
0.0
 40
0.0707023649
 40
0.1375700815
 40
0.19979998
 40
0.2571678659
 40
0.3102276188
 40
0.3603925686
 40
0.4097868571
 40
0.4607448207
 40
0.5151842751
 40
0.5742210908
 40
0.6381211906
 40
0.7064386817
 40
0.7781973403
 40
0.8520717957
 40
0.9265293795
 40
1.0
 40
1.0
 40
1.0
 40
1.0
 10
81.3223329422
 20
30.7610241423
 30
0.0
 10
81.4643351482
 20
30.2210315482
 30
0.0
 10
81.6705329563
 20
29.1499546159
 30
0.0
 10
81.73469932
 20
27.5670091285
 30
0.0
 10
81.543408932
 20
26.0985521171
 30
0.0
 10
81.0996148705
 20
24.7980222319
 30
0.0
 10
80.4130267639
 20
23.7152612229
 30
0.0
 10
79.5029443602
 20
22.8995003624
 30
0.0
 10
78.407102771
 20
22.394639199
 30
0.0
 10
77.1804988164
 20
22.2240406914
 30
0.0
 10
75.879289888
 20
22.3861073594
 30
0.0
 10
74.5526942317
 20
22.8653465044
 30
0.0
 10
73.2466764303
 20
23.6390291492
 30
0.0
 10
72.006631584
 20
24.6769080111
 30
0.0
 10
70.8767067628
 20
25.9403088793
 30
0.0
 10
69.89787078
 20
27.3826499998
 30
0.0
 10
69.1063591645
 20
28.9503092942
 30
0.0
 10
68.7170753928
 20
30.0561068869
 30
0.0
 10
68.5629122003
 20
30.6154646292
 30
0.0
  0
SPLINE
  5
415
100
AcDbEntity
  8
CO830K-A1198_2
100
AcDbSpline
 62
9
  6
CONTINUOUS
 70
0
 71
3
 72
10
 73
6
 74
0
 42
0.0000001
 43
0.0000001
 44
0.0000000001
 40
0.0
 40
0.0
 40
0.0
 40
0.0
 40
0.4184665634
 40
0.6873622204
 40
1.0
 40
1.0
 40
1.0
 40
1.0
 10
51.9775864973
 20
85.2719243264
 30
0.0
 10
51.9592917717
 20
85.2839279346
 30
0.0
 10
51.9404614491
 20
85.3195984125
 30
0.0
 10
51.9370024944
 20
85.3715698425
 30
0.0
 10
51.9403729083
 20
85.402067589
 30
0.0
 10
51.9434020145
 20
85.4181319601
 30
0.0
  0
SPLINE
  5
416
100
AcDbEntity
  8
CO830K-A1198_2
100
AcDbSpline
 62
9
  6
CONTINUOUS
 70
0
 71
3
 72
13
 73
9
 74
0
 42
0.0000001
 43
0.0000001
 44
0.0000000001
 40
0.0
 40
0.0
 40
0.0
 40
0.0
 40
0.104178337
 40
0.2113998962
 40
0.3241883948
 40
0.4442391164
 40
0.7077546969
 40
1.0
 40
1.0
 40
1.0
 40
1.0
 10
80.0977518754
 20
22.9187277116
 30
0.0
 10
80.3808485387
 20
23.0676243611
 30
0.0
 10
80.9215160383
 20
23.4391448224
 30
0.0
 10
81.5977551928
 20
24.1798971293
 30
0.0
 10
82.1297218305
 20
25.0863984833
 30
0.0
 10
82.6474421786
 20
26.5275378039
 30
0.0
 10
82.850344299
 20
28.6243494438
 30
0.0
 10
82.5851017003
 20
30.3261964191
 30
0.0
 10
82.3568969122
 20
31.1939920614
 30
0.0
  0
SPLINE
  5
417
100
AcDbEntity
  8
CO830K-A1198_2
100
AcDbSpline
 62
9
  6
CONTINUOUS
 70
0
 71
3
 72
10
 73
6
 74
0
 42
0.0000001
 43
0.0000001
 44
0.0000000001
 40
0.0
 40
0.0
 40
0.0
 40
0.0
 40
0.3471093878
 40
0.6350214094
 40
1.0
 40
1.0
 40
1.0
 40
1.0
 10
68.4323023403
 20
30.7896681109
 30
0.0
 10
68.4352261128
 20
30.7785884196
 30
0.0
 10
68.4583824233
 20
30.7673216412
 30
0.0
 10
68.4896553106
 20
30.762460775
 30
0.0
 10
68.5115906373
 20
30.7613925453
 30
0.0
 10
68.523639516
 20
30.7613933877
 30
0.0
  0
SPLINE
  5
418
100
AcDbEntity
  8
AI0193_9
100
AcDbSpline
 62
7
  6
CONTINUOUS
 70
0
 71
3
 72
9
 73
5
 74
0
 42
0.0000001
 43
0.0000001
 44
0.0000000001
 40
0.0
 40
0.0
 40
0.0
 40
0.0
 40
0.5127289877
 40
1.0
 40
1.0
 40
1.0
 40
1.0
 10
116.7826016155
 20
162.2111961019
 30
0.0
 10
115.8897794621
 20
162.3780433043
 30
0.0
 10
114.1162906359
 20
162.5570233328
 30
0.0
 10
112.3386628268
 20
162.3863641319
 30
0.0
 10
111.4934428921
 20
162.2111961019
 30
0.0
  0
SPLINE
  5
419
100
AcDbEntity
  8
AI0193_9
100
AcDbSpline
 62
7
  6
CONTINUOUS
 70
0
 71
3
 72
14
 73
10
 74
0
 42
0.0000001
 43
0.0000001
 44
0.0000000001
 40
0.0
 40
0.0
 40
0.0
 40
0.0
 40
0.0704725187
 40
0.149669091
 40
0.2436759244
 40
0.3558103781
 40
0.4874974728
 40
0.6391009139
 40
1.0
 40
1.0
 40
1.0
 40
1.0
 10
110.9745991769
 20
85.7791888476
 30
0.0
 10
110.992603572
 20
85.7107604177
 30
0.0
 10
111.0609543583
 20
85.5723196423
 30
0.0
 10
111.2397029744
 20
85.4004472828
 30
0.0
 10
111.4894314375
 20
85.2562279495
 30
0.0
 10
111.8084868561
 20
85.1379083684
 30
0.0
 10
112.1952276166
 20
85.0451144392
 30
0.0
 10
112.8357344499
 20
84.9510183667
 30
0.0
 10
113.3514769366
 20
84.9309532255
 30
0.0
 10
113.7138348877
 20
84.9309532255
 30
0.0
  0
SPLINE
  5
41A
100
AcDbEntity
  8
AI0193_9
100
AcDbSpline
 62
7
  6
CONTINUOUS
 70
0
 71
3
 72
13
 73
9
 74
0
 42
0.0000001
 43
0.0000001
 44
0.0000000001
 40
0.0
 40
0.0
 40
0.0
 40
0.0
 40
0.2675576514
 40
0.4023510182
 40
0.5345140266
 40
0.6618943444
 40
0.7827282832
 40
1.0
 40
1.0
 40
1.0
 40
1.0
 10
183.3099121234
 20
138.3946820646
 30
0.0
 10
182.8777452416
 20
140.0380855173
 30
0.0
 10
181.9111985953
 20
142.4384826218
 30
0.0
 10
180.1159515597
 20
145.3255574895
 30
0.0
 10
178.5454038531
 20
147.2845870663
 30
0.0
 10
176.8016009123
 20
148.9689070165
 30
0.0
 10
174.4115253102
 20
150.7131329269
 30
0.0
 10
172.3817926914
 20
151.5848181953
 30
0.0
 10
171.0253667041
 20
151.8383019155
 30
0.0
  0
SPLINE
  5
41B
100
AcDbEntity
  8
AI0193_9
100
AcDbSpline
 62
7
  6
CONTINUOUS
 70
0
 71
3
 72
11
 73
7
 74
0
 42
0.0000001
 43
0.0000001
 44
0.0000000001
 40
0.0
 40
0.0
 40
0.0
 40
0.0
 40
0.28988098
 40
0.5473495313
 40
0.7803512484
 40
1.0
 40
1.0
 40
1.0
 40
1.0
 10
128.9449895624
 20
92.1889561908
 30
0.0
 10
128.9836453556
 20
92.2505366575
 30
0.0
 10
129.0497682721
 20
92.371478445
 30
0.0
 10
129.1145498453
 20
92.5573542289
 30
0.0
 10
129.1372667157
 20
92.7355203774
 30
0.0
 10
129.1231304373
 20
92.8496859139
 30
0.0
 10
129.1091208435
 20
92.9029670598
 30
0.0
  0
SPLINE
  5
41C
100
AcDbEntity
  8
AI0193_9
100
AcDbSpline
 62
7
  6
CONTINUOUS
 70
0
 71
3
 72
11
 73
7
 74
0
 42
0.0000001
 43
0.0000001
 44
0.0000000001
 40
0.0
 40
0.0
 40
0.0
 40
0.0
 40
0.219649074
 40
0.452652805
 40
0.7101159426
 40
1.0
 40
1.0
 40
1.0
 40
1.0
 10
109.0897560493
 20
87.6384615936
 30
0.0
 10
109.1037656671
 20
87.5851803565
 30
0.0
 10
109.1476225731
 20
87.478829085
 30
0.0
 10
109.2550485153
 20
87.3348910181
 30
0.0
 10
109.4028780284
 20
87.2049183685
 30
0.0
 10
109.5199446691
 20
87.13215451
 30
0.0
 10
109.5838938333
 20
87.0975561944
 30
0.0
  0
SPLINE
  5
41D
100
AcDbEntity
  8
AI0193_9
100
AcDbSpline
 62
7
  6
CONTINUOUS
 70
0
 71
3
 72
9
 73
5
 74
0
 42
0.0000001
 43
0.0000001
 44
0.0000000001
 40
0.0
 40
0.0
 40
0.0
 40
0.0
 40
0.5026779256
 40
1.0
 40
1.0
 40
1.0
 40
1.0
 10
61.9517886835
 20
151.8383019155
 30
0.0
 10
61.6530780384
 20
151.7763954779
 30
0.0
 10
61.0664042488
 20
151.6128551527
 30
0.0
 10
60.5084008323
 20
151.3684690061
 30
0.0
 10
60.2412864274
 20
151.227977495
 30
0.0
  0
SPLINE
  5
41E
100
AcDbEntity
  8
AI0193_9
100
AcDbSpline
 62
7
  6
CONTINUOUS
 70
0
 71
3
 72
14
 73
10
 74
0
 42
0.0000001
 43
0.0000001
 44
0.0000000001
 40
0.0
 40
0.0
 40
0.0
 40
0.0
 40
0.1041046071
 40
0.2112534245
 40
0.3239647926
 40
0.4439344704
 40
0.5719465453
 40
0.7079578249
 40
1.0
 40
1.0
 40
1.0
 40
1.0
 10
179.8064239871
 20
125.5613866342
 30
0.0
 10
180.2454391712
 20
125.7922910912
 30
0.0
 10
181.0838930939
 20
126.3684372602
 30
0.0
 10
182.1326321748
 20
127.5171866704
 30
0.0
 10
182.9575384228
 20
128.9229509953
 30
0.0
 10
183.5417518019
 20
130.5482807287
 30
0.0
 10
183.875372523
 20
132.3547008008
 30
0.0
 10
183.9809648548
 20
135.0085884329
 30
0.0
 10
183.6638080892
 20
137.0489198685
 30
0.0
 10
183.3099121234
 20
138.3946820646
 30
0.0
  0
SPLINE
  5
41F
100
AcDbEntity
  8
AI0193_9
100
AcDbSpline
 62
7
  6
CONTINUOUS
 70
0
 71
3
 72
9
 73
5
 74
0
 42
0.0000001
 43
0.0000001
 44
0.0000000001
 40
0.0
 40
0.0
 40
0.0
 40
0.0
 40
0.5091371843
 40
1.0
 40
1.0
 40
1.0
 40
1.0
 10
61.5867294377
 20
133.57784429
 30
0.0
 10
62.0635838552
 20
134.3143124495
 30
0.0
 10
63.1469814436
 20
135.6730927648
 30
0.0
 10
64.5087009548
 20
136.7575022945
 30
0.0
 10
65.2279987609
 20
137.2026079286
 30
0.0
  0
SPLINE
  5
420
100
AcDbEntity
  8
AI0193_9
100
AcDbSpline
 62
7
  6
CONTINUOUS
 70
0
 71
3
 72
11
 73
7
 74
0
 42
0.0000001
 43
0.0000001
 44
0.0000000001
 40
0.0
 40
0.0
 40
0.0
 40
0.0
 40
0.2139067384
 40
0.4587292373
 40
0.7244919362
 40
1.0
 40
1.0
 40
1.0
 40
1.0
 10
108.1552868596
 20
94.5970775056
 30
0.0
 10
108.8701474754
 20
94.5970775056
 30
0.0
 10
110.4032531585
 20
94.6815363654
 30
0.0
 10
112.8062059871
 20
94.9893986806
 30
0.0
 10
115.3888942568
 20
95.4777553222
 30
0.0
 10
117.1468544352
 20
95.9079916328
 30
0.0
 10
118.0352028508
 20
96.1500177306
 30
0.0
  0
LINE
  5
421
100
AcDbEntity
  8
AI0193_9
100
AcDbLine
 62
7
  6
CONTINUOUS
 10
118.0352028508
 20
96.1500177306
 11
118.074818986
 21
96.1608275771
  0
SPLINE
  5
422
100
AcDbEntity
  8
AI0193_9
100
AcDbSpline
 62
7
  6
CONTINUOUS
 70
0
 71
3
 72
21
 73
17
 74
0
 42
0.0000001
 43
0.0000001
 44
0.0000000001
 40
0.0
 40
0.0
 40
0.0
 40
0.0
 40
0.1838111138
 40
0.3600320877
 40
0.5227079182
 40
0.597280535
 40
0.6665398975
 40
0.7299775485
 40
0.7871740198
 40
0.8378304562
 40
0.8606611999
 40
0.8818219867
 40
0.9192098626
 40
0.9504789215
 40
0.9767254067
 40
1.0
 40
1.0
 40
1.0
 40
1.0
 10
118.074818986
 20
96.1608275771
 30
0.0
 10
118.8670712474
 20
96.3773379474
 30
0.0
 10
120.4093123215
 20
96.8375110631
 30
0.0
 10
122.6129218802
 20
97.614136896
 30
0.0
 10
124.3203973346
 20
98.323001921
 30
0.0
 10
125.5565900682
 20
98.9131031031
 30
0.0
 10
126.3764524261
 20
99.3444104178
 30
0.0
 10
127.1089440522
 20
99.7733474161
 30
0.0
 10
127.747510279
 20
100.1960366016
 30
0.0
 10
128.2118411893
 20
100.5512145149
 30
0.0
 10
128.5293190589
 20
100.8308833747
 30
0.0
 10
128.7892415688
 20
101.0853029826
 30
0.0
 10
129.0516773948
 20
101.3907174947
 30
0.0
 10
129.2718322058
 20
101.7563672038
 30
0.0
 10
129.3796606995
 20
102.1060831193
 30
0.0
 10
129.3678544506
 20
102.3333049406
 30
0.0
 10
129.3414150717
 20
102.4338833257
 30
0.0
  0
SPLINE
  5
423
100
AcDbEntity
  8
AI0193_9
100
AcDbSpline
 62
7
  6
CONTINUOUS
 70
0
 71
3
 72
23
 73
19
 74
0
 42
0.0000001
 43
0.0000001
 44
0.0000000001
 40
0.0
 40
0.0
 40
0.0
 40
0.0
 40
0.0623624646
 40
0.1317639875
 40
0.2860595093
 40
0.4504072225
 40
0.532106601
 40
0.6112035792
 40
0.6860666761
 40
0.7551820771
 40
0.8172056439
 40
0.8710268304
 40
0.9158643059
 40
0.9514504916
 40
0.965969251
 40
0.9785780875
 40
0.989704345
 40
1.0
 40
1.0
 40
1.0
 40
1.0
 10
113.7138348877
 20
84.9309532255
 30
0.0
 10
114.0516489376
 20
84.9309532255
 30
0.0
 10
114.7654890604
 20
84.9583001734
 30
0.0
 10
116.3086614595
 20
85.104956511
 30
0.0
 10
118.3843273624
 20
85.4537168686
 30
0.0
 10
120.4926065807
 20
85.9697807827
 30
0.0
 10
122.1783671273
 20
86.4812571687
 30
0.0
 10
123.3851620117
 20
86.8985385248
 30
0.0
 10
124.5101416643
 20
87.3407444742
 30
0.0
 10
125.5286345218
 20
87.797971995
 30
0.0
 10
126.418407294
 20
88.2598600801
 30
0.0
 10
127.161025941
 20
88.716154154
 30
0.0
 10
127.7409512256
 20
89.1566521553
 30
0.0
 10
128.1043699261
 20
89.5261605698
 30
0.0
 10
128.2912644492
 20
89.811259896
 30
0.0
 10
128.3743940351
 20
90.0025234692
 30
0.0
 10
128.4087404606
 20
90.1855713698
 30
0.0
 10
128.3969137805
 20
90.3030791442
 30
0.0
 10
128.3827227104
 20
90.3570144551
 30
0.0
  0
SPLINE
  5
424
100
AcDbEntity
  8
AI0193_9
100
AcDbSpline
 62
7
  6
CONTINUOUS
 70
0
 71
3
 72
15
 73
11
 74
0
 42
0.0000001
 43
0.0000001
 44
0.0000000001
 40
0.0
 40
0.0
 40
0.0
 40
0.0
 40
0.0704621077
 40
0.149646495
 40
0.2436435117
 40
0.3557588508
 40
0.4874347714
 40
0.6390134474
 40
0.8101881729
 40
1.0
 40
1.0
 40
1.0
 40
1.0
 10
104.1990340756
 20
95.8221749286
 30
0.0
 10
104.2250153983
 20
95.7233390434
 30
0.0
 10
104.3237777546
 20
95.5234088587
 30
0.0
 10
104.5819036223
 20
95.275141459
 30
0.0
 10
104.9426126133
 20
95.0668857274
 30
0.0
 10
105.403417391
 20
94.8959537942
 30
0.0
 10
105.9619867942
 20
94.7619995271
 30
0.0
 10
106.6146880775
 20
94.6659041774
 30
0.0
 10
107.3563151152
 20
94.6085524658
 30
0.0
 10
107.8799958994
 20
94.5970775056
 30
0.0
 10
108.1552868596
 20
94.5970775056
 30
0.0
  0
SPLINE
  5
425
100
AcDbEntity
  8
AI0193_9
100
AcDbSpline
 62
9
  6
CONTINUOUS
 70
0
 71
3
 72
9
 73
5
 74
0
 42
0.0000001
 43
0.0000001
 44
0.0000000001
 40
0.0
 40
0.0
 40
0.0
 40
0.0
 40
0.4925921238
 40
1.0
 40
1.0
 40
1.0
 40
1.0
 10
105.4129348211
 20
101.6202057475
 30
0.0
 10
105.8114837583
 20
101.3040264385
 30
0.0
 10
106.480366184
 20
100.4811572261
 30
0.0
 10
106.8637170719
 20
99.5091366749
 30
0.0
 10
106.9969955731
 20
99.0023328311
 30
0.0
  0
SPLINE
  5
426
100
AcDbEntity
  8
AI0193_9
100
AcDbSpline
 62
7
  6
CONTINUOUS
 70
0
 71
3
 72
11
 73
7
 74
0
 42
0.0000001
 43
0.0000001
 44
0.0000000001
 40
0.0
 40
0.0
 40
0.0
 40
0.0
 40
0.185022409
 40
0.4133706478
 40
0.685665956
 40
1.0
 40
1.0
 40
1.0
 40
1.0
 10
109.5838938333
 20
87.0975561944
 30
0.0
 10
109.7310455076
 20
87.0179429557
 30
0.0
 10
110.0834865872
 20
86.8845540687
 30
0.0
 10
110.6910056236
 20
86.7552968722
 30
0.0
 10
111.4249744675
 20
86.6778987696
 30
0.0
 10
111.9556498229
 20
86.6629936369
 30
0.0
 10
112.2398884821
 20
86.6629936369
 30
0.0
  0
SPLINE
  5
427
100
AcDbEntity
  8
AI0193_9
100
AcDbSpline
 62
9
  6
CONTINUOUS
 70
0
 71
3
 72
13
 73
9
 74
0
 42
0.0000001
 43
0.0000001
 44
0.0000000001
 40
0.0
 40
0.0
 40
0.0
 40
0.0
 40
0.09091314
 40
0.1903013484
 40
0.3015244583
 40
0.4257606788
 40
0.705199659
 40
1.0
 40
1.0
 40
1.0
 40
1.0
 10
118.0888710692
 20
105.6576841267
 30
0.0
 10
118.0593044524
 20
105.6499469509
 30
0.0
 10
117.9946722219
 20
105.6429291637
 30
0.0
 10
117.8937273253
 20
105.6607892339
 30
0.0
 10
117.7900962988
 20
105.7071336646
 30
0.0
 10
117.6487372456
 20
105.8085985906
 30
0.0
 10
117.4952013611
 20
105.9905524437
 30
0.0
 10
117.4046704203
 20
106.1623077101
 30
0.0
 10
117.3662143204
 20
106.2536450012
 30
0.0
  0
SPLINE
  5
428
100
AcDbEntity
  8
AI0193_9
100
AcDbSpline
 62
7
  6
CONTINUOUS
 70
0
 71
3
 72
11
 73
7
 74
0
 42
0.0000001
 43
0.0000001
 44
0.0000000001
 40
0.0
 40
0.0
 40
0.0
 40
0.0
 40
0.2451545719
 40
0.4917520519
 40
0.7425777712
 40
1.0
 40
1.0
 40
1.0
 40
1.0
 10
65.2279987609
 20
137.2026079286
 30
0.0
 10
65.666762052
 20
137.4741171855
 30
0.0
 10
66.5874994202
 20
137.95602391
 30
0.0
 10
68.066859553
 20
138.4758288223
 30
0.0
 10
69.6296657118
 20
138.7877787637
 30
0.0
 10
70.7008481593
 20
138.8546188256
 30
0.0
 10
71.2426431121
 20
138.8546188256
 30
0.0
  0
SPLINE
  5
429
100
AcDbEntity
  8
AI0193_9
100
AcDbSpline
 62
9
  6
CONTINUOUS
 70
0
 71
3
 72
9
 73
5
 74
0
 42
0.0000001
 43
0.0000001
 44
0.0000000001
 40
0.0
 40
0.0
 40
0.0
 40
0.0
 40
0.2353862071
 40
1.0
 40
1.0
 40
1.0
 40
1.0
 10
106.9968339645
 20
99.0023329
 30
0.0
 10
107.1946357326
 20
99.0023328957
 30
0.0
 10
108.0350306482
 20
99.0451528823
 30
0.0
 10
108.862127997
 20
99.2462634261
 30
0.0
 10
109.4702672158
 20
99.4536458131
 30
0.0
  0
SPLINE
  5
42A
100
AcDbEntity
  8
AI0193_9
100
AcDbSpline
 62
9
  6
CONTINUOUS
 70
0
 71
3
 72
23
 73
19
 74
0
 42
0.0000001
 43
0.0000001
 44
0.0000000001
 40
0.0
 40
0.0
 40
0.0
 40
0.0
 40
0.2573199465
 40
0.3854451778
 40
0.5127538032
 40
0.6387673265
 40
0.7010841137
 40
0.762792031
 40
0.8237503904
 40
0.8538914594
 40
0.8837716686
 40
0.91336006
 40
0.9426215054
 40
0.9571173895
 40
0.9715159326
 40
0.9858116632
 40
0.9929189728
 40
1.0
 40
1.0
 40
1.0
 40
1.0
 10
87.1931383551
 20
146.6488752281
 30
0.0
 10
88.8043585609
 20
146.7907102066
 30
0.0
 10
91.2211852549
 20
146.9697561181
 30
0.0
 10
94.4413474663
 20
147.1109551332
 30
0.0
 10
96.8386809074
 20
147.1630894588
 30
0.0
 10
98.8229674571
 20
147.1565202929
 30
0.0
 10
100.3942054537
 20
147.1170388423
 30
0.0
 10
101.5560403304
 20
147.069395569
 30
0.0
 10
102.5149703447
 20
147.0132725956
 30
0.0
 10
103.2733918275
 20
146.9576268956
 30
0.0
 10
103.8346960807
 20
146.9105349654
 30
0.0
 10
104.3899324581
 20
146.857670176
 30
0.0
 10
104.8483473765
 20
146.8084719579
 30
0.0
 10
105.2114061081
 20
146.765818887
 30
0.0
 10
105.4808399637
 20
146.7325059571
 30
0.0
 10
105.7038984465
 20
146.7026667009
 30
0.0
 10
105.8814094619
 20
146.6793473978
 30
0.0
 10
105.9694600456
 20
146.6648313204
 30
0.0
 10
106.0137031741
 20
146.6599679512
 30
0.0
  0
SPLINE
  5
42B
100
AcDbEntity
  8
AI0193_9
100
AcDbSpline
 62
9
  6
CONTINUOUS
 70
0
 71
3
 72
12
 73
8
 74
0
 42
0.0000001
 43
0.0000001
 44
0.0000000001
 40
0.0
 40
0.0
 40
0.0
 40
0.0
 40
0.2390217065
 40
0.5129692647
 40
0.779789263
 40
0.897482539
 40
1.0
 40
1.0
 40
1.0
 40
1.0
 10
119.6663524334
 20
127.3448326146
 30
0.0
 10
119.1763390126
 20
127.2943086495
 30
0.0
 10
118.1313088266
 20
127.1197155914
 30
0.0
 10
116.575391993
 20
126.7103528363
 30
0.0
 10
115.2965695854
 20
126.2487333856
 30
0.0
 10
114.3828195264
 20
125.8322858631
 30
0.0
 10
113.9816402507
 20
125.6192047973
 30
0.0
 10
113.7990489534
 20
125.512898748
 30
0.0
  0
SPLINE
  5
42C
100
AcDbEntity
  8
AI0193_9
100
AcDbSpline
 62
9
  6
CONTINUOUS
 70
0
 71
3
 72
12
 73
8
 74
0
 42
0.0000001
 43
0.0000001
 44
0.0000000001
 40
0.0
 40
0.0
 40
0.0
 40
0.0
 40
0.1181857588
 40
0.2407091304
 40
0.4918081672
 40
0.7456739512
 40
1.0
 40
1.0
 40
1.0
 40
1.0
 10
106.3387455216
 20
147.9577712484
 30
0.0
 10
105.5831136053
 20
148.0001375133
 30
0.0
 10
104.0412292092
 20
148.0365226645
 30
0.0
 10
100.8919238185
 20
147.9738134008
 30
0.0
 10
96.8809009245
 20
147.7043964392
 30
0.0
 10
92.0430400334
 20
147.2160169309
 30
0.0
 10
88.8108365956
 20
146.8371019543
 30
0.0
 10
87.1931386809
 20
146.6488752568
 30
0.0
  0
SPLINE
  5
42D
100
AcDbEntity
  8
AI0193_9
100
AcDbSpline
 62
9
  6
CONTINUOUS
 70
0
 71
3
 72
12
 73
8
 74
0
 42
0.0000001
 43
0.0000001
 44
0.0000000001
 40
0.0
 40
0.0
 40
0.0
 40
0.0
 40
0.2442208898
 40
0.5111208602
 40
0.7726011677
 40
0.8922724989
 40
1.0
 40
1.0
 40
1.0
 40
1.0
 10
109.4702672733
 20
99.4536456858
 30
0.0
 10
110.7066065623
 20
99.8752515448
 30
0.0
 10
113.2731031565
 20
100.8193848968
 30
0.0
 10
117.1028199294
 20
102.373106804
 30
0.0
 10
120.2729396413
 20
103.7768508171
 30
0.0
 10
122.6323156905
 20
104.9044462092
 30
0.0
 10
123.7176317206
 20
105.4538338559
 30
0.0
 10
124.2275961534
 20
105.7220452174
 30
0.0
  0
SPLINE
  5
42E
100
AcDbEntity
  8
AI0193_9
100
AcDbSpline
 62
9
  6
CONTINUOUS
 70
0
 71
3
 72
17
 73
13
 74
0
 42
0.0000001
 43
0.0000001
 44
0.0000000001
 40
0.0
 40
0.0
 40
0.0
 40
0.0
 40
0.2133347834
 40
0.4039050028
 40
0.5698149669
 40
0.7095393182
 40
0.8219771223
 40
0.86778989
 40
0.9067059411
 40
0.938845863
 40
0.9645605663
 40
1.0
 40
1.0
 40
1.0
 40
1.0
 10
124.2275961521
 20
105.7220452223
 30
0.0
 10
124.5080465003
 20
105.8695456457
 30
0.0
 10
125.0366173086
 20
106.1534320484
 30
0.0
 10
125.7732017131
 20
106.5704585054
 30
0.0
 10
126.404186042
 20
106.9516184015
 30
0.0
 10
126.9231637184
 20
107.2929066575
 30
0.0
 10
127.2797096377
 20
107.5557999823
 30
0.0
 10
127.5025259594
 20
107.746223355
 30
0.0
 10
127.627273958
 20
107.8667847572
 30
0.0
 10
127.7218809345
 20
107.9763288887
 30
0.0
 10
127.797993551
 20
108.0897567833
 30
0.0
 10
127.8287296706
 20
108.186230195
 30
0.0
 10
127.8153420784
 20
108.2371387288
 30
0.0
  0
SPLINE
  5
42F
100
AcDbEntity
  8
AI0193_9
100
AcDbSpline
 62
9
  6
CONTINUOUS
 70
0
 71
3
 72
15
 73
11
 74
0
 42
0.0000001
 43
0.0000001
 44
0.0000000001
 40
0.0
 40
0.0
 40
0.0
 40
0.0
 40
0.1269243344
 40
0.2561168434
 40
0.386049462
 40
0.5151508079
 40
0.6420792799
 40
0.7656534984
 40
0.8850804807
 40
1.0
 40
1.0
 40
1.0
 40
1.0
 10
172.5976647437
 20
132.7927024129
 30
0.0
 10
172.359261127
 20
133.6090719502
 30
0.0
 10
171.7452524818
 20
135.2202341272
 30
0.0
 10
170.4698237486
 20
137.4807556415
 30
0.0
 10
168.8735329403
 20
139.5461611666
 30
0.0
 10
167.011215652
 20
141.3532398039
 30
0.0
 10
164.9436188765
 20
142.8500818574
 30
0.0
 10
162.7344190915
 20
143.9954094802
 30
0.0
 10
160.450424721
 20
144.7583023557
 30
0.0
 10
158.8897580971
 20
145.0026490482
 30
0.0
 10
158.1212813973
 20
145.0515103337
 30
0.0
  0
SPLINE
  5
430
100
AcDbEntity
  8
AI0193_9
100
AcDbSpline
 62
9
  6
CONTINUOUS
 70
0
 71
3
 72
11
 73
7
 74
0
 42
0.0000001
 43
0.0000001
 44
0.0000000001
 40
0.0
 40
0.0
 40
0.0
 40
0.0
 40
0.2660571459
 40
0.5559918041
 40
0.8131313168
 40
1.0
 40
1.0
 40
1.0
 40
1.0
 10
157.796152537
 20
143.7536811032
 30
0.0
 10
157.7778953043
 20
143.8748846256
 30
0.0
 10
157.7661786401
 20
144.1324699561
 30
0.0
 10
157.8173976945
 20
144.5060349126
 30
0.0
 10
157.9308190614
 20
144.8268519767
 30
0.0
 10
158.0540135963
 20
144.9977850869
 30
0.0
 10
158.1212813885
 20
145.0515103343
 30
0.0
  0
SPLINE
  5
431
100
AcDbEntity
  8
AI0193_9
100
AcDbSpline
 62
9
  6
CONTINUOUS
 70
0
 71
3
 72
11
 73
7
 74
0
 42
0.0000001
 43
0.0000001
 44
0.0000000001
 40
0.0
 40
0.0
 40
0.0
 40
0.0
 40
0.2202341497
 40
0.4871788463
 40
0.7611403382
 40
1.0
 40
1.0
 40
1.0
 40
1.0
 10
172.597664744
 20
132.7927024119
 30
0.0
 10
172.5193114874
 20
132.7468604009
 30
0.0
 10
172.3380157332
 20
132.6591363274
 30
0.0
 10
172.0431125391
 20
132.5509662743
 30
0.0
 10
171.732364774
 20
132.4673016664
 30
0.0
 10
171.5236916839
 20
132.4309283747
 30
0.0
 10
171.4258353064
 20
132.420081646
 30
0.0
  0
SPLINE
  5
432
100
AcDbEntity
  8
AI0193_9
100
AcDbSpline
 62
9
  6
CONTINUOUS
 70
0
 71
3
 72
15
 73
11
 74
0
 42
0.0000001
 43
0.0000001
 44
0.0000000001
 40
0.0
 40
0.0
 40
0.0
 40
0.0
 40
0.1157231116
 40
0.2357240562
 40
0.3596111094
 40
0.486586016
 40
0.6154889112
 40
0.745021299
 40
0.8736734903
 40
1.0
 40
1.0
 40
1.0
 40
1.0
 10
157.7961526636
 20
143.7536810961
 30
0.0
 10
158.5200978516
 20
143.7130503413
 30
0.0
 10
159.9897899747
 20
143.4957173492
 30
0.0
 10
162.1423394019
 20
142.7996161195
 30
0.0
 10
164.2238964401
 20
141.7464882974
 30
0.0
 10
166.1714440076
 20
140.3646693411
 30
0.0
 10
167.9249216892
 20
138.6921977136
 30
0.0
 10
169.4270600636
 20
136.7770364456
 30
0.0
 10
170.6261815555
 20
134.6777708031
 30
0.0
 10
171.2025112211
 20
133.1794454962
 30
0.0
 10
171.4258353064
 20
132.420081646
 30
0.0
  0
SPLINE
  5
433
100
AcDbEntity
  8
AI0193_9
100
AcDbSpline
 62
9
  6
CONTINUOUS
 70
0
 71
3
 72
15
 73
11
 74
0
 42
0.0000001
 43
0.0000001
 44
0.0000000001
 40
0.0
 40
0.0
 40
0.0
 40
0.0
 40
0.1386617723
 40
0.2723833272
 40
0.4008602263
 40
0.5245175492
 40
0.6444631362
 40
0.7624005298
 40
0.8802967771
 40
1.0
 40
1.0
 40
1.0
 40
1.0
 10
171.4258368937
 20
132.420081822
 30
0.0
 10
171.6423294534
 20
131.6839470468
 30
0.0
 10
171.9542917783
 20
130.2010553759
 30
0.0
 10
172.0349174501
 20
127.9730551069
 30
0.0
 10
171.7175680767
 20
125.8482264359
 30
0.0
 10
171.0126244548
 20
123.8983086057
 30
0.0
 10
169.9453627511
 20
122.1878125776
 30
0.0
 10
168.5543390308
 20
120.771973601
 30
0.0
 10
166.8907230423
 20
119.6940669168
 30
0.0
 10
165.6506372249
 20
119.2249065832
 30
0.0
 10
165.0109213179
 20
119.0530471117
 30
0.0
  0
SPLINE
  5
434
100
AcDbEntity
  8
AI0193_9
100
AcDbSpline
 62
9
  6
CONTINUOUS
 70
0
 71
3
 72
13
 73
9
 74
0
 42
0.0000001
 43
0.0000001
 44
0.0000000001
 40
0.0
 40
0.0
 40
0.0
 40
0.0
 40
0.1161281303
 40
0.2343665961
 40
0.3550953866
 40
0.4785696251
 40
0.7338272221
 40
1.0
 40
1.0
 40
1.0
 40
1.0
 10
117.3667160637
 20
106.2537855522
 30
0.0
 10
117.8186991127
 20
106.9679903714
 30
0.0
 10
118.6444045391
 20
108.4660473265
 30
0.0
 10
119.6200892747
 20
110.8651531513
 30
0.0
 10
120.331088576
 20
113.411419861
 30
0.0
 10
120.9198643547
 20
117.0049974962
 30
0.0
 10
120.9310287525
 20
121.7332605584
 30
0.0
 10
120.2018988892
 20
125.4830584039
 30
0.0
 10
119.6663537115
 20
127.3448327463
 30
0.0
  0
SPLINE
  5
435
100
AcDbEntity
  8
AI0193_9
100
AcDbSpline
 62
9
  6
CONTINUOUS
 70
0
 71
3
 72
12
 73
8
 74
0
 42
0.0000001
 43
0.0000001
 44
0.0000000001
 40
0.0
 40
0.0
 40
0.0
 40
0.0
 40
0.2466932803
 40
0.4979318534
 40
0.6242419962
 40
0.7503117144
 40
1.0
 40
1.0
 40
1.0
 40
1.0
 10
119.6663524334
 20
127.3448326146
 30
0.0
 10
119.1195804017
 20
129.2456360918
 30
0.0
 10
117.6672068551
 20
132.9891295024
 30
0.0
 10
115.0941460451
 20
137.3084341803
 30
0.0
 10
112.6235962673
 20
140.5072434964
 30
0.0
 10
109.9151504845
 20
143.4891479998
 30
0.0
 10
107.6269824717
 20
145.4746760215
 30
0.0
 10
106.013705859
 20
146.6599680115
 30
0.0
  0
SPLINE
  5
436
100
AcDbEntity
  8
AI0193_9
100
AcDbSpline
 62
9
  6
CONTINUOUS
 70
0
 71
3
 72
11
 73
7
 74
0
 42
0.0000001
 43
0.0000001
 44
0.0000000001
 40
0.0
 40
0.0
 40
0.0
 40
0.0
 40
0.2660643754
 40
0.5560001912
 40
0.8131344242
 40
1.0
 40
1.0
 40
1.0
 40
1.0
 10
106.013708217
 20
146.6599847216
 30
0.0
 10
105.9954526612
 20
146.7811859091
 30
0.0
 10
105.9837279219
 20
147.0387611549
 30
0.0
 10
106.0349170418
 20
147.4123128349
 30
0.0
 10
106.1483049775
 20
147.7331209911
 30
0.0
 10
106.2714856224
 20
147.9040491201
 30
0.0
 10
106.3387491073
 20
147.9577708387
 30
0.0
  0
SPLINE
  5
437
100
AcDbEntity
  8
AI0193_9
100
AcDbSpline
 62
9
  6
CONTINUOUS
 70
0
 71
3
 72
13
 73
9
 74
0
 42
0.0000001
 43
0.0000001
 44
0.0000000001
 40
0.0
 40
0.0
 40
0.0
 40
0.0
 40
0.2950222865
 40
0.5745448802
 40
0.6987299381
 40
0.8098552683
 40
0.9091427929
 40
1.0
 40
1.0
 40
1.0
 40
1.0
 10
165.0107587781
 20
119.0534327859
 30
0.0
 10
165.049327941
 20
118.9618267227
 30
0.0
 10
165.1401596602
 20
118.789625221
 30
0.0
 10
165.2943123088
 20
118.6073558014
 30
0.0
 10
165.4362166788
 20
118.5060189718
 30
0.0
 10
165.5401726105
 20
118.45997484
 30
0.0
 10
165.6413535838
 20
118.4425935614
 30
0.0
 10
165.7060351475
 20
118.4500269365
 30
0.0
 10
165.7355971724
 20
118.457968773
 30
0.0
  0
SPLINE
  5
438
100
AcDbEntity
  8
AI0193_9
100
AcDbSpline
 62
9
  6
CONTINUOUS
 70
0
 71
3
 72
22
 73
18
 74
0
 42
0.0000001
 43
0.0000001
 44
0.0000000001
 40
0.0
 40
0.0
 40
0.0
 40
0.0
 40
0.0068521916
 40
0.0137256104
 40
0.0275556407
 40
0.041494693
 40
0.0555378314
 40
0.0839209832
 40
0.112676089
 40
0.1711968997
 40
0.2309146017
 40
0.2916676971
 40
0.3533207636
 40
0.4788812809
 40
0.6068411084
 40
0.7366278758
 40
1.0
 40
1.0
 40
1.0
 40
1.0
 10
117.3663897558
 20
106.2532474495
 30
0.0
 10
117.3376233938
 20
106.2438265574
 30
0.0
 10
117.2814321029
 20
106.2208738541
 30
0.0
 10
117.1673793929
 20
106.1783925629
 30
0.0
 10
117.0243790845
 20
106.1238595312
 30
0.0
 10
116.851715726
 20
106.0582657592
 30
0.0
 10
116.6191037926
 20
105.9694343119
 30
0.0
 10
116.325503864
 20
105.8568515171
 30
0.0
 10
115.8487850638
 20
105.6730418273
 30
0.0
 10
115.2434502647
 20
105.4380446294
 30
0.0
 10
114.5069687228
 20
105.1502910013
 30
0.0
 10
113.7579999057
 20
104.8564790046
 30
0.0
 10
112.738516511
 20
104.4557881745
 30
0.0
 10
111.4426889313
 20
103.9465804544
 30
0.0
 10
109.8652196381
 20
103.3311386837
 30
0.0
 10
107.7168799667
 20
102.5040350519
 30
0.0
 10
106.0901262332
 20
101.8954083064
 30
0.0
 10
104.9967935315
 20
101.4976057247
 30
0.0
  0
SPLINE
  5
439
100
AcDbEntity
  8
AI0193_9
100
AcDbSpline
 62
9
  6
CONTINUOUS
 70
0
 71
3
 72
11
 73
7
 74
0
 42
0.0000001
 43
0.0000001
 44
0.0000000001
 40
0.0
 40
0.0
 40
0.0
 40
0.0
 40
0.2621134655
 40
0.5248045317
 40
0.7746438624
 40
1.0
 40
1.0
 40
1.0
 40
1.0
 10
109.4702671579
 20
99.4536456464
 30
0.0
 10
109.3542963625
 20
99.7447015553
 30
0.0
 10
109.0905884438
 20
100.3155574557
 30
0.0
 10
108.6019378978
 20
101.1053147644
 30
0.0
 10
108.0314712532
 20
101.7825078359
 30
0.0
 10
107.587515027
 20
102.1453892061
 30
0.0
 10
107.3586147504
 20
102.2873972104
 30
0.0
  0
SPLINE
  5
43A
100
AcDbEntity
  8
AI0193_9
100
AcDbSpline
 62
9
  6
CONTINUOUS
 70
0
 71
3
 72
9
 73
5
 74
0
 42
0.0000001
 43
0.0000001
 44
0.0000000001
 40
0.0
 40
0.0
 40
0.0
 40
0.0
 40
0.4828004296
 40
1.0
 40
1.0
 40
1.0
 40
1.0
 10
104.9014456406
 20
99.453646074
 30
0.0
 10
105.2144525631
 20
99.3035144308
 30
0.0
 10
105.9030750036
 20
99.0715250411
 30
0.0
 10
106.6249502559
 20
99.0023328325
 30
0.0
 10
106.9968339832
 20
99.002332829
 30
0.0
  0
SPLINE
  5
43B
100
AcDbEntity
  8
AI0193_9
100
AcDbSpline
 62
9
  6
CONTINUOUS
 70
0
 71
3
 72
15
 73
11
 74
0
 42
0.0000001
 43
0.0000001
 44
0.0000000001
 40
0.0
 40
0.0
 40
0.0
 40
0.0
 40
0.1162157962
 40
0.232569534
 40
0.3505997728
 40
0.4716913013
 40
0.5968620872
 40
0.7266688315
 40
0.861183984
 40
1.0
 40
1.0
 40
1.0
 40
1.0
 10
167.9227225691
 20
119.3112584331
 30
0.0
 10
168.4520338724
 20
119.5896450068
 30
0.0
 10
169.4620526566
 20
120.2473068768
 30
0.0
 10
170.7664746338
 20
121.5090438179
 30
0.0
 10
171.8228414063
 20
123.0159319071
 30
0.0
 10
172.6019384858
 20
124.7322960915
 30
0.0
 10
173.0827803983
 20
126.6166288404
 30
0.0
 10
173.2522467963
 20
128.6224786393
 30
0.0
 10
173.1060340953
 20
130.699339759
 30
0.0
 10
172.8047512064
 20
132.078841942
 30
0.0
 10
172.6057504618
 20
132.7649212614
 30
0.0
  0
SPLINE
  5
43C
100
AcDbEntity
  8
AI0193_9
100
AcDbSpline
 62
9
  6
CONTINUOUS
 70
0
 71
3
 72
15
 73
11
 74
0
 42
0.0000001
 43
0.0000001
 44
0.0000000001
 40
0.0
 40
0.0
 40
0.0
 40
0.0
 40
0.1021538329
 40
0.2115809907
 40
0.3288179778
 40
0.4535042281
 40
0.5846839829
 40
0.7207968544
 40
0.8599096663
 40
1.0
 40
1.0
 40
1.0
 40
1.0
 10
84.4408273761
 20
146.8834599092
 30
0.0
 10
85.4688934451
 20
146.8830341421
 30
0.0
 10
87.6025743799
 20
146.6392212367
 30
0.0
 10
90.7725758128
 20
145.6335552717
 30
0.0
 10
93.9313874872
 20
144.0121843724
 30
0.0
 10
96.9957173994
 20
141.821840549
 30
0.0
 10
99.8864515628
 20
139.1225727943
 30
0.0
 10
102.5270643875
 20
135.9870892651
 30
0.0
 10
104.8469503519
 20
132.5005127527
 30
0.0
 10
106.1411071013
 20
129.9988819479
 30
0.0
 10
106.7188849027
 20
128.7128551179
 30
0.0
  0
LINE
  5
43D
100
AcDbEntity
  8
AI0193_9
100
AcDbLine
 62
9
  6
CONTINUOUS
 10
106.7188849027
 20
128.7128551179
 11
106.7241588059
 21
128.7011110879
  0
SPLINE
  5
43E
100
AcDbEntity
  8
AI0193_9
100
AcDbSpline
 62
9
  6
CONTINUOUS
 70
0
 71
3
 72
9
 73
5
 74
0
 42
0.0000001
 43
0.0000001
 44
0.0000000001
 40
0.0
 40
0.0
 40
0.0
 40
0.0
 40
0.2526104864
 40
1.0
 40
1.0
 40
1.0
 40
1.0
 10
106.7241588059
 20
128.7011110879
 30
0.0
 10
106.9334959319
 20
128.2347447978
 30
0.0
 10
107.7250324687
 20
126.3721664501
 30
0.0
 10
108.3669433218
 20
124.4454914536
 30
0.0
 10
108.7515960726
 20
122.9827703439
 30
0.0
  0
SPLINE
  5
43F
100
AcDbEntity
  8
AI0193_9
100
AcDbSpline
 62
9
  6
CONTINUOUS
 70
0
 71
3
 72
15
 73
11
 74
0
 42
0.0000001
 43
0.0000001
 44
0.0000000001
 40
0.0
 40
0.0
 40
0.0
 40
0.0
 40
0.1489027589
 40
0.2919479496
 40
0.4278362417
 40
0.5558400648
 40
0.6759345611
 40
0.7888007081
 40
0.8960055728
 40
1.0
 40
1.0
 40
1.0
 40
1.0
 10
108.7515960726
 20
122.9827703439
 30
0.0
 10
109.0659514379
 20
121.7873694849
 30
0.0
 10
109.5591018172
 20
119.4086804223
 30
0.0
 10
109.8781733895
 20
115.8633915314
 30
0.0
 10
109.7566578392
 20
112.4776184391
 30
0.0
 10
109.195143307
 20
109.327955321
 30
0.0
 10
108.2027620405
 20
106.48543231
 30
0.0
 10
106.7959939027
 20
104.0164474047
 30
0.0
 10
105.0030179668
 20
101.9844771958
 30
0.0
 10
103.5644003854
 20
100.9510212871
 30
0.0
 10
102.809494682
 20
100.5322936262
 30
0.0
  0
SPLINE
  5
440
100
AcDbEntity
  8
AI0193_9
100
AcDbSpline
 62
9
  6
CONTINUOUS
 70
0
 71
3
 72
72
 73
68
 74
0
 42
0.0000001
 43
0.0000001
 44
0.0000000001
 40
0.0
 40
0.0
 40
0.0
 40
0.0
 40
0.0258490344
 40
0.0526712467
 40
0.0664748024
 40
0.0805478998
 40
0.0948915497
 40
0.1021708023
 40
0.1095095699
 40
0.1168208852
 40
0.1241891881
 40
0.1391457281
 40
0.1543772811
 40
0.1698754297
 40
0.2016419987
 40
0.234376413
 40
0.2510831101
 40
0.2679959091
 40
0.276525433
 40
0.2851006391
 40
0.2937246138
 40
0.2980444116
 40
0.3023621445
 40
0.3110159774
 40
0.3197143243
 40
0.3284504771
 40
0.3372216291
 40
0.3548619517
 40
0.3726126281
 40
0.4083848695
 40
0.4443862267
 40
0.4624322988
 40
0.4804779997
 40
0.4894951554
 40
0.4985042871
 40
0.5075047575
 40
0.516503894
 40
0.5254911481
 40
0.5344627998
 40
0.552349666
 40
0.5701472135
 40
0.5878317731
 40
0.6228083424
 40
0.6571379616
 40
0.6740282724
 40
0.6823963961
 40
0.6907113336
 40
0.6989705529
 40
0.707166198
 40
0.7153536065
 40
0.7235156115
 40
0.7396459196
 40
0.7555286929
 40
0.7865070174
 40
0.8164104118
 40
0.8452032698
 40
0.8591898719
 40
0.8729024766
 40
0.8796471461
 40
0.8863632979
 40
0.8931301969
 40
0.8998310469
 40
0.9130458125
 40
0.9260305127
 40
0.9513509069
 40
0.9759516936
 40
1.0
 40
1.0
 40
1.0
 40
1.0
 10
83.3844780534
 20
146.2835409902
 30
0.0
 10
83.9002557555
 20
146.2820506872
 30
0.0
 10
84.9517394862
 20
146.2199339117
 30
0.0
 10
86.2629660085
 20
146.0058320699
 30
0.0
 10
87.3253326488
 20
145.7542049854
 30
0.0
 10
88.1356153301
 20
145.5225973227
 30
0.0
 10
88.8113859839
 20
145.2967349409
 30
0.0
 10
89.3533952127
 20
145.0962956534
 30
0.0
 10
89.7614547584
 20
144.9380287951
 30
0.0
 10
90.1628681444
 20
144.7591710258
 30
0.0
 10
90.6988090559
 20
144.5092642266
 30
0.0
 10
91.3687724644
 20
144.1730328595
 30
0.0
 10
92.1673556555
 20
143.732950858
 30
0.0
 10
93.2368763702
 20
143.0912461241
 30
0.0
 10
94.5606745297
 20
142.1968120229
 30
0.0
 10
95.8407522387
 20
141.2013869698
 30
0.0
 10
96.8467887254
 20
140.340395177
 30
0.0
 10
97.4686330923
 20
139.7739424633
 30
0.0
 10
97.9602711323
 20
139.3059081332
 30
0.0
 10
98.3261766662
 20
138.9457942184
 30
0.0
 10
98.6297922841
 20
138.6421491946
 30
0.0
 10
98.8685135119
 20
138.3938385706
 30
0.0
 10
99.1021173103
 20
138.139900181
 30
0.0
 10
99.389113733
 20
137.8164672884
 30
0.0
 10
99.7314453731
 20
137.4242987694
 30
0.0
 10
100.0690657706
 20
137.0249789542
 30
0.0
 10
100.5145650034
 20
136.4833129772
 30
0.0
 10
101.0599531071
 20
135.7910137688
 30
0.0
 10
101.907881043
 20
134.6518435717
 30
0.0
 10
102.9157229823
 20
133.1758652367
 30
0.0
 10
103.8466245542
 20
131.6433259256
 30
0.0
 10
104.5442573068
 20
130.385146625
 30
0.0
 10
104.9599806903
 20
129.5866876626
 30
0.0
 10
105.2793919381
 20
128.9416533163
 30
0.0
 10
105.5130817093
 20
128.4556495895
 30
0.0
 10
105.7409799923
 20
127.9671772342
 30
0.0
 10
105.9478141267
 20
127.4699056874
 30
0.0
 10
106.1508716303
 20
126.9718084532
 30
0.0
 10
106.41171364
 20
126.3057876084
 30
0.0
 10
106.7200633073
 20
125.4696767342
 30
0.0
 10
107.061338719
 20
124.46079818
 30
0.0
 10
107.4752876032
 20
123.1170687182
 30
0.0
 10
107.9174019448
 20
121.4375404055
 30
0.0
 10
108.2594552429
 20
119.7509043859
 30
0.0
 10
108.4432207245
 20
118.5760227147
 30
0.0
 10
108.5313710038
 20
117.9119194704
 30
0.0
 10
108.5895240005
 20
117.4176112722
 30
0.0
 10
108.6383930059
 20
116.9257880607
 30
0.0
 10
108.6837778349
 20
116.436129824
 30
0.0
 10
108.7099295484
 20
115.9469512951
 30
0.0
 10
108.7278135361
 20
115.2991015918
 30
0.0
 10
108.7348650531
 20
114.4973454563
 30
0.0
 10
108.7002794341
 20
113.2407053401
 30
0.0
 10
108.5785938018
 20
111.7123643549
 30
0.0
 10
108.3018072033
 20
109.9428044417
 30
0.0
 10
107.9615153765
 20
108.5310466179
 30
0.0
 10
107.6253258864
 20
107.4547827751
 30
0.0
 10
107.389819398
 20
106.8088230319
 30
0.0
 10
107.1875415145
 20
106.3057411655
 30
0.0
 10
107.0269096214
 20
105.9353361171
 30
0.0
 10
106.8491580064
 20
105.5738412204
 30
0.0
 10
106.6057314128
 20
105.1003290275
 30
0.0
 10
106.2827508832
 20
104.5283817823
 30
0.0
 10
105.7311919677
 20
103.6604622226
 30
0.0
 10
104.9726578896
 20
102.6567451454
 30
0.0
 10
103.9502696668
 20
101.5877505149
 30
0.0
 10
103.1963706865
 20
100.9714836864
 30
0.0
 10
102.8061906922
 20
100.6921727737
 30
0.0
  0
SPLINE
  5
441
100
AcDbEntity
  8
AI0193_9
100
AcDbSpline
 62
7
  6
CONTINUOUS
 70
0
 71
3
 72
14
 73
10
 74
0
 42
0.0000001
 43
0.0000001
 44
0.0000000001
 40
0.0
 40
0.0
 40
0.0
 40
0.0
 40
0.1029658916
 40
0.2126322685
 40
0.3295798092
 40
0.4536567279
 40
0.5841245445
 40
0.7197869661
 40
1.0
 40
1.0
 40
1.0
 40
1.0
 10
71.2426431121
 20
138.8546188256
 30
0.0
 10
72.1537522283
 20
138.8546188256
 30
0.0
 10
74.0388168636
 20
138.6565421947
 30
0.0
 10
76.8493694479
 20
137.8311696984
 30
0.0
 10
79.6626155739
 20
136.4941969846
 30
0.0
 10
82.4143120217
 20
134.6789599597
 30
0.0
 10
85.0438327955
 20
132.4278604463
 30
0.0
 10
88.3390988578
 20
128.8808183431
 30
0.0
 10
90.3989219038
 20
125.7891403931
 30
0.0
 10
91.5622597639
 20
123.5994828813
 30
0.0
  0
SPLINE
  5
442
100
AcDbEntity
  8
AI0193_9
100
AcDbSpline
 62
7
  6
CONTINUOUS
 70
0
 71
3
 72
17
 73
13
 74
0
 42
0.0000001
 43
0.0000001
 44
0.0000000001
 40
0.0
 40
0.0
 40
0.0
 40
0.0
 40
0.1491546389
 40
0.2950261487
 40
0.4345500414
 40
0.5653445475
 40
0.6861012879
 40
0.7970166489
 40
0.8494753281
 40
0.9004149105
 40
0.950382789
 40
1.0
 40
1.0
 40
1.0
 40
1.0
 10
91.5622597639
 20
123.5994828813
 30
0.0
 10
92.3358443505
 20
122.1434266838
 30
0.0
 10
93.675649924
 20
119.1572890911
 30
0.0
 10
95.0332698822
 20
114.5338483567
 30
0.0
 10
95.6789925828
 20
109.9605308791
 30
0.0
 10
95.5832581335
 20
105.6165068525
 30
0.0
 10
94.7440021588
 20
101.6714643818
 30
0.0
 10
93.4094446152
 20
98.7893973259
 30
0.0
 10
91.9984467894
 20
96.8778443328
 30
0.0
 10
90.8048012362
 20
95.6652247315
 30
0.0
 10
89.4694371113
 20
94.6623664837
 30
0.0
 10
88.4939705602
 20
94.1412073019
 30
0.0
 10
87.9918826302
 20
93.9204339032
 30
0.0
  0
SPLINE
  5
443
100
AcDbEntity
  8
AI0193_9
100
AcDbSpline
 62
9
  6
CONTINUOUS
 70
0
 71
3
 72
16
 73
12
 74
0
 42
0.0000001
 43
0.0000001
 44
0.0000000001
 40
0.0
 40
0.0
 40
0.0
 40
0.0
 40
0.0385207106
 40
0.0772695214
 40
0.1565677903
 40
0.2410789511
 40
0.3360202544
 40
0.4489269941
 40
0.5893782667
 40
0.7686941612
 40
1.0
 40
1.0
 40
1.0
 40
1.0
 10
81.9039799506
 20
146.6488752568
 30
0.0
 10
81.8665467141
 20
146.6958462763
 30
0.0
 10
81.7928852921
 20
146.7912012992
 30
0.0
 10
81.6387568635
 20
146.9805181061
 30
0.0
 10
81.4265150294
 20
147.2151477189
 30
0.0
 10
81.1163730524
 20
147.4758809442
 30
0.0
 10
80.7188963189
 20
147.7043507646
 30
0.0
 10
80.203667306
 20
147.8847520001
 30
0.0
 10
79.5366782464
 20
148.0013081974
 30
0.0
 10
78.6762055749
 20
148.035784299
 30
0.0
 10
78.0362252137
 20
147.9941686058
 30
0.0
 10
77.6774073924
 20
147.9577712496
 30
0.0
  0
SPLINE
  5
444
100
AcDbEntity
  8
AI0193_9
100
AcDbSpline
 62
9
  6
CONTINUOUS
 70
0
 71
3
 72
15
 73
11
 74
0
 42
0.0000001
 43
0.0000001
 44
0.0000000001
 40
0.0
 40
0.0
 40
0.0
 40
0.0
 40
0.2473298316
 40
0.3097509559
 40
0.3725476239
 40
0.4345939265
 40
0.4958890146
 40
0.6197131077
 40
0.7449623522
 40
1.0
 40
1.0
 40
1.0
 40
1.0
 10
78.8908582591
 20
145.4535840557
 30
0.0
 10
79.2429161251
 20
145.5940516137
 30
0.0
 10
79.6929248618
 20
145.7484475474
 30
0.0
 10
80.2430980678
 20
145.9010313202
 30
0.0
 10
80.5212263007
 20
145.9719516763
 30
0.0
 10
80.7997063894
 20
146.0340518399
 30
0.0
 10
81.171902239
 20
146.1046318485
 30
0.0
 10
81.6420175738
 20
146.178221373
 30
0.0
 10
82.4102984348
 20
146.2614775501
 30
0.0
 10
82.993651015
 20
146.2846886497
 30
0.0
 10
83.3845080258
 20
146.2835593261
 30
0.0
  0
SPLINE
  5
445
100
AcDbEntity
  8
AI0193_9
100
AcDbSpline
 62
9
  6
CONTINUOUS
 70
0
 71
3
 72
15
 73
11
 74
0
 42
0.0000001
 43
0.0000001
 44
0.0000000001
 40
0.0
 40
0.0
 40
0.0
 40
0.0
 40
0.1175537978
 40
0.238793901
 40
0.3632932394
 40
0.4902883173
 40
0.6187252533
 40
0.7473673575
 40
0.8748884929
 40
1.0
 40
1.0
 40
1.0
 40
1.0
 10
87.1931386324
 20
146.6488752496
 30
0.0
 10
88.6031196372
 20
146.5982342769
 30
0.0
 10
91.4631513954
 20
146.2431503404
 30
0.0
 10
95.6627849711
 20
145.0083511028
 30
0.0
 10
99.7254246267
 20
143.0941201198
 30
0.0
 10
103.5287840024
 20
140.5485786069
 30
0.0
 10
106.9541065004
 20
137.4388306798
 30
0.0
 10
109.8870903292
 20
133.8516942088
 30
0.0
 10
112.2230109724
 20
129.8965771534
 30
0.0
 10
113.3384974519
 20
127.0597828077
 30
0.0
 10
113.7671918758
 20
125.6206793654
 30
0.0
  0
SPLINE
  5
446
100
AcDbEntity
  8
AI0193_9
100
AcDbSpline
 62
9
  6
CONTINUOUS
 70
0
 71
3
 72
10
 73
6
 74
0
 42
0.0000001
 43
0.0000001
 44
0.0000000001
 40
0.0
 40
0.0
 40
0.0
 40
0.0
 40
0.1929283889
 40
0.5437809582
 40
1.0
 40
1.0
 40
1.0
 40
1.0
 10
45.7730233537
 20
132.5114052551
 30
0.0
 10
45.7764179467
 20
132.4997436289
 30
0.0
 10
45.7949486799
 20
132.4692970768
 30
0.0
 10
45.8516526629
 20
132.4372391283
 30
0.0
 10
45.9010874084
 20
132.4250595
 30
0.0
 10
45.9293736654
 20
132.4200817919
 30
0.0
  0
SPLINE
  5
447
100
AcDbEntity
  8
AI0193_9
100
AcDbSpline
 62
9
  6
CONTINUOUS
 70
0
 71
3
 72
22
 73
18
 74
0
 42
0.0000001
 43
0.0000001
 44
0.0000000001
 40
0.0
 40
0.0
 40
0.0
 40
0.0
 40
0.0144598822
 40
0.0287115537
 40
0.0566180495
 40
0.0837483634
 40
0.1101269031
 40
0.1607197617
 40
0.208576429
 40
0.2967654949
 40
0.3760047578
 40
0.5123537921
 40
0.6264239787
 40
0.7259663517
 40
0.8178090454
 40
0.9076697979
 40
1.0
 40
1.0
 40
1.0
 40
1.0
 10
77.2210291823
 20
146.6599677711
 30
0.0
 10
77.2437877088
 20
146.6647051819
 30
0.0
 10
77.2877428882
 20
146.6791982286
 30
0.0
 10
77.3757591938
 20
146.7022935879
 30
0.0
 10
77.4831616442
 20
146.7318923937
 30
0.0
 10
77.6097232888
 20
146.7652530024
 30
0.0
 10
77.7717323255
 20
146.8072343277
 30
0.0
 10
77.966450851
 20
146.8558075986
 30
0.0
 10
78.2584747095
 20
146.9247536578
 30
0.0
 10
78.5969064385
 20
146.9975290332
 30
0.0
 10
79.0774856086
 20
147.0846479367
 30
0.0
 10
79.6039691031
 20
147.1511921758
 30
0.0
 10
80.1676178308
 20
147.1650139526
 30
0.0
 10
80.6576250328
 20
147.1149110526
 30
0.0
 10
81.0980776541
 20
147.0069496347
 30
0.0
 10
81.5104210935
 20
146.8491515958
 30
0.0
 10
81.7724500723
 20
146.7176691472
 30
0.0
 10
81.9039800058
 20
146.648875228
 30
0.0
  0
SPLINE
  5
448
100
AcDbEntity
  8
AI0193_9
100
AcDbSpline
 62
7
  6
CONTINUOUS
 70
0
 71
3
 72
17
 73
13
 74
0
 42
0.0000001
 43
0.0000001
 44
0.0000000001
 40
0.0
 40
0.0
 40
0.0
 40
0.0
 40
0.0297074234
 40
0.065805647
 40
0.1084218651
 40
0.1573647514
 40
0.2724812895
 40
0.406522292
 40
0.5533759363
 40
0.7060964265
 40
0.8573769684
 40
1.0
 40
1.0
 40
1.0
 40
1.0
 10
127.993525125
 20
90.6734186891
 30
0.0
 10
127.9235994132
 20
90.5620426038
 30
0.0
 10
127.738526878
 20
90.334434752
 30
0.0
 10
127.3843102401
 20
90.0093119696
 30
0.0
 10
126.9306165111
 20
89.67105126
 30
0.0
 10
126.1569856349
 20
89.1814895527
 30
0.0
 10
124.9798077488
 20
88.5796304688
 30
0.0
 10
123.3598971936
 20
87.9065035485
 30
0.0
 10
121.5428308832
 20
87.28408822
 30
0.0
 10
119.620353668
 20
86.744257767
 30
0.0
 10
117.6895272717
 20
86.3146629575
 30
0.0
 10
116.4041765064
 20
86.1064322365
 30
0.0
 10
115.7776852462
 20
86.0281949364
 30
0.0
  0
SPLINE
  5
449
100
AcDbEntity
  8
AI0193_9
100
AcDbSpline
 62
7
  6
CONTINUOUS
 70
0
 71
3
 72
9
 73
5
 74
0
 42
0.0000001
 43
0.0000001
 44
0.0000000001
 40
0.0
 40
0.0
 40
0.0
 40
0.0
 40
0.527683595
 40
1.0
 40
1.0
 40
1.0
 40
1.0
 10
115.7258687062
 20
86.0217781878
 30
0.0
 10
115.3304814455
 20
85.9732298739
 30
0.0
 10
114.5788945433
 20
85.8987307034
 30
0.0
 10
113.823916321
 20
85.868235215
 30
0.0
 10
113.4673572294
 20
85.868235215
 30
0.0
  0
SPLINE
  5
44A
100
AcDbEntity
  8
AI0193_9
100
AcDbSpline
 62
9
  6
CONTINUOUS
 70
0
 71
3
 72
9
 73
5
 74
0
 42
0.0000001
 43
0.0000001
 44
0.0000000001
 40
0.0
 40
0.0
 40
0.0
 40
0.0
 40
0.2405895407
 40
1.0
 40
1.0
 40
1.0
 40
1.0
 10
77.2210275245
 20
146.6599680114
 30
0.0
 10
77.1595167408
 20
146.4716345337
 30
0.0
 10
76.9189431348
 20
145.6839321176
 30
0.0
 10
76.7368883233
 20
144.8787994469
 30
0.0
 10
76.6266230019
 20
144.2632277351
 30
0.0
  0
SPLINE
  5
44B
100
AcDbEntity
  8
AI0193_9
100
AcDbSpline
 62
7
  6
CONTINUOUS
 70
0
 71
3
 72
11
 73
7
 74
0
 42
0.0000001
 43
0.0000001
 44
0.0000000001
 40
0.0
 40
0.0
 40
0.0
 40
0.0
 40
0.314323431
 40
0.5866318483
 40
0.8149753797
 40
1.0
 40
1.0
 40
1.0
 40
1.0
 10
113.4673572294
 20
85.868235215
 30
0.0
 10
113.2202012221
 20
85.868235215
 30
0.0
 10
112.7587423364
 20
85.8812011077
 30
0.0
 10
112.1205081015
 20
85.9484953545
 30
0.0
 10
111.5922239719
 20
86.0609014024
 30
0.0
 10
111.2857517844
 20
86.1768836417
 30
0.0
 10
111.1577926025
 20
86.246114345
 30
0.0
  0
SPLINE
  5
44C
100
AcDbEntity
  8
AI0193_9
100
AcDbSpline
 62
7
  6
CONTINUOUS
 70
0
 71
3
 72
19
 73
15
 74
0
 42
0.0000001
 43
0.0000001
 44
0.0000000001
 40
0.0
 40
0.0
 40
0.0
 40
0.0
 40
0.057608266
 40
0.1211728067
 40
0.2620888344
 40
0.4137201262
 40
0.5660581687
 40
0.7090346239
 40
0.7740795387
 40
0.8334307778
 40
0.8862186218
 40
0.9317678707
 40
0.9696799529
 40
1.0
 40
1.0
 40
1.0
 40
1.0
 10
112.2398884821
 20
86.6629936369
 30
0.0
 10
112.5843156549
 20
86.6629936369
 30
0.0
 10
113.3088620813
 20
86.6877127077
 30
0.0
 10
114.8705408346
 20
86.8221375516
 30
0.0
 10
116.9773846615
 20
87.1457074499
 30
0.0
 10
119.5744947451
 20
87.7281792593
 30
0.0
 10
122.140813674
 20
88.4792275408
 30
0.0
 10
124.1655024107
 20
89.2224547456
 30
0.0
 10
125.6283960683
 20
89.8681505638
 30
0.0
 10
126.5757949737
 20
90.3433205983
 30
0.0
 10
127.3922275668
 20
90.8160595139
 30
0.0
 10
128.0645018989
 20
91.2783558288
 30
0.0
 10
128.5819038376
 20
91.7218320536
 30
0.0
 10
128.8486119732
 20
92.0354222328
 30
0.0
 10
128.9449895624
 20
92.1889561908
 30
0.0
  0
SPLINE
  5
44D
100
AcDbEntity
  8
AI0193_9
100
AcDbSpline
 62
9
  6
CONTINUOUS
 70
0
 71
3
 72
9
 73
5
 74
0
 42
0.0000001
 43
0.0000001
 44
0.0000000001
 40
0.0
 40
0.0
 40
0.0
 40
0.0
 40
0.5043815612
 40
1.0
 40
1.0
 40
1.0
 40
1.0
 10
47.8726499268
 20
127.5636961328
 30
0.0
 10
47.4702546631
 20
128.3467851443
 30
0.0
 10
46.7447310177
 20
129.9375085313
 30
0.0
 10
46.1710442934
 20
131.5893924857
 30
0.0
 10
45.9293736654
 20
132.4200817919
 30
0.0
  0
SPLINE
  5
44E
100
AcDbEntity
  8
AI0193_9
100
AcDbSpline
 62
9
  6
CONTINUOUS
 70
0
 71
3
 72
17
 73
13
 74
0
 42
0.0000001
 43
0.0000001
 44
0.0000000001
 40
0.0
 40
0.0
 40
0.0
 40
0.0
 40
0.1747787616
 40
0.3370578078
 40
0.4836966707
 40
0.6130086559
 40
0.7251116925
 40
0.8226224713
 40
0.8677312798
 40
0.911590838
 40
0.955309805
 40
1.0
 40
1.0
 40
1.0
 40
1.0
 10
45.8933530043
 20
132.5451032541
 30
0.0
 10
45.6868421518
 20
133.2689337055
 30
0.0
 10
45.3509238654
 20
134.6838611955
 30
0.0
 10
45.0797597121
 20
136.7533855352
 30
0.0
 10
45.0613633579
 20
138.6461313175
 30
0.0
 10
45.2947828951
 20
140.3089995469
 30
0.0
 10
45.7732449
 20
141.6997359214
 30
0.0
 10
46.393757026
 20
142.6262367657
 30
0.0
 10
46.9973171014
 20
143.1618261618
 30
0.0
 10
47.487995344
 20
143.4609490187
 30
0.0
 10
48.0233122796
 20
143.664468454
 30
0.0
 10
48.3999063783
 20
143.734244894
 30
0.0
 10
48.5913879502
 20
143.7536825348
 30
0.0
  0
SPLINE
  5
44F
100
AcDbEntity
  8
AI0193_9
100
AcDbSpline
 62
9
  6
CONTINUOUS
 70
0
 71
3
 72
11
 73
7
 74
0
 42
0.0000001
 43
0.0000001
 44
0.0000000001
 40
0.0
 40
0.0
 40
0.0
 40
0.0
 40
0.2447227185
 40
0.4916555386
 40
0.7428137063
 40
1.0
 40
1.0
 40
1.0
 40
1.0
 10
78.8504579105
 20
145.5516673492
 30
0.0
 10
79.2686409768
 20
145.7716070994
 30
0.0
 10
80.1378262504
 20
146.1605505215
 30
0.0
 10
81.5134868762
 20
146.5784313596
 30
0.0
 10
82.9534523649
 20
146.8292853859
 30
0.0
 10
83.9359439262
 20
146.8833625703
 30
0.0
 10
84.4325017303
 20
146.8834608099
 30
0.0
  0
SPLINE
  5
450
100
AcDbEntity
  8
AI0193_9
100
AcDbSpline
 62
9
  6
CONTINUOUS
 70
0
 71
3
 72
9
 73
5
 74
0
 42
0.0000001
 43
0.0000001
 44
0.0000000001
 40
0.0
 40
0.0
 40
0.0
 40
0.0
 40
0.4935605618
 40
1.0
 40
1.0
 40
1.0
 40
1.0
 10
79.8384907164
 20
146.0713147117
 30
0.0
 10
80.1524753349
 20
146.2364517117
 30
0.0
 10
80.8265519935
 20
146.5034180375
 30
0.0
 10
81.540899423
 20
146.6227405998
 30
0.0
 10
81.9039798535
 20
146.6488752494
 30
0.0
  0
SPLINE
  5
451
100
AcDbEntity
  8
AI0193_9
100
AcDbSpline
 62
9
  6
CONTINUOUS
 70
0
 71
3
 72
11
 73
7
 74
0
 42
0.0000001
 43
0.0000001
 44
0.0000000001
 40
0.0
 40
0.0
 40
0.0
 40
0.0
 40
0.2255502825
 40
0.4825315749
 40
0.7504026893
 40
1.0
 40
1.0
 40
1.0
 40
1.0
 10
49.0477034045
 20
145.0515104353
 30
0.0
 10
48.945425097
 20
145.0042274534
 30
0.0
 10
48.7469439491
 20
144.8541266769
 30
0.0
 10
48.556202288
 20
144.5203468093
 30
0.0
 10
48.4976439407
 20
144.1296171192
 30
0.0
 10
48.5477120909
 20
143.8704753102
 30
0.0
 10
48.5913879131
 20
143.753682531
 30
0.0
  0
SPLINE
  5
452
100
AcDbEntity
  8
AI0193_9
100
AcDbSpline
 62
9
  6
CONTINUOUS
 70
0
 71
3
 72
9
 73
5
 74
0
 42
0.0000001
 43
0.0000001
 44
0.0000000001
 40
0.0
 40
0.0
 40
0.0
 40
0.0
 40
0.4580475349
 40
1.0
 40
1.0
 40
1.0
 40
1.0
 10
103.1595557446
 20
100.7148788588
 30
0.0
 10
103.3703752612
 20
100.460745524
 30
0.0
 10
103.9187137711
 20
99.9789622972
 30
0.0
 10
104.5491905048
 20
99.622604543
 30
0.0
 10
104.901445649
 20
99.4536460195
 30
0.0
  0
SPLINE
  5
453
100
AcDbEntity
  8
AI0193_9
100
AcDbSpline
 62
9
  6
CONTINUOUS
 70
0
 71
3
 72
9
 73
5
 74
0
 42
0.0000001
 43
0.0000001
 44
0.0000000001
 40
0.0
 40
0.0
 40
0.0
 40
0.0
 40
0.5037261409
 40
1.0
 40
1.0
 40
1.0
 40
1.0
 10
104.1837079266
 20
101.1956805092
 30
0.0
 10
104.368032308
 20
100.9362805946
 30
0.0
 10
104.6702322546
 20
100.3738651957
 30
0.0
 10
104.8441968123
 20
99.7618865422
 30
0.0
 10
104.9014457749
 20
99.4536459591
 30
0.0
  0
SPLINE
  5
454
100
AcDbEntity
  8
AI0193_9
100
AcDbSpline
 62
9
  6
CONTINUOUS
 70
0
 71
3
 72
9
 73
5
 74
0
 42
0.0000001
 43
0.0000001
 44
0.0000000001
 40
0.0
 40
0.0
 40
0.0
 40
0.0
 40
0.5050987541
 40
1.0
 40
1.0
 40
1.0
 40
1.0
 10
49.0477034459
 20
145.0515104399
 30
0.0
 10
48.8213808681
 20
145.0263872631
 30
0.0
 10
48.3764992318
 20
144.937638607
 30
0.0
 10
47.9560899189
 20
144.7663518029
 30
0.0
 10
47.7584852988
 20
144.662752118
 30
0.0
  0
SPLINE
  5
455
100
AcDbEntity
  8
AI0193_9
100
AcDbSpline
 62
9
  6
CONTINUOUS
 70
0
 71
3
 72
9
 73
5
 74
0
 42
0.0000001
 43
0.0000001
 44
0.0000000001
 40
0.0
 40
0.0
 40
0.0
 40
0.0
 40
0.7509529715
 40
1.0
 40
1.0
 40
1.0
 40
1.0
 10
124.0189761842
 20
107.2531999853
 30
0.0
 10
124.0198179237
 20
106.8658270576
 30
0.0
 10
124.0777726312
 20
106.3486263837
 30
0.0
 10
124.1949233655
 20
105.8462902027
 30
0.0
 10
124.2275961534
 20
105.7220452174
 30
0.0
  0
SPLINE
  5
456
100
AcDbEntity
  8
AI0193_9
100
AcDbSpline
 62
9
  6
CONTINUOUS
 70
0
 71
3
 72
11
 73
7
 74
0
 42
0.0000001
 43
0.0000001
 44
0.0000000001
 40
0.0
 40
0.0
 40
0.0
 40
0.0
 40
0.2495922872
 40
0.5174616319
 40
0.774447443
 40
1.0
 40
1.0
 40
1.0
 40
1.0
 10
77.2210247183
 20
146.6599666879
 30
0.0
 10
77.1773496661
 20
146.7767568196
 30
0.0
 10
77.1272896317
 20
147.0358980398
 30
0.0
 10
77.1858762454
 20
147.426622559
 30
0.0
 10
77.3766407099
 20
147.7603896951
 30
0.0
 10
77.5751254958
 20
147.9104876721
 30
0.0
 10
77.6774046687
 20
147.9577709731
 30
0.0
  0
SPLINE
  5
457
100
AcDbEntity
  8
AI0193_9
100
AcDbSpline
 62
9
  6
CONTINUOUS
 70
0
 71
3
 72
15
 73
11
 74
0
 42
0.0000001
 43
0.0000001
 44
0.0000000001
 40
0.0
 40
0.0
 40
0.0
 40
0.0
 40
0.1360499798
 40
0.2682511866
 40
0.3964572439
 40
0.5209623775
 40
0.6424656954
 40
0.7619790259
 40
0.8807380226
 40
1.0
 40
1.0
 40
1.0
 40
1.0
 10
113.7990487604
 20
125.5128986335
 30
0.0
 10
114.1514889441
 20
124.311083752
 30
0.0
 10
114.6783236273
 20
121.8876032183
 30
0.0
 10
114.9030984084
 20
118.2304287746
 30
0.0
 10
114.5467097664
 20
114.6884417567
 30
0.0
 10
113.6198040805
 20
111.3523856237
 30
0.0
 10
112.1502631977
 20
108.3049274716
 30
0.0
 10
110.1806912363
 20
105.6186340135
 30
0.0
 10
107.7676709571
 20
103.354246306
 30
0.0
 10
105.91317242
 20
102.1615524552
 30
0.0
 10
104.941501468
 20
101.6504734233
 30
0.0
  0
ELLIPSE
  5
458
100
AcDbEntity
  8
CO830K-A1198_2
100
AcDbEllipse
 62
7
  6
CONTINUOUS
 10
366.0955643002
 20
104.203125
 30
0.0
 11
0.0
 21
23.2321682046
 31
0.0
 40
0.466389463
 41
3.2336527995
 42
6.1911251613
  0
ELLIPSE
  5
459
100
AcDbEntity
  8
CO830K-A1198_2
100
AcDbEllipse
 62
7
  6
CONTINUOUS
 10
366.2984958585
 20
104.203125
 30
0.0
 11
0.0
 21
24.0
 31
0.0
 40
0.4663076582
 41
-3.0706613731
 42
-0.0709312805
  0
ELLIPSE
  5
45A
100
AcDbEntity
  8
CO830K-A1198_2
100
AcDbEllipse
 62
7
  6
CONTINUOUS
 10
75.5524062645
 20
115.0053099788
 30
0.0
 11
20.2026548312
 21
-15.8953413771
 31
0.0
 40
0.4775155531
 41
7.3794261662
 42
9.2146933519
  0
ENDSEC
  0
SECTION
  2
OBJECTS
  0
DICTIONARY
  5
C
100
AcDbDictionary
280
0
281
1
  3
ACAD_GROUP
350
D
  3
ACAD_MLINESTYLE
350
17
  3
ACAD_LAYOUT
350
1A
  3
ACAD_PLOTSETTINGS
350
19
  3
ACAD_PLOTSTYLENAME
350
E
  0
DICTIONARY
  5
D
102
{ACAD_REACTORS
330
C
102
}
100
AcDbDictionary
280
0
281
1
  0
ACDBDICTIONARYWDFLT
  5
E
102
{ACAD_REACTORS
330
C
102
}
100
AcDbDictionary
281
1
  3
Normal
350
F
100
AcDbDictionaryWithDefault
340
F
  0
DICTIONARY
  5
17
102
{ACAD_REACTORS
330
C
102
}
100
AcDbDictionary
280
0
281
1
  3
Standard
350
18
  0
DICTIONARY
  5
19
102
{ACAD_REACTORS
330
C
102
}
100
AcDbDictionary
281
1
  0
DICTIONARY
  5
1A
102
{ACAD_REACTORS
330
C
102
}
100
AcDbDictionary
281
1
  3
Model
350
45B
  3
Layout1
350
45C
  0
ACDBPLACEHOLDER
  5
F
102
{ACAD_REACTORS
330
E
102
}
  0
MLINESTYLE
  5
18
102
{ACAD_REACTORS
330
17
102
}
100
AcDbMlineStyle
  2
STANDARD
 70
0
  3

 62
256
 51
90.0
 52
90.0
 71
2
 49
0.5
 62
256
  6
BYLAYER
 49
-0.5
 62
256
  6
BYLAYER
  0
LAYOUT
  5
45B
102
{ACAD_REACTORS
330
1A
102
}
100
AcDbPlotSettings
  1

  2
none_device
  4
ISO_A3_(420.00_x_297.00_MM)
  6

 40
0.0
 41
0.0
 42
0.0
 43
0.0
 44
420.0
 45
297.0
 46
0.0
 47
0.0
 48
0.0
 49
0.0
140
0.0
141
0.0
142
1.0
143
1.0
 70
1024
 72
1
 73
0
 74
0
  7

 75
0
147
1.0
148
0.0
149
0.0
100
AcDbLayout
  1
Model
 70
0
 71
0
 10
0.0
 20
0.0
 11
420.0
 21
297.0
 12
0.0
 22
0.0
 32
0.0
 14
0.0
 24
0.0
 34
0.0
 15
0.0
 25
0.0
 35
0.0
146
0.0
 13
0.0
 23
0.0
 33
0.0
 16
1.0
 26
0.0
 36
0.0
 17
0.0
 27
1.0
 37
0.0
 76
0
330
21B
345
0
346
0
  0
LAYOUT
  5
45C
102
{ACAD_REACTORS
330
1A
102
}
100
AcDbPlotSettings
  1

  2
none_device
  4
ISO_A3_(420.00_x_297.00_MM)
  6

 40
0.0
 41
0.0
 42
0.0
 43
0.0
 44
420.0
 45
297.0
 46
0.0
 47
0.0
 48
0.0
 49
0.0
140
0.0
141
0.0
142
1.0
143
1.0
 70
0
 72
1
 73
0
 74
0
  7

 75
0
147
1.0
148
0.0
149
0.0
100
AcDbLayout
  1
Layout1
 70
0
 71
1
 10
0.0
 20
0.0
 11
420.0
 21
297.0
 12
0.0
 22
0.0
 32
0.0
 14
0.0
 24
0.0
 34
0.0
 15
0.0
 25
0.0
 35
0.0
146
0.0
 13
0.0
 23
0.0
 33
0.0
 16
1.0
 26
0.0
 36
0.0
 17
0.0
 27
1.0
 37
0.0
 76
0
330
21C
345
0
346
0
  0
ENDSEC
  0
EOF
