  0
SECTION
  2
HEADER
  9
$ACADVER
  1
AC1009
  9
$INSBASE
 10
0.0
 20
0.0
 30
0.0
  9
$EXTMIN
 10
-1026.831239
 20
-802.502367
 30
-0.012893
  9
$EXTMAX
 10
1026.661239
 20
802.59853
 30
600.019156
  9
$LIMMIN
 10
-1026.831239
 20
-802.502367
  9
$LIMMAX
 10
1026.661239
 20
802.59853
  9
$ORTHOMODE
 70
     1
  9
$REGENMODE
 70
     1
  9
$FILLMODE
 70
     1
  9
$QTEXTMODE
 70
     0
  9
$MIRRTEXT
 70
     0
  9
$DRAGMODE
 70
     2
  9
$LTSCALE
 40
25.0
  9
$OSMODE
 70
     0
  9
$ATTMODE
 70
     1
  9
$TEXTSIZE
 40
200.0
  9
$TRACEWID
 40
1.0
  9
$TEXTSTYLE
  7
STANDARD
  9
$CLAYER
  8
TEAM-MAS
  9
$CELTYPE
  6
BYLAYER
  9
$CECOLOR
 62
   256
  9
$DIMSCALE
 40
0.0
  9
$DIMASZ
 40
20.0
  9
$DIMEXO
 40
10.0
  9
$DIMDLI
 40
1.0
  9
$DIMRND
 40
0.0
  9
$DIMDLE
 40
0.0
  9
$DIMEXE
 40
1.0
  9
$DIMTP
 40
0.0
  9
$DIMTM
 40
0.0
  9
$DIMTXT
 40
35.0
  9
$DIMCEN
 40
1.0
  9
$DIMTSZ
 40
0.0
  9
$DIMTOL
 70
     0
  9
$DIMLIM
 70
     0
  9
$DIMTIH
 70
     0
  9
$DIMTOH
 70
     0
  9
$DIMSE1
 70
     0
  9
$DIMSE2
 70
     0
  9
$DIMTAD
 70
     0
  9
$DIMZIN
 70
     0
  9
$DIMBLK
  1

  9
$DIMASO
 70
     1
  9
$DIMSHO
 70
     0
  9
$DIMPOST
  1

  9
$DIMAPOST
  1

  9
$DIMALT
 70
     0
  9
$DIMALTD
 70
     2
  9
$DIMALTF
 40
25.4
  9
$DIMLFAC
 40
1.0
  9
$DIMTOFL
 70
     0
  9
$DIMTVP
 40
0.0
  9
$DIMTIX
 70
     0
  9
$DIMSOXD
 70
     0
  9
$DIMSAH
 70
     0
  9
$DIMBLK1
  1

  9
$DIMBLK2
  1

  9
$DIMSTYLE
  2
TEAM
  9
$DIMCLRD
 70
     9
  9
$DIMCLRE
 70
     9
  9
$DIMCLRT
 70
    11
  9
$DIMTFAC
 40
1.0
  9
$DIMGAP
 40
15.0
  9
$LUNITS
 70
     2
  9
$LUPREC
 70
     1
  9
$SKETCHINC
 40
1.0
  9
$FILLETRAD
 40
50.0
  9
$AUNITS
 70
     0
  9
$AUPREC
 70
     0
  9
$MENU
  1
ROPLANS
  9
$ELEVATION
 40
0.0
  9
$PELEVATION
 40
0.0
  9
$THICKNESS
 40
0.0
  9
$LIMCHECK
 70
     0
  9
$BLIPMODE
 70
     1
  9
$CHAMFERA
 40
0.0
  9
$CHAMFERB
 40
0.0
  9
$SKPOLY
 70
     0
  9
$TDCREATE
 40
2450392.957851
  9
$TDUPDATE
 40
2455493.945579
  9
$TDINDWG
 40
1.992456
  9
$TDUSRTIMER
 40
1.992456
  9
$USRTIMER
 70
     1
  9
$ANGBASE
 50
0.0
  9
$ANGDIR
 70
     0
  9
$PDMODE
 70
     0
  9
$PDSIZE
 40
0.0
  9
$PLINEWID
 40
0.0
  9
$COORDS
 70
     2
  9
$SPLFRAME
 70
     0
  9
$SPLINETYPE
 70
     6
  9
$SPLINESEGS
 70
     8
  9
$ATTDIA
 70
     0
  9
$ATTREQ
 70
     0
  9
$HANDLING
 70
     1
  9
$HANDSEED
  5
166B
  9
$SURFTAB1
 70
    24
  9
$SURFTAB2
 70
    24
  9
$SURFTYPE
 70
     6
  9
$SURFU
 70
     6
  9
$SURFV
 70
     6
  9
$UCSNAME
  2

  9
$UCSORG
 10
0.0
 20
0.0
 30
0.0
  9
$UCSXDIR
 10
1.0
 20
0.0
 30
0.0
  9
$UCSYDIR
 10
0.0
 20
1.0
 30
0.0
  9
$PUCSNAME
  2

  9
$PUCSORG
 10
0.0
 20
0.0
 30
0.0
  9
$PUCSXDIR
 10
1.0
 20
0.0
 30
0.0
  9
$PUCSYDIR
 10
0.0
 20
1.0
 30
0.0
  9
$USERI1
 70
     0
  9
$USERI2
 70
     0
  9
$USERI3
 70
     0
  9
$USERI4
 70
     0
  9
$USERI5
 70
     0
  9
$USERR1
 40
0.0
  9
$USERR2
 40
0.0
  9
$USERR3
 40
0.0
  9
$USERR4
 40
0.0
  9
$USERR5
 40
0.0
  9
$WORLDVIEW
 70
     1
  9
$SHADEDGE
 70
     0
  9
$SHADEDIF
 70
    70
  9
$TILEMODE
 70
     1
  9
$MAXACTVP
 70
    16
  9
$PLIMCHECK
 70
     0
  9
$PEXTMIN
 10
-0.805942
 20
0.005011
 30
0.0
  9
$PEXTMAX
 10
20.250094
 20
11.356329
 30
0.0
  9
$PLIMMIN
 10
0.0
 20
0.0
  9
$PLIMMAX
 10
12.0
 20
9.0
  9
$UNITMODE
 70
     0
  9
$VISRETAIN
 70
     0
  9
$PLINEGEN
 70
     0
  9
$PSLTSCALE
 70
     0
  0
ENDSEC
  0
SECTION
  2
TABLES
  0
TABLE
  2
VPORT
 70
     2
  0
VPORT
  2
*ACTIVE
 70
     0
 10
0.0
 20
0.0
 11
1.0
 21
1.0
 12
-0.085
 22
0.048081
 13
0.0
 23
0.0
 14
1.0
 24
1.0
 15
50.0
 25
50.0
 16
0.0
 26
0.0
 36
1.0
 17
0.0
 27
0.0
 37
0.0
 40
1614.958221
 41
1.865779
 42
50.0
 43
0.0
 44
0.0
 50
0.0
 51
0.0
 71
     0
 72
   100
 73
     1
 74
     1
 75
     0
 76
     0
 77
     0
 78
     0
  0
ENDTAB
  0
TABLE
  2
LTYPE
 70
     1
  0
LTYPE
  2
CONTINUOUS
 70
     0
  3
Solid Line
 72
    65
 73
     0
 40
0.0
  0
ENDTAB
  0
TABLE
  2
LAYER
 70
     7
  0
LAYER
  2
0
 70
     0
 62
     7
  6
CONTINUOUS
  0
LAYER
  2
TEAM-NET1
 70
     0
 62
    12
  6
CONTINUOUS
  0
LAYER
  2
TEAM-BODY
 70
     0
 62
     2
  6
CONTINUOUS
  0
LAYER
  2
TEAM-MAS
 70
     0
 62
     9
  6
CONTINUOUS
  0
LAYER
  2
TEAM-TXT
 70
     0
 62
    11
  6
CONTINUOUS
  0
LAYER
  2
TEAM-DET1
 70
     0
 62
     4
  6
CONTINUOUS
  0
LAYER
  2
TEAM-INSP
 70
     0
 62
     5
  6
CONTINUOUS
  0
ENDTAB
  0
TABLE
  2
STYLE
 70
     2
  0
STYLE
  2
STANDARD
 70
     0
 40
0.0
 41
1.0
 50
0.0
 71
     0
 42
200.0
  3
txt
  4

  0
STYLE
  2
TEAM
 70
     0
 40
0.0
 41
0.8
 50
15.0
 71
     0
 42
7.0
  3
ROMANS.shx
  4

  0
ENDTAB
  0
TABLE
  2
VIEW
 70
     0
  0
ENDTAB
  0
TABLE
  2
UCS
 70
     0
  0
ENDTAB
  0
TABLE
  2
APPID
 70
     1
  0
APPID
  2
ACAD
 70
     0
  0
ENDTAB
  0
TABLE
  2
DIMSTYLE
 70
     1
  0
DIMSTYLE
  2
TEAM
 70
     0
  3

  4

  5

  6

  7

 40
0.0
 41
20.0
 42
10.0
 43
1.0
 44
1.0
 45
0.0
 46
0.0
 47
0.0
 48
0.0
140
35.0
141
1.0
142
0.0
143
25.4
144
1.0
145
0.0
146
1.0
147
15.0
 71
     0
 72
     0
 73
     0
 74
     0
 75
     0
 76
     0
 77
     0
 78
     0
170
     0
171
     2
172
     0
173
     0
174
     0
175
     0
176
     9
177
     9
178
    11
  0
ENDTAB
  0
ENDSEC
  0
SECTION
  2
BLOCKS
  0
BLOCK
  8
0
  2
$MODEL_SPACE
 70
     0
 10
0.0
 20
0.0
 30
0.0
  3
$MODEL_SPACE
  1

  0
ENDBLK
  5
14BE
  8
0
  0
BLOCK
 67
     1
  8
0
  2
$PAPER_SPACE
 70
     0
 10
0.0
 20
0.0
 30
0.0
  3
$PAPER_SPACE
  1

  0
ENDBLK
  5
14BC
 67
     1
  8
0
  0
ENDSEC
  0
SECTION
  2
ENTITIES
  0
LINE
  5
20
  8
TEAM-BODY
 10
0.306782
 20
-693.46139
 30
290.672708
 11
0.097359
 21
-715.830682
 31
494.000048
  0
POLYLINE
  5
22
  8
TEAM-NET1
 66
     1
 10
0.0
 20
0.0
 30
0.0
 70
    16
 71
    16
 72
     7
  0
VERTEX
  5
23
  8
TEAM-NET1
 10
-176.930797
 20
-683.140443
 30
296.051214
 70
    64
  0
VERTEX
  5
24
  8
TEAM-NET1
 10
-147.605412
 20
-687.453493
 30
295.151275
 70
    64
  0
VERTEX
  5
25
  8
TEAM-NET1
 10
-118.148843
 20
-690.751882
 30
294.252571
 70
    64
  0
VERTEX
  5
26
  8
TEAM-NET1
 10
-88.589986
 20
-692.949587
 30
293.355157
 70
    64
  0
VERTEX
  5
27
  8
TEAM-NET1
 10
-58.968633
 20
-694.021853
 30
292.459361
 70
    64
  0
VERTEX
  5
28
  8
TEAM-NET1
 10
-29.327494
 20
-694.128785
 30
291.565332
 70
    64
  0
VERTEX
  5
29
  8
TEAM-NET1
 10
0.306782
 20
-693.46139
 30
290.672708
 70
    64
  0
VERTEX
  5
2A
  8
TEAM-NET1
 10
-166.858911
 20
-685.490653
 30
310.980578
 70
    64
  0
VERTEX
  5
2B
  8
TEAM-NET1
 10
-138.50025
 20
-689.688711
 30
309.92436
 70
    64
  0
VERTEX
  5
2C
  8
TEAM-NET1
 10
-110.896876
 20
-692.808608
 30
308.75157
 70
    64
  0
VERTEX
  5
2D
  8
TEAM-NET1
 10
-83.626241
 20
-694.804398
 30
307.529424
 70
    64
  0
VERTEX
  5
2E
  8
TEAM-NET1
 10
-56.277889
 20
-695.69059
 30
306.324688
 70
    64
  0
VERTEX
  5
2F
  8
TEAM-NET1
 10
-28.44536
 20
-695.664188
 30
305.202924
 70
    64
  0
VERTEX
  5
30
  8
TEAM-NET1
 10
0.29282
 20
-694.952677
 30
304.227864
 70
    64
  0
VERTEX
  5
31
  8
TEAM-NET1
 10
-156.787026
 20
-687.840862
 30
325.909943
 70
    64
  0
VERTEX
  5
32
  8
TEAM-NET1
 10
-129.793475
 20
-691.830751
 30
324.598608
 70
    64
  0
VERTEX
  5
33
  8
TEAM-NET1
 10
-104.016896
 20
-694.736907
 30
323.116175
 70
    64
  0
VERTEX
  5
34
  8
TEAM-NET1
 10
-78.780796
 20
-696.539601
 30
321.580352
 70
    64
  0
VERTEX
  5
35
  8
TEAM-NET1
 10
-53.42415
 20
-697.277277
 30
320.10638
 70
    64
  0
VERTEX
  5
36
  8
TEAM-NET1
 10
-27.292957
 20
-697.164206
 30
318.805404
 70
    64
  0
VERTEX
  5
37
  8
TEAM-NET1
 10
0.278859
 20
-696.443963
 30
317.78302
 70
    64
  0
VERTEX
  5
38
  8
TEAM-NET1
 10
-146.715141
 20
-690.191072
 30
340.839308
 70
    64
  0
VERTEX
  5
39
  8
TEAM-NET1
 10
-121.423797
 20
-693.893947
 30
339.189224
 70
    64
  0
VERTEX
  5
3A
  8
TEAM-NET1
 10
-97.451674
 20
-696.556538
 30
337.367063
 70
    64
  0
VERTEX
  5
3B
  8
TEAM-NET1
 10
-74.035452
 20
-698.173599
 30
335.526918
 70
    64
  0
VERTEX
  5
3C
  8
TEAM-NET1
 10
-50.432492
 20
-698.794536
 30
333.817305
 70
    64
  0
VERTEX
  5
3D
  8
TEAM-NET1
 10
-25.911864
 20
-698.634284
 30
332.378173
 70
    64
  0
VERTEX
  5
3E
  8
TEAM-NET1
 10
0.264897
 20
-697.935249
 30
331.338176
 70
    64
  0
VERTEX
  5
3F
  8
TEAM-NET1
 10
-136.643256
 20
-692.541281
 30
355.768672
 70
    64
  0
VERTEX
  5
40
  8
TEAM-NET1
 10
-113.329925
 20
-695.892636
 30
353.711416
 70
    64
  0
VERTEX
  5
41
  8
TEAM-NET1
 10
-91.143982
 20
-698.287258
 30
351.524908
 70
    64
  0
VERTEX
  5
42
  8
TEAM-NET1
 10
-69.372009
 20
-699.724791
 30
349.388097
 70
    64
  0
VERTEX
  5
43
  8
TEAM-NET1
 10
-47.327991
 20
-700.254992
 30
347.47033
 70
    64
  0
VERTEX
  5
44
  8
TEAM-NET1
 10
-24.343662
 20
-700.079865
 30
345.926633
 70
    64
  0
VERTEX
  5
45
  8
TEAM-NET1
 10
0.250936
 20
-699.426535
 30
344.893332
 70
    64
  0
VERTEX
  5
46
  8
TEAM-NET1
 10
-126.57137
 20
-694.891491
 30
370.698037
 70
    64
  0
VERTEX
  5
47
  8
TEAM-NET1
 10
-105.450569
 20
-697.841153
 30
368.180387
 70
    64
  0
VERTEX
  5
48
  8
TEAM-NET1
 10
-85.036589
 20
-699.948824
 30
365.610388
 70
    64
  0
VERTEX
  5
49
  8
TEAM-NET1
 10
-64.772266
 20
-701.21158
 30
363.182862
 70
    64
  0
VERTEX
  5
4A
  8
TEAM-NET1
 10
-44.135723
 20
-701.671267
 30
361.078321
 70
    64
  0
VERTEX
  5
4B
  8
TEAM-NET1
 10
-22.629929
 20
-701.506393
 30
359.456186
 70
    64
  0
VERTEX
  5
4C
  8
TEAM-NET1
 10
0.236974
 20
-700.917821
 30
358.448488
 70
    64
  0
VERTEX
  5
4D
  8
TEAM-NET1
 10
-116.499485
 20
-697.2417
 30
385.627402
 70
    64
  0
VERTEX
  5
4E
  8
TEAM-NET1
 10
-97.724439
 20
-699.753831
 30
382.611345
 70
    64
  0
VERTEX
  5
4F
  8
TEAM-NET1
 10
-79.072269
 20
-701.560996
 30
379.644177
 70
    64
  0
VERTEX
  5
50
  8
TEAM-NET1
 10
-60.218022
 20
-702.652367
 30
376.930191
 70
    64
  0
VERTEX
  5
51
  8
TEAM-NET1
 10
-40.880764
 20
-703.055985
 30
374.654145
 70
    64
  0
VERTEX
  5
52
  8
TEAM-NET1
 10
-20.812246
 20
-702.919312
 30
372.972234
 70
    64
  0
VERTEX
  5
53
  8
TEAM-NET1
 10
0.223013
 20
-702.409107
 30
372.003644
 70
    64
  0
VERTEX
  5
54
  8
TEAM-NET1
 10
-106.4276
 20
-699.59191
 30
400.556766
 70
    64
  0
VERTEX
  5
55
  8
TEAM-NET1
 10
-90.090244
 20
-701.645007
 30
397.019494
 70
    64
  0
VERTEX
  5
56
  8
TEAM-NET1
 10
-73.193792
 20
-703.143531
 30
393.646953
 70
    64
  0
VERTEX
  5
57
  8
TEAM-NET1
 10
-55.691079
 20
-704.065551
 30
390.649056
 70
    64
  0
VERTEX
  5
58
  8
TEAM-NET1
 10
-37.588192
 20
-704.421767
 30
388.210668
 70
    64
  0
VERTEX
  5
59
  8
TEAM-NET1
 10
-18.932193
 20
-704.324064
 30
386.48018
 70
    64
  0
VERTEX
  5
5A
  8
TEAM-NET1
 10
0.209051
 20
-703.900393
 30
385.5588
 70
    64
  0
VERTEX
  5
5B
  8
TEAM-NET1
 10
-96.355714
 20
-701.942119
 30
415.486131
 70
    64
  0
VERTEX
  5
5C
  8
TEAM-NET1
 10
-82.486694
 20
-703.529015
 30
411.42004
 70
    64
  0
VERTEX
  5
5D
  8
TEAM-NET1
 10
-67.343929
 20
-704.716187
 30
407.63939
 70
    64
  0
VERTEX
  5
5E
  8
TEAM-NET1
 10
-51.173236
 20
-705.469535
 30
404.358434
 70
    64
  0
VERTEX
  5
5F
  8
TEAM-NET1
 10
-34.283081
 20
-705.781238
 30
401.760759
 70
    64
  0
VERTEX
  5
60
  8
TEAM-NET1
 10
-17.031351
 20
-705.726095
 30
399.985424
 70
    64
  0
VERTEX
  5
61
  8
TEAM-NET1
 10
0.195089
 20
-705.391679
 30
399.113956
 70
    64
  0
VERTEX
  5
62
  8
TEAM-NET1
 10
-86.283829
 20
-704.292329
 30
430.415496
 70
    64
  0
VERTEX
  5
63
  8
TEAM-NET1
 10
-74.8525
 20
-705.420191
 30
425.828189
 70
    64
  0
VERTEX
  5
64
  8
TEAM-NET1
 10
-61.465451
 20
-706.298722
 30
421.642166
 70
    64
  0
VERTEX
  5
65
  8
TEAM-NET1
 10
-46.646293
 20
-706.88272
 30
418.0773
 70
    64
  0
VERTEX
  5
66
  8
TEAM-NET1
 10
-30.990508
 20
-707.147021
 30
415.317283
 70
    64
  0
VERTEX
  5
67
  8
TEAM-NET1
 10
-15.151298
 20
-707.130848
 30
413.49337
 70
    64
  0
VERTEX
  5
68
  8
TEAM-NET1
 10
0.181128
 20
-706.882965
 30
412.669112
 70
    64
  0
VERTEX
  5
69
  8
TEAM-NET1
 10
-76.211944
 20
-706.642538
 30
445.34486
 70
    64
  0
VERTEX
  5
6A
  8
TEAM-NET1
 10
-67.12637
 20
-707.332869
 30
440.259147
 70
    64
  0
VERTEX
  5
6B
  8
TEAM-NET1
 10
-55.501131
 20
-707.910893
 30
435.675955
 70
    64
  0
VERTEX
  5
6C
  8
TEAM-NET1
 10
-42.09205
 20
-708.323506
 30
431.824628
 70
    64
  0
VERTEX
  5
6D
  8
TEAM-NET1
 10
-27.73555
 20
-708.531738
 30
428.893107
 70
    64
  0
VERTEX
  5
6E
  8
TEAM-NET1
 10
-13.333615
 20
-708.543766
 30
427.009418
 70
    64
  0
VERTEX
  5
6F
  8
TEAM-NET1
 10
0.167166
 20
-708.374251
 30
426.224268
 70
    64
  0
VERTEX
  5
70
  8
TEAM-NET1
 10
-66.140059
 20
-708.992747
 30
460.274225
 70
    64
  0
VERTEX
  5
71
  8
TEAM-NET1
 10
-59.247014
 20
-709.281385
 30
454.728118
 70
    64
  0
VERTEX
  5
72
  8
TEAM-NET1
 10
-49.393739
 20
-709.57246
 30
449.761435
 70
    64
  0
VERTEX
  5
73
  8
TEAM-NET1
 10
-37.492307
 20
-709.810295
 30
445.619394
 70
    64
  0
VERTEX
  5
74
  8
TEAM-NET1
 10
-24.543282
 20
-709.948013
 30
442.501098
 70
    64
  0
VERTEX
  5
75
  8
TEAM-NET1
 10
-11.619883
 20
-709.970294
 30
440.538972
 70
    64
  0
VERTEX
  5
76
  8
TEAM-NET1
 10
0.153205
 20
-709.865537
 30
439.779424
 70
    64
  0
VERTEX
  5
77
  8
TEAM-NET1
 10
-56.068173
 20
-711.342957
 30
475.20359
 70
    64
  0
VERTEX
  5
78
  8
TEAM-NET1
 10
-51.153142
 20
-711.280074
 30
469.250309
 70
    64
  0
VERTEX
  5
79
  8
TEAM-NET1
 10
-43.086046
 20
-711.30318
 30
463.91928
 70
    64
  0
VERTEX
  5
7A
  8
TEAM-NET1
 10
-32.828863
 20
-711.361488
 30
459.480572
 70
    64
  0
VERTEX
  5
7B
  8
TEAM-NET1
 10
-21.438781
 20
-711.408469
 30
456.154122
 70
    64
  0
VERTEX
  5
7C
  8
TEAM-NET1
 10
-10.05168
 20
-711.415875
 30
454.087432
 70
    64
  0
VERTEX
  5
7D
  8
TEAM-NET1
 10
0.139243
 20
-711.356823
 30
453.33458
 70
    64
  0
VERTEX
  5
7E
  8
TEAM-NET1
 10
-45.996288
 20
-713.693166
 30
490.132954
 70
    64
  0
VERTEX
  5
7F
  8
TEAM-NET1
 10
-42.783464
 20
-713.343271
 30
483.840926
 70
    64
  0
VERTEX
  5
80
  8
TEAM-NET1
 10
-36.520824
 20
-713.12281
 30
478.170167
 70
    64
  0
VERTEX
  5
81
  8
TEAM-NET1
 10
-28.083519
 20
-712.995485
 30
473.427138
 70
    64
  0
VERTEX
  5
82
  8
TEAM-NET1
 10
-18.447123
 20
-712.925729
 30
469.865047
 70
    64
  0
VERTEX
  5
83
  8
TEAM-NET1
 10
-8.670587
 20
-712.885953
 30
467.660201
 70
    64
  0
VERTEX
  5
84
  8
TEAM-NET1
 10
0.125282
 20
-712.848109
 30
466.889736
 70
    64
  0
VERTEX
  5
85
  8
TEAM-NET1
 10
-35.924403
 20
-716.043376
 30
505.062319
 70
    64
  0
VERTEX
  5
86
  8
TEAM-NET1
 10
-34.076689
 20
-715.485311
 30
498.515174
 70
    64
  0
VERTEX
  5
87
  8
TEAM-NET1
 10
-29.640844
 20
-715.05111
 30
492.534773
 70
    64
  0
VERTEX
  5
88
  8
TEAM-NET1
 10
-23.238075
 20
-714.730689
 30
487.478067
 70
    64
  0
VERTEX
  5
89
  8
TEAM-NET1
 10
-15.593384
 20
-714.512415
 30
483.64674
 70
    64
  0
VERTEX
  5
8A
  8
TEAM-NET1
 10
-7.518184
 20
-714.385972
 30
481.26268
 70
    64
  0
VERTEX
  5
8B
  8
TEAM-NET1
 10
0.11132
 20
-714.339395
 30
480.444892
 70
    64
  0
VERTEX
  5
8C
  8
TEAM-NET1
 10
-25.852517
 20
-718.393585
 30
519.991684
 70
    64
  0
VERTEX
  5
8D
  8
TEAM-NET1
 10
-24.971527
 20
-717.720529
 30
513.288259
 70
    64
  0
VERTEX
  5
8E
  8
TEAM-NET1
 10
-22.388878
 20
-717.107836
 30
507.033772
 70
    64
  0
VERTEX
  5
8F
  8
TEAM-NET1
 10
-18.27433
 20
-716.585499
 30
501.652333
 70
    64
  0
VERTEX
  5
90
  8
TEAM-NET1
 10
-12.90264
 20
-716.181153
 30
497.512066
 70
    64
  0
VERTEX
  5
91
  8
TEAM-NET1
 10
-6.636051
 20
-715.921375
 30
494.900273
 70
    64
  0
VERTEX
  5
92
  8
TEAM-NET1
 10
0.097359
 20
-715.830682
 30
494.000048
 70
    64
  0
SEQEND
  5
94
  8
TEAM-NET1
  0
POLYLINE
  5
95
  8
TEAM-NET1
 66
     1
 10
0.0
 20
0.0
 30
0.0
 70
    16
 71
    16
 72
     7
  0
VERTEX
  5
96
  8
TEAM-NET1
 10
-176.930797
 20
-683.140443
 30
296.051214
 70
    64
  0
VERTEX
  5
97
  8
TEAM-NET1
 10
-151.751084
 20
-689.015967
 30
333.374625
 70
    64
  0
VERTEX
  5
98
  8
TEAM-NET1
 10
-126.57137
 20
-694.891491
 30
370.698037
 70
    64
  0
VERTEX
  5
99
  8
TEAM-NET1
 10
-101.391657
 20
-700.767014
 30
408.021449
 70
    64
  0
VERTEX
  5
9A
  8
TEAM-NET1
 10
-76.211944
 20
-706.642538
 30
445.34486
 70
    64
  0
VERTEX
  5
9B
  8
TEAM-NET1
 10
-51.032231
 20
-712.518062
 30
482.668272
 70
    64
  0
VERTEX
  5
9C
  8
TEAM-NET1
 10
-25.852517
 20
-718.393585
 30
519.991684
 70
    64
  0
VERTEX
  5
9D
  8
TEAM-NET1
 10
-180.11711
 20
-682.612935
 30
296.149349
 70
    64
  0
VERTEX
  5
9E
  8
TEAM-NET1
 10
-155.540642
 20
-688.495702
 30
333.953241
 70
    64
  0
VERTEX
  5
9F
  8
TEAM-NET1
 10
-131.554432
 20
-694.382601
 30
372.227707
 70
    64
  0
VERTEX
  5
A0
  8
TEAM-NET1
 10
-107.863352
 20
-700.271565
 30
410.73746
 70
    64
  0
VERTEX
  5
A1
  8
TEAM-NET1
 10
-84.172272
 20
-706.160529
 30
449.247213
 70
    64
  0
VERTEX
  5
A2
  8
TEAM-NET1
 10
-60.186062
 20
-712.047427
 30
487.521679
 70
    64
  0
VERTEX
  5
A3
  8
TEAM-NET1
 10
-35.609593
 20
-717.930195
 30
525.325571
 70
    64
  0
VERTEX
  5
A4
  8
TEAM-NET1
 10
-183.301602
 20
-682.074536
 30
296.247502
 70
    64
  0
VERTEX
  5
A5
  8
TEAM-NET1
 10
-159.539877
 20
-687.969878
 30
334.69993
 70
    64
  0
VERTEX
  5
A6
  8
TEAM-NET1
 10
-136.705236
 20
-693.869264
 30
373.891836
 70
    64
  0
VERTEX
  5
A7
  8
TEAM-NET1
 10
-114.334135
 20
-699.77067
 30
413.453481
 70
    64
  0
VERTEX
  5
A8
  8
TEAM-NET1
 10
-91.963035
 20
-705.672077
 30
453.015126
 70
    64
  0
VERTEX
  5
A9
  8
TEAM-NET1
 10
-69.128393
 20
-711.571462
 30
492.207031
 70
    64
  0
VERTEX
  5
AA
  8
TEAM-NET1
 10
-45.366669
 20
-717.466804
 30
530.659459
 70
    64
  0
VERTEX
  5
AB
  8
TEAM-NET1
 10
-186.484237
 20
-681.525279
 30
296.345673
 70
    64
  0
VERTEX
  5
AC
  8
TEAM-NET1
 10
-163.716242
 20
-687.437829
 30
335.588838
 70
    64
  0
VERTEX
  5
AD
  8
TEAM-NET1
 10
-141.997742
 20
-693.350946
 30
375.669739
 70
    64
  0
VERTEX
  5
AE
  8
TEAM-NET1
 10
-120.803991
 20
-699.264346
 30
416.16951
 70
    64
  0
VERTEX
  5
AF
  8
TEAM-NET1
 10
-99.61024
 20
-705.177747
 30
456.669281
 70
    64
  0
VERTEX
  5
B0
  8
TEAM-NET1
 10
-77.891741
 20
-711.090864
 30
496.750183
 70
    64
  0
VERTEX
  5
B1
  8
TEAM-NET1
 10
-55.123745
 20
-717.003414
 30
535.993347
 70
    64
  0
VERTEX
  5
B2
  8
TEAM-NET1
 10
-189.664985
 20
-680.965193
 30
296.443863
 70
    64
  0
VERTEX
  5
B3
  8
TEAM-NET1
 10
-168.037187
 20
-686.898886
 30
336.594109
 70
    64
  0
VERTEX
  5
B4
  8
TEAM-NET1
 10
-147.405913
 20
-692.827113
 30
377.540735
 70
    64
  0
VERTEX
  5
B5
  8
TEAM-NET1
 10
-127.272903
 20
-698.752608
 30
418.885549
 70
    64
  0
VERTEX
  5
B6
  8
TEAM-NET1
 10
-107.139892
 20
-704.678103
 30
460.230363
 70
    64
  0
VERTEX
  5
B7
  8
TEAM-NET1
 10
-86.508618
 20
-710.606331
 30
501.176988
 70
    64
  0
VERTEX
  5
B8
  8
TEAM-NET1
 10
-64.88082
 20
-716.540023
 30
541.327235
 70
    64
  0
VERTEX
  5
B9
  8
TEAM-NET1
 10
-192.843811
 20
-680.394306
 30
296.542072
 70
    64
  0
VERTEX
  5
BA
  8
TEAM-NET1
 10
-172.470165
 20
-686.352378
 30
337.689891
 70
    64
  0
VERTEX
  5
BB
  8
TEAM-NET1
 10
-152.903711
 20
-692.297229
 30
379.484137
 70
    64
  0
VERTEX
  5
BC
  8
TEAM-NET1
 10
-133.740853
 20
-698.23547
 30
421.601597
 70
    64
  0
VERTEX
  5
BD
  8
TEAM-NET1
 10
-114.577996
 20
-704.17371
 30
463.719057
 70
    64
  0
VERTEX
  5
BE
  8
TEAM-NET1
 10
-95.011542
 20
-710.118562
 30
505.513303
 70
    64
  0
VERTEX
  5
BF
  8
TEAM-NET1
 10
-74.637896
 20
-716.076633
 30
546.661122
 70
    64
  0
VERTEX
  5
C0
  8
TEAM-NET1
 10
-196.020683
 20
-679.812647
 30
296.6403
 70
    64
  0
VERTEX
  5
C1
  8
TEAM-NET1
 10
-176.982627
 20
-685.797635
 30
338.850328
 70
    64
  0
VERTEX
  5
C2
  8
TEAM-NET1
 10
-158.465096
 20
-691.760757
 30
381.479264
 70
    64
  0
VERTEX
  5
C3
  8
TEAM-NET1
 10
-140.207827
 20
-697.712945
 30
424.317655
 70
    64
  0
VERTEX
  5
C4
  8
TEAM-NET1
 10
-121.950559
 20
-703.665133
 30
467.156046
 70
    64
  0
VERTEX
  5
C5
  8
TEAM-NET1
 10
-103.433028
 20
-709.628254
 30
509.784982
 70
    64
  0
VERTEX
  5
C6
  8
TEAM-NET1
 10
-84.394972
 20
-715.613242
 30
551.99501
 70
    64
  0
VERTEX
  5
C7
  8
TEAM-NET1
 10
-199.195566
 20
-679.220234
 30
296.738548
 70
    64
  0
VERTEX
  5
C8
  8
TEAM-NET1
 10
-181.542025
 20
-685.23398
 30
340.049565
 70
    64
  0
VERTEX
  5
C9
  8
TEAM-NET1
 10
-164.06403
 20
-691.217154
 30
383.505432
 70
    64
  0
VERTEX
  5
CA
  8
TEAM-NET1
 10
-146.673807
 20
-697.185043
 30
427.033723
 70
    64
  0
VERTEX
  5
CB
  8
TEAM-NET1
 10
-129.283584
 20
-703.152932
 30
470.562014
 70
    64
  0
VERTEX
  5
CC
  8
TEAM-NET1
 10
-111.805589
 20
-709.136106
 30
514.01788
 70
    64
  0
VERTEX
  5
CD
  8
TEAM-NET1
 10
-94.152048
 20
-715.149852
 30
557.328898
 70
    64
  0
VERTEX
  5
CE
  8
TEAM-NET1
 10
-202.368375
 20
-678.61681
 30
296.836816
 70
    64
  0
VERTEX
  5
CF
  8
TEAM-NET1
 10
-186.11576
 20
-684.660477
 30
341.261749
 70
    64
  0
VERTEX
  5
D0
  8
TEAM-NET1
 10
-169.674433
 20
-690.665674
 30
385.541956
 70
    64
  0
VERTEX
  5
D1
  8
TEAM-NET1
 10
-153.138749
 20
-696.651636
 30
429.749801
 70
    64
  0
VERTEX
  5
D2
  8
TEAM-NET1
 10
-136.603065
 20
-702.637597
 30
473.957645
 70
    64
  0
VERTEX
  5
D3
  8
TEAM-NET1
 10
-120.161738
 20
-708.642794
 30
518.237853
 70
    64
  0
VERTEX
  5
D4
  8
TEAM-NET1
 10
-103.909123
 20
-714.686462
 30
562.662786
 70
    64
  0
VERTEX
  5
D5
  8
TEAM-NET1
 10
-205.539035
 20
-678.002202
 30
296.935103
 70
    64
  0
VERTEX
  5
D6
  8
TEAM-NET1
 10
-190.671248
 20
-684.076271
 30
342.461023
 70
    64
  0
VERTEX
  5
D7
  8
TEAM-NET1
 10
-175.270238
 20
-690.105631
 30
387.568153
 70
    64
  0
VERTEX
  5
D8
  8
TEAM-NET1
 10
-159.602617
 20
-696.112636
 30
432.465888
 70
    64
  0
VERTEX
  5
D9
  8
TEAM-NET1
 10
-143.934996
 20
-702.119642
 30
477.363624
 70
    64
  0
VERTEX
  5
DA
  8
TEAM-NET1
 10
-128.533986
 20
-708.149002
 30
522.470754
 70
    64
  0
VERTEX
  5
DB
  8
TEAM-NET1
 10
-113.666199
 20
-714.223071
 30
567.996673
 70
    64
  0
VERTEX
  5
DC
  8
TEAM-NET1
 10
-208.707494
 20
-677.376346
 30
297.033411
 70
    64
  0
VERTEX
  5
DD
  8
TEAM-NET1
 10
-195.17592
 20
-683.480605
 30
343.621534
 70
    64
  0
VERTEX
  5
DE
  8
TEAM-NET1
 10
-180.825391
 20
-689.53642
 30
389.563339
 70
    64
  0
VERTEX
  5
DF
  8
TEAM-NET1
 10
-166.065384
 20
-695.568013
 30
435.181986
 70
    64
  0
VERTEX
  5
E0
  8
TEAM-NET1
 10
-151.305377
 20
-701.599606
 30
480.800633
 70
    64
  0
VERTEX
  5
E1
  8
TEAM-NET1
 10
-136.954848
 20
-707.655421
 30
526.742439
 70
    64
  0
VERTEX
  5
E2
  8
TEAM-NET1
 10
-123.423275
 20
-713.759681
 30
573.330561
 70
    64
  0
VERTEX
  5
E3
  8
TEAM-NET1
 10
-211.873695
 20
-676.73917
 30
297.13174
 70
    64
  0
VERTEX
  5
E4
  8
TEAM-NET1
 10
-199.597208
 20
-682.872719
 30
344.717426
 70
    64
  0
VERTEX
  5
E5
  8
TEAM-NET1
 10
-186.313837
 20
-688.957433
 30
391.506831
 70
    64
  0
VERTEX
  5
E6
  8
TEAM-NET1
 10
-172.527023
 20
-695.01773
 30
437.898094
 70
    64
  0
VERTEX
  5
E7
  8
TEAM-NET1
 10
-158.740209
 20
-701.078027
 30
484.289358
 70
    64
  0
VERTEX
  5
E8
  8
TEAM-NET1
 10
-145.456837
 20
-707.162742
 30
531.078762
 70
    64
  0
VERTEX
  5
E9
  8
TEAM-NET1
 10
-133.18035
 20
-713.29629
 30
578.664449
 70
    64
  0
VERTEX
  5
EA
  8
TEAM-NET1
 10
-215.037576
 20
-676.090575
 30
297.230088
 70
    64
  0
VERTEX
  5
EB
  8
TEAM-NET1
 10
-203.902536
 20
-682.251822
 30
345.722845
 70
    64
  0
VERTEX
  5
EC
  8
TEAM-NET1
 10
-191.709514
 20
-688.368038
 30
393.377944
 70
    64
  0
VERTEX
  5
ED
  8
TEAM-NET1
 10
-178.987501
 20
-694.461738
 30
440.614213
 70
    64
  0
VERTEX
  5
EE
  8
TEAM-NET1
 10
-166.265488
 20
-700.555437
 30
487.850481
 70
    64
  0
VERTEX
  5
EF
  8
TEAM-NET1
 10
-154.072466
 20
-706.671653
 30
535.50558
 70
    64
  0
VERTEX
  5
F0
  8
TEAM-NET1
 10
-142.937426
 20
-712.8329
 30
583.998337
 70
    64
  0
VERTEX
  5
F1
  8
TEAM-NET1
 10
-218.199072
 20
-675.430457
 30
297.328458
 70
    64
  0
VERTEX
  5
F2
  8
TEAM-NET1
 10
-208.059327
 20
-681.617124
 30
346.611937
 70
    64
  0
VERTEX
  5
F3
  8
TEAM-NET1
 10
-196.986362
 20
-687.767601
 30
395.155994
 70
    64
  0
VERTEX
  5
F4
  8
TEAM-NET1
 10
-185.446787
 20
-693.899983
 30
443.330341
 70
    64
  0
VERTEX
  5
F5
  8
TEAM-NET1
 10
-173.907212
 20
-700.032365
 30
491.504688
 70
    64
  0
VERTEX
  5
F6
  8
TEAM-NET1
 10
-162.834247
 20
-706.182842
 30
540.048746
 70
    64
  0
VERTEX
  5
F7
  8
TEAM-NET1
 10
-152.694502
 20
-712.369509
 30
589.332224
 70
    64
  0
VERTEX
  5
F8
  8
TEAM-NET1
 10
-221.358116
 20
-674.758708
 30
297.426848
 70
    64
  0
VERTEX
  5
F9
  8
TEAM-NET1
 10
-212.035001
 20
-680.967828
 30
347.358845
 70
    64
  0
VERTEX
  5
FA
  8
TEAM-NET1
 10
-202.118316
 20
-687.155486
 30
396.820299
 70
    64
  0
VERTEX
  5
FB
  8
TEAM-NET1
 10
-191.904847
 20
-693.332414
 30
446.04648
 70
    64
  0
VERTEX
  5
FC
  8
TEAM-NET1
 10
-181.691378
 20
-699.509341
 30
495.272662
 70
    64
  0
VERTEX
  5
FD
  8
TEAM-NET1
 10
-171.774694
 20
-705.696999
 30
544.734115
 70
    64
  0
VERTEX
  5
FE
  8
TEAM-NET1
 10
-162.451578
 20
-711.906119
 30
594.666112
 70
    64
  0
VERTEX
  5
FF
  8
TEAM-NET1
 10
-224.514642
 20
-674.075226
 30
297.525259
 70
    64
  0
VERTEX
  5
100
  8
TEAM-NET1
 10
-215.796978
 20
-680.303143
 30
347.937716
 70
    64
  0
VERTEX
  5
101
  8
TEAM-NET1
 10
-207.079313
 20
-686.53106
 30
398.350173
 70
    64
  0
VERTEX
  5
102
  8
TEAM-NET1
 10
-198.361648
 20
-692.758977
 30
448.762629
 70
    64
  0
VERTEX
  5
103
  8
TEAM-NET1
 10
-189.643983
 20
-698.986894
 30
499.175086
 70
    64
  0
VERTEX
  5
104
  8
TEAM-NET1
 10
-180.926318
 20
-705.214811
 30
549.587543
 70
    64
  0
VERTEX
  5
105
  8
TEAM-NET1
 10
-172.208653
 20
-711.442728
 30
600.0
 70
    64
  0
SEQEND
  5
106
  8
TEAM-NET1
  0
POLYLINE
  5
107
  8
TEAM-NET1
 66
     1
 10
0.0
 20
0.0
 30
0.0
 70
    16
 71
    16
 72
     7
  0
VERTEX
  5
108
  8
TEAM-NET1
 10
176.907843
 20
-683.143177
 30
296.051214
 70
    64
  0
VERTEX
  5
109
  8
TEAM-NET1
 10
151.728039
 20
-689.018311
 30
333.374625
 70
    64
  0
VERTEX
  5
10A
  8
TEAM-NET1
 10
126.548235
 20
-694.893446
 30
370.698037
 70
    64
  0
VERTEX
  5
10B
  8
TEAM-NET1
 10
101.368431
 20
-700.768581
 30
408.021449
 70
    64
  0
VERTEX
  5
10C
  8
TEAM-NET1
 10
76.188627
 20
-706.643715
 30
445.34486
 70
    64
  0
VERTEX
  5
10D
  8
TEAM-NET1
 10
51.008823
 20
-712.51885
 30
482.668272
 70
    64
  0
VERTEX
  5
10E
  8
TEAM-NET1
 10
25.829019
 20
-718.393985
 30
519.991684
 70
    64
  0
VERTEX
  5
10F
  8
TEAM-NET1
 10
180.094165
 20
-682.615717
 30
296.149349
 70
    64
  0
VERTEX
  5
110
  8
TEAM-NET1
 10
155.517606
 20
-688.498105
 30
333.953241
 70
    64
  0
VERTEX
  5
111
  8
TEAM-NET1
 10
131.531305
 20
-694.384633
 30
372.227707
 70
    64
  0
VERTEX
  5
112
  8
TEAM-NET1
 10
107.840134
 20
-700.273231
 30
410.73746
 70
    64
  0
VERTEX
  5
113
  8
TEAM-NET1
 10
84.148963
 20
-706.161829
 30
449.247213
 70
    64
  0
VERTEX
  5
114
  8
TEAM-NET1
 10
60.162662
 20
-712.048357
 30
487.521679
 70
    64
  0
VERTEX
  5
115
  8
TEAM-NET1
 10
35.586102
 20
-717.930745
 30
525.325571
 70
    64
  0
VERTEX
  5
116
  8
TEAM-NET1
 10
183.278665
 20
-682.077368
 30
296.247502
 70
    64
  0
VERTEX
  5
117
  8
TEAM-NET1
 10
159.516849
 20
-687.972343
 30
334.69993
 70
    64
  0
VERTEX
  5
118
  8
TEAM-NET1
 10
136.682116
 20
-693.871375
 30
373.891836
 70
    64
  0
VERTEX
  5
119
  8
TEAM-NET1
 10
114.310925
 20
-699.772436
 30
413.453481
 70
    64
  0
VERTEX
  5
11A
  8
TEAM-NET1
 10
91.939734
 20
-705.673497
 30
453.015126
 70
    64
  0
VERTEX
  5
11B
  8
TEAM-NET1
 10
69.105001
 20
-711.57253
 30
492.207031
 70
    64
  0
VERTEX
  5
11C
  8
TEAM-NET1
 10
45.343185
 20
-717.467505
 30
530.659459
 70
    64
  0
VERTEX
  5
11D
  8
TEAM-NET1
 10
186.461309
 20
-681.52816
 30
296.345673
 70
    64
  0
VERTEX
  5
11E
  8
TEAM-NET1
 10
163.693222
 20
-687.440359
 30
335.588838
 70
    64
  0
VERTEX
  5
11F
  8
TEAM-NET1
 10
141.974631
 20
-693.35314
 30
375.669739
 70
    64
  0
VERTEX
  5
120
  8
TEAM-NET1
 10
120.780789
 20
-699.266213
 30
416.16951
 70
    64
  0
VERTEX
  5
121
  8
TEAM-NET1
 10
99.586946
 20
-705.179285
 30
456.669281
 70
    64
  0
VERTEX
  5
122
  8
TEAM-NET1
 10
77.868355
 20
-711.092067
 30
496.750183
 70
    64
  0
VERTEX
  5
123
  8
TEAM-NET1
 10
55.100268
 20
-717.004265
 30
535.993347
 70
    64
  0
VERTEX
  5
124
  8
TEAM-NET1
 10
189.642065
 20
-680.968123
 30
296.443863
 70
    64
  0
VERTEX
  5
125
  8
TEAM-NET1
 10
168.014175
 20
-686.901482
 30
336.594109
 70
    64
  0
VERTEX
  5
126
  8
TEAM-NET1
 10
147.38281
 20
-692.82939
 30
377.540735
 70
    64
  0
VERTEX
  5
127
  8
TEAM-NET1
 10
127.249708
 20
-698.754574
 30
418.885549
 70
    64
  0
VERTEX
  5
128
  8
TEAM-NET1
 10
107.116606
 20
-704.679758
 30
460.230363
 70
    64
  0
VERTEX
  5
129
  8
TEAM-NET1
 10
86.485241
 20
-710.607667
 30
501.176988
 70
    64
  0
VERTEX
  5
12A
  8
TEAM-NET1
 10
64.857351
 20
-716.541026
 30
541.327235
 70
    64
  0
VERTEX
  5
12B
  8
TEAM-NET1
 10
192.8209
 20
-680.397285
 30
296.542072
 70
    64
  0
VERTEX
  5
12C
  8
TEAM-NET1
 10
172.447162
 20
-686.355042
 30
337.689891
 70
    64
  0
VERTEX
  5
12D
  8
TEAM-NET1
 10
152.880616
 20
-692.299591
 30
379.484137
 70
    64
  0
VERTEX
  5
12E
  8
TEAM-NET1
 10
133.717667
 20
-698.237536
 30
421.601597
 70
    64
  0
VERTEX
  5
12F
  8
TEAM-NET1
 10
114.554718
 20
-704.175481
 30
463.719057
 70
    64
  0
VERTEX
  5
130
  8
TEAM-NET1
 10
94.988172
 20
-710.120029
 30
505.513303
 70
    64
  0
VERTEX
  5
131
  8
TEAM-NET1
 10
74.614434
 20
-716.077786
 30
546.661122
 70
    64
  0
VERTEX
  5
132
  8
TEAM-NET1
 10
195.997781
 20
-679.815676
 30
296.6403
 70
    64
  0
VERTEX
  5
133
  8
TEAM-NET1
 10
176.959633
 20
-685.80037
 30
338.850328
 70
    64
  0
VERTEX
  5
134
  8
TEAM-NET1
 10
158.44201
 20
-691.763205
 30
381.479264
 70
    64
  0
VERTEX
  5
135
  8
TEAM-NET1
 10
140.184649
 20
-697.715111
 30
424.317655
 70
    64
  0
VERTEX
  5
136
  8
TEAM-NET1
 10
121.927288
 20
-703.667017
 30
467.156046
 70
    64
  0
VERTEX
  5
137
  8
TEAM-NET1
 10
103.409665
 20
-709.629852
 30
509.784982
 70
    64
  0
VERTEX
  5
138
  8
TEAM-NET1
 10
84.371517
 20
-715.614546
 30
551.99501
 70
    64
  0
VERTEX
  5
139
  8
TEAM-NET1
 10
199.172674
 20
-679.223311
 30
296.738548
 70
    64
  0
VERTEX
  5
13A
  8
TEAM-NET1
 10
181.519039
 20
-685.236785
 30
340.049565
 70
    64
  0
VERTEX
  5
13B
  8
TEAM-NET1
 10
164.040951
 20
-691.219689
 30
383.505432
 70
    64
  0
VERTEX
  5
13C
  8
TEAM-NET1
 10
146.650637
 20
-697.187309
 30
427.033723
 70
    64
  0
VERTEX
  5
13D
  8
TEAM-NET1
 10
129.260322
 20
-703.154929
 30
470.562014
 70
    64
  0
VERTEX
  5
13E
  8
TEAM-NET1
 10
111.782234
 20
-709.137833
 30
514.01788
 70
    64
  0
VERTEX
  5
13F
  8
TEAM-NET1
 10
94.1286
 20
-715.151306
 30
557.328898
 70
    64
  0
VERTEX
  5
140
  8
TEAM-NET1
 10
202.345491
 20
-678.619936
 30
296.836816
 70
    64
  0
VERTEX
  5
141
  8
TEAM-NET1
 10
186.092783
 20
-684.663352
 30
341.261749
 70
    64
  0
VERTEX
  5
142
  8
TEAM-NET1
 10
169.651363
 20
-690.668295
 30
385.541956
 70
    64
  0
VERTEX
  5
143
  8
TEAM-NET1
 10
153.115587
 20
-696.654001
 30
429.749801
 70
    64
  0
VERTEX
  5
144
  8
TEAM-NET1
 10
136.579811
 20
-702.639708
 30
473.957645
 70
    64
  0
VERTEX
  5
145
  8
TEAM-NET1
 10
120.13839
 20
-708.644651
 30
518.237853
 70
    64
  0
VERTEX
  5
146
  8
TEAM-NET1
 10
103.885683
 20
-714.688067
 30
562.662786
 70
    64
  0
VERTEX
  5
147
  8
TEAM-NET1
 10
205.516161
 20
-678.005377
 30
296.935103
 70
    64
  0
VERTEX
  5
148
  8
TEAM-NET1
 10
190.64828
 20
-684.079216
 30
342.461023
 70
    64
  0
VERTEX
  5
149
  8
TEAM-NET1
 10
175.247177
 20
-690.108338
 30
387.568153
 70
    64
  0
VERTEX
  5
14A
  8
TEAM-NET1
 10
159.579463
 20
-696.115102
 30
432.465888
 70
    64
  0
VERTEX
  5
14B
  8
TEAM-NET1
 10
143.91175
 20
-702.121866
 30
477.363624
 70
    64
  0
VERTEX
  5
14C
  8
TEAM-NET1
 10
128.510647
 20
-708.150988
 30
522.470754
 70
    64
  0
VERTEX
  5
14D
  8
TEAM-NET1
 10
113.642765
 20
-714.224827
 30
567.996673
 70
    64
  0
VERTEX
  5
14E
  8
TEAM-NET1
 10
208.68463
 20
-677.37957
 30
297.033411
 70
    64
  0
VERTEX
  5
14F
  8
TEAM-NET1
 10
195.152962
 20
-683.483621
 30
343.621534
 70
    64
  0
VERTEX
  5
150
  8
TEAM-NET1
 10
180.802339
 20
-689.539214
 30
389.563339
 70
    64
  0
VERTEX
  5
151
  8
TEAM-NET1
 10
166.042239
 20
-695.570579
 30
435.181986
 70
    64
  0
VERTEX
  5
152
  8
TEAM-NET1
 10
151.282139
 20
-701.601944
 30
480.800633
 70
    64
  0
VERTEX
  5
153
  8
TEAM-NET1
 10
136.931516
 20
-707.657537
 30
526.742439
 70
    64
  0
VERTEX
  5
154
  8
TEAM-NET1
 10
123.399848
 20
-713.761587
 30
573.330561
 70
    64
  0
VERTEX
  5
155
  8
TEAM-NET1
 10
211.85084
 20
-676.742443
 30
297.13174
 70
    64
  0
VERTEX
  5
156
  8
TEAM-NET1
 10
199.574259
 20
-682.875802
 30
344.717426
 70
    64
  0
VERTEX
  5
157
  8
TEAM-NET1
 10
186.290793
 20
-688.960311
 30
391.506831
 70
    64
  0
VERTEX
  5
158
  8
TEAM-NET1
 10
172.503886
 20
-695.020396
 30
437.898094
 70
    64
  0
VERTEX
  5
159
  8
TEAM-NET1
 10
158.716978
 20
-701.08048
 30
484.289358
 70
    64
  0
VERTEX
  5
15A
  8
TEAM-NET1
 10
145.433513
 20
-707.164989
 30
531.078762
 70
    64
  0
VERTEX
  5
15B
  8
TEAM-NET1
 10
133.156931
 20
-713.298348
 30
578.664449
 70
    64
  0
VERTEX
  5
15C
  8
TEAM-NET1
 10
215.014731
 20
-676.093898
 30
297.230088
 70
    64
  0
VERTEX
  5
15D
  8
TEAM-NET1
 10
203.879597
 20
-682.254973
 30
345.722845
 70
    64
  0
VERTEX
  5
15E
  8
TEAM-NET1
 10
191.68648
 20
-688.371
 30
393.377944
 70
    64
  0
VERTEX
  5
15F
  8
TEAM-NET1
 10
178.964373
 20
-694.464503
 30
440.614213
 70
    64
  0
VERTEX
  5
160
  8
TEAM-NET1
 10
166.242265
 20
-700.558006
 30
487.850481
 70
    64
  0
VERTEX
  5
161
  8
TEAM-NET1
 10
154.049149
 20
-706.674033
 30
535.50558
 70
    64
  0
VERTEX
  5
162
  8
TEAM-NET1
 10
142.914014
 20
-712.835108
 30
583.998337
 70
    64
  0
VERTEX
  5
163
  8
TEAM-NET1
 10
218.176238
 20
-675.433828
 30
297.328458
 70
    64
  0
VERTEX
  5
164
  8
TEAM-NET1
 10
208.036397
 20
-681.620338
 30
346.611937
 70
    64
  0
VERTEX
  5
165
  8
TEAM-NET1
 10
196.963337
 20
-687.770644
 30
395.155994
 70
    64
  0
VERTEX
  5
166
  8
TEAM-NET1
 10
185.423667
 20
-693.902848
 30
443.330341
 70
    64
  0
VERTEX
  5
167
  8
TEAM-NET1
 10
173.883998
 20
-700.035052
 30
491.504688
 70
    64
  0
VERTEX
  5
168
  8
TEAM-NET1
 10
162.810938
 20
-706.185358
 30
540.048746
 70
    64
  0
VERTEX
  5
169
  8
TEAM-NET1
 10
152.671097
 20
-712.371868
 30
589.332224
 70
    64
  0
VERTEX
  5
16A
  8
TEAM-NET1
 10
221.335293
 20
-674.762128
 30
297.426848
 70
    64
  0
VERTEX
  5
16B
  8
TEAM-NET1
 10
212.012081
 20
-680.971104
 30
347.358845
 70
    64
  0
VERTEX
  5
16C
  8
TEAM-NET1
 10
202.095301
 20
-687.158609
 30
396.820299
 70
    64
  0
VERTEX
  5
16D
  8
TEAM-NET1
 10
191.881736
 20
-693.335378
 30
446.04648
 70
    64
  0
VERTEX
  5
16E
  8
TEAM-NET1
 10
181.668172
 20
-699.512148
 30
495.272662
 70
    64
  0
VERTEX
  5
16F
  8
TEAM-NET1
 10
171.751392
 20
-705.699653
 30
544.734115
 70
    64
  0
VERTEX
  5
170
  8
TEAM-NET1
 10
162.42818
 20
-711.908628
 30
594.666112
 70
    64
  0
VERTEX
  5
171
  8
TEAM-NET1
 10
224.491829
 20
-674.078694
 30
297.525259
 70
    64
  0
VERTEX
  5
172
  8
TEAM-NET1
 10
215.774068
 20
-680.306477
 30
347.937716
 70
    64
  0
VERTEX
  5
173
  8
TEAM-NET1
 10
207.056307
 20
-686.534259
 30
398.350173
 70
    64
  0
VERTEX
  5
174
  8
TEAM-NET1
 10
198.338546
 20
-692.762042
 30
448.762629
 70
    64
  0
VERTEX
  5
175
  8
TEAM-NET1
 10
189.620785
 20
-698.989824
 30
499.175086
 70
    64
  0
VERTEX
  5
176
  8
TEAM-NET1
 10
180.903024
 20
-705.217606
 30
549.587543
 70
    64
  0
VERTEX
  5
177
  8
TEAM-NET1
 10
172.185263
 20
-711.445389
 30
600.0
 70
    64
  0
SEQEND
  5
178
  8
TEAM-NET1
  0
POLYLINE
  5
179
  8
TEAM-NET1
 66
     1
 10
0.0
 20
0.0
 30
0.0
 70
    16
 71
    16
 72
     7
  0
VERTEX
  5
17A
  8
TEAM-NET1
 10
176.907843
 20
-683.143177
 30
296.051214
 70
    64
  0
VERTEX
  5
17B
  8
TEAM-NET1
 10
147.582392
 20
-687.455773
 30
295.151275
 70
    64
  0
VERTEX
  5
17C
  8
TEAM-NET1
 10
118.125772
 20
-690.753707
 30
294.252571
 70
    64
  0
VERTEX
  5
17D
  8
TEAM-NET1
 10
88.566881
 20
-692.950955
 30
293.355157
 70
    64
  0
VERTEX
  5
17E
  8
TEAM-NET1
 10
58.945512
 20
-694.022763
 30
292.459361
 70
    64
  0
VERTEX
  5
17F
  8
TEAM-NET1
 10
29.30437
 20
-694.129237
 30
291.565332
 70
    64
  0
VERTEX
  5
180
  8
TEAM-NET1
 10
-0.329895
 20
-693.461386
 30
290.672708
 70
    64
  0
VERTEX
  5
181
  8
TEAM-NET1
 10
166.835922
 20
-685.493231
 30
310.980578
 70
    64
  0
VERTEX
  5
182
  8
TEAM-NET1
 10
138.477195
 20
-689.69085
 30
309.92436
 70
    64
  0
VERTEX
  5
183
  8
TEAM-NET1
 10
110.873773
 20
-692.810321
 30
308.75157
 70
    64
  0
VERTEX
  5
184
  8
TEAM-NET1
 10
83.603107
 20
-694.805689
 30
307.529424
 70
    64
  0
VERTEX
  5
185
  8
TEAM-NET1
 10
56.254742
 20
-695.691459
 30
306.324688
 70
    64
  0
VERTEX
  5
186
  8
TEAM-NET1
 10
28.422214
 20
-695.664627
 30
305.202924
 70
    64
  0
VERTEX
  5
187
  8
TEAM-NET1
 10
-0.315956
 20
-694.952672
 30
304.227864
 70
    64
  0
VERTEX
  5
188
  8
TEAM-NET1
 10
156.764
 20
-687.843285
 30
325.909943
 70
    64
  0
VERTEX
  5
189
  8
TEAM-NET1
 10
129.770387
 20
-691.832756
 30
324.598608
 70
    64
  0
VERTEX
  5
18A
  8
TEAM-NET1
 10
103.993764
 20
-694.738514
 30
323.116175
 70
    64
  0
VERTEX
  5
18B
  8
TEAM-NET1
 10
78.757636
 20
-696.540818
 30
321.580352
 70
    64
  0
VERTEX
  5
18C
  8
TEAM-NET1
 10
53.400978
 20
-697.278102
 30
320.10638
 70
    64
  0
VERTEX
  5
18D
  8
TEAM-NET1
 10
27.269787
 20
-697.164628
 30
318.805404
 70
    64
  0
VERTEX
  5
18E
  8
TEAM-NET1
 10
-0.302018
 20
-696.443958
 30
317.78302
 70
    64
  0
VERTEX
  5
18F
  8
TEAM-NET1
 10
146.692079
 20
-690.193338
 30
340.839308
 70
    64
  0
VERTEX
  5
190
  8
TEAM-NET1
 10
121.400677
 20
-693.895823
 30
339.189224
 70
    64
  0
VERTEX
  5
191
  8
TEAM-NET1
 10
97.428514
 20
-696.558043
 30
337.367063
 70
    64
  0
VERTEX
  5
192
  8
TEAM-NET1
 10
74.012267
 20
-698.174742
 30
335.526918
 70
    64
  0
VERTEX
  5
193
  8
TEAM-NET1
 10
50.409297
 20
-698.795315
 30
333.817305
 70
    64
  0
VERTEX
  5
194
  8
TEAM-NET1
 10
25.888672
 20
-698.634684
 30
332.378173
 70
    64
  0
VERTEX
  5
195
  8
TEAM-NET1
 10
-0.288079
 20
-697.935244
 30
331.338176
 70
    64
  0
VERTEX
  5
196
  8
TEAM-NET1
 10
136.620157
 20
-692.543392
 30
355.768672
 70
    64
  0
VERTEX
  5
197
  8
TEAM-NET1
 10
113.306774
 20
-695.894387
 30
353.711416
 70
    64
  0
VERTEX
  5
198
  8
TEAM-NET1
 10
91.120794
 20
-698.288666
 30
351.524908
 70
    64
  0
VERTEX
  5
199
  8
TEAM-NET1
 10
69.348799
 20
-699.725863
 30
349.388097
 70
    64
  0
VERTEX
  5
19A
  8
TEAM-NET1
 10
47.304773
 20
-700.255723
 30
347.47033
 70
    64
  0
VERTEX
  5
19B
  8
TEAM-NET1
 10
24.320447
 20
-700.080241
 30
345.926633
 70
    64
  0
VERTEX
  5
19C
  8
TEAM-NET1
 10
-0.274141
 20
-699.426531
 30
344.893332
 70
    64
  0
VERTEX
  5
19D
  8
TEAM-NET1
 10
126.548235
 20
-694.893446
 30
370.698037
 70
    64
  0
VERTEX
  5
19E
  8
TEAM-NET1
 10
105.427388
 20
-697.842782
 30
368.180387
 70
    64
  0
VERTEX
  5
19F
  8
TEAM-NET1
 10
85.013376
 20
-699.950138
 30
365.610388
 70
    64
  0
VERTEX
  5
1A0
  8
TEAM-NET1
 10
64.749033
 20
-701.212581
 30
363.182862
 70
    64
  0
VERTEX
  5
1A1
  8
TEAM-NET1
 10
44.112483
 20
-701.671949
 30
361.078321
 70
    64
  0
VERTEX
  5
1A2
  8
TEAM-NET1
 10
22.606692
 20
-701.506743
 30
359.456186
 70
    64
  0
VERTEX
  5
1A3
  8
TEAM-NET1
 10
-0.260202
 20
-700.917817
 30
358.448488
 70
    64
  0
VERTEX
  5
1A4
  8
TEAM-NET1
 10
116.476314
 20
-697.2435
 30
385.627402
 70
    64
  0
VERTEX
  5
1A5
  8
TEAM-NET1
 10
97.701229
 20
-699.755341
 30
382.611345
 70
    64
  0
VERTEX
  5
1A6
  8
TEAM-NET1
 10
79.049031
 20
-701.562218
 30
379.644177
 70
    64
  0
VERTEX
  5
1A7
  8
TEAM-NET1
 10
60.194768
 20
-702.653297
 30
376.930191
 70
    64
  0
VERTEX
  5
1A8
  8
TEAM-NET1
 10
40.857503
 20
-703.056616
 30
374.654145
 70
    64
  0
VERTEX
  5
1A9
  8
TEAM-NET1
 10
20.788987
 20
-702.919633
 30
372.972234
 70
    64
  0
VERTEX
  5
1AA
  8
TEAM-NET1
 10
-0.246264
 20
-702.409103
 30
372.003644
 70
    64
  0
VERTEX
  5
1AB
  8
TEAM-NET1
 10
106.404392
 20
-699.593554
 30
400.556766
 70
    64
  0
VERTEX
  5
1AC
  8
TEAM-NET1
 10
90.067005
 20
-701.646398
 30
397.019494
 70
    64
  0
VERTEX
  5
1AD
  8
TEAM-NET1
 10
73.170529
 20
-703.144662
 30
393.646953
 70
    64
  0
VERTEX
  5
1AE
  8
TEAM-NET1
 10
55.667803
 20
-704.066411
 30
390.649056
 70
    64
  0
VERTEX
  5
1AF
  8
TEAM-NET1
 10
37.56491
 20
-704.422348
 30
388.210668
 70
    64
  0
VERTEX
  5
1B0
  8
TEAM-NET1
 10
18.908913
 20
-704.324357
 30
386.48018
 70
    64
  0
VERTEX
  5
1B1
  8
TEAM-NET1
 10
-0.232325
 20
-703.90039
 30
385.5588
 70
    64
  0
VERTEX
  5
1B2
  8
TEAM-NET1
 10
96.332471
 20
-701.943608
 30
415.486131
 70
    64
  0
VERTEX
  5
1B3
  8
TEAM-NET1
 10
82.463426
 20
-703.530289
 30
411.42004
 70
    64
  0
VERTEX
  5
1B4
  8
TEAM-NET1
 10
67.320642
 20
-704.717227
 30
407.63939
 70
    64
  0
VERTEX
  5
1B5
  8
TEAM-NET1
 10
51.149938
 20
-705.470326
 30
404.358434
 70
    64
  0
VERTEX
  5
1B6
  8
TEAM-NET1
 10
34.259778
 20
-705.781768
 30
401.760759
 70
    64
  0
VERTEX
  5
1B7
  8
TEAM-NET1
 10
17.008048
 20
-705.726358
 30
399.985424
 70
    64
  0
VERTEX
  5
1B8
  8
TEAM-NET1
 10
-0.218387
 20
-705.391676
 30
399.113956
 70
    64
  0
VERTEX
  5
1B9
  8
TEAM-NET1
 10
86.260549
 20
-704.293661
 30
430.415496
 70
    64
  0
VERTEX
  5
1BA
  8
TEAM-NET1
 10
74.829202
 20
-705.421347
 30
425.828189
 70
    64
  0
VERTEX
  5
1BB
  8
TEAM-NET1
 10
61.44214
 20
-706.299671
 30
421.642166
 70
    64
  0
VERTEX
  5
1BC
  8
TEAM-NET1
 10
46.622973
 20
-706.88344
 30
418.0773
 70
    64
  0
VERTEX
  5
1BD
  8
TEAM-NET1
 10
30.967184
 20
-707.147499
 30
415.317283
 70
    64
  0
VERTEX
  5
1BE
  8
TEAM-NET1
 10
15.127974
 20
-707.131082
 30
413.49337
 70
    64
  0
VERTEX
  5
1BF
  8
TEAM-NET1
 10
-0.204448
 20
-706.882962
 30
412.669112
 70
    64
  0
VERTEX
  5
1C0
  8
TEAM-NET1
 10
76.188627
 20
-706.643715
 30
445.34486
 70
    64
  0
VERTEX
  5
1C1
  8
TEAM-NET1
 10
67.103043
 20
-707.333906
 30
440.259147
 70
    64
  0
VERTEX
  5
1C2
  8
TEAM-NET1
 10
55.477795
 20
-707.911751
 30
435.675955
 70
    64
  0
VERTEX
  5
1C3
  8
TEAM-NET1
 10
42.068708
 20
-708.324156
 30
431.824628
 70
    64
  0
VERTEX
  5
1C4
  8
TEAM-NET1
 10
27.712204
 20
-708.532166
 30
428.893107
 70
    64
  0
VERTEX
  5
1C5
  8
TEAM-NET1
 10
13.310269
 20
-708.543972
 30
427.009418
 70
    64
  0
VERTEX
  5
1C6
  8
TEAM-NET1
 10
-0.19051
 20
-708.374248
 30
426.224268
 70
    64
  0
VERTEX
  5
1C7
  8
TEAM-NET1
 10
66.116706
 20
-708.993769
 30
460.274225
 70
    64
  0
VERTEX
  5
1C8
  8
TEAM-NET1
 10
59.223657
 20
-709.2823
 30
454.728118
 70
    64
  0
VERTEX
  5
1C9
  8
TEAM-NET1
 10
49.370377
 20
-709.573223
 30
449.761435
 70
    64
  0
VERTEX
  5
1CA
  8
TEAM-NET1
 10
37.468942
 20
-709.810874
 30
445.619394
 70
    64
  0
VERTEX
  5
1CB
  8
TEAM-NET1
 10
24.519915
 20
-709.948392
 30
442.501098
 70
    64
  0
VERTEX
  5
1CC
  8
TEAM-NET1
 10
11.596515
 20
-709.970473
 30
440.538972
 70
    64
  0
VERTEX
  5
1CD
  8
TEAM-NET1
 10
-0.176571
 20
-709.865535
 30
439.779424
 70
    64
  0
VERTEX
  5
1CE
  8
TEAM-NET1
 10
56.044784
 20
-711.343823
 30
475.20359
 70
    64
  0
VERTEX
  5
1CF
  8
TEAM-NET1
 10
51.129754
 20
-711.280864
 30
469.250309
 70
    64
  0
VERTEX
  5
1D0
  8
TEAM-NET1
 10
43.062658
 20
-711.303845
 30
463.91928
 70
    64
  0
VERTEX
  5
1D1
  8
TEAM-NET1
 10
32.805474
 20
-711.361995
 30
459.480572
 70
    64
  0
VERTEX
  5
1D2
  8
TEAM-NET1
 10
21.415391
 20
-711.4088
 30
456.154122
 70
    64
  0
VERTEX
  5
1D3
  8
TEAM-NET1
 10
10.028289
 20
-711.41603
 30
454.087432
 70
    64
  0
VERTEX
  5
1D4
  8
TEAM-NET1
 10
-0.162633
 20
-711.356821
 30
453.33458
 70
    64
  0
VERTEX
  5
1D5
  8
TEAM-NET1
 10
45.972863
 20
-713.693877
 30
490.132954
 70
    64
  0
VERTEX
  5
1D6
  8
TEAM-NET1
 10
42.760044
 20
-713.343932
 30
483.840926
 70
    64
  0
VERTEX
  5
1D7
  8
TEAM-NET1
 10
36.497408
 20
-713.123374
 30
478.170167
 70
    64
  0
VERTEX
  5
1D8
  8
TEAM-NET1
 10
28.060105
 20
-712.995919
 30
473.427138
 70
    64
  0
VERTEX
  5
1D9
  8
TEAM-NET1
 10
18.423709
 20
-712.926013
 30
469.865047
 70
    64
  0
VERTEX
  5
1DA
  8
TEAM-NET1
 10
8.647174
 20
-712.886087
 30
467.660201
 70
    64
  0
VERTEX
  5
1DB
  8
TEAM-NET1
 10
-0.148694
 20
-712.848107
 30
466.889736
 70
    64
  0
VERTEX
  5
1DC
  8
TEAM-NET1
 10
35.900941
 20
-716.043931
 30
505.062319
 70
    64
  0
VERTEX
  5
1DD
  8
TEAM-NET1
 10
34.053235
 20
-715.485837
 30
498.515174
 70
    64
  0
VERTEX
  5
1DE
  8
TEAM-NET1
 10
29.617398
 20
-715.051567
 30
492.534773
 70
    64
  0
VERTEX
  5
1DF
  8
TEAM-NET1
 10
23.214634
 20
-714.731048
 30
487.478067
 70
    64
  0
VERTEX
  5
1E0
  8
TEAM-NET1
 10
15.569946
 20
-714.512656
 30
483.64674
 70
    64
  0
VERTEX
  5
1E1
  8
TEAM-NET1
 10
7.494748
 20
-714.386088
 30
481.26268
 70
    64
  0
VERTEX
  5
1E2
  8
TEAM-NET1
 10
-0.134756
 20
-714.339394
 30
480.444892
 70
    64
  0
VERTEX
  5
1E3
  8
TEAM-NET1
 10
25.829019
 20
-718.393985
 30
519.991684
 70
    64
  0
VERTEX
  5
1E4
  8
TEAM-NET1
 10
24.948039
 20
-717.720915
 30
513.288259
 70
    64
  0
VERTEX
  5
1E5
  8
TEAM-NET1
 10
22.3654
 20
-717.108182
 30
507.033772
 70
    64
  0
VERTEX
  5
1E6
  8
TEAM-NET1
 10
18.25086
 20
-716.585782
 30
501.652333
 70
    64
  0
VERTEX
  5
1E7
  8
TEAM-NET1
 10
12.879176
 20
-716.181352
 30
497.512066
 70
    64
  0
VERTEX
  5
1E8
  8
TEAM-NET1
 10
6.612591
 20
-715.921477
 30
494.900273
 70
    64
  0
VERTEX
  5
1E9
  8
TEAM-NET1
 10
-0.120817
 20
-715.83068
 30
494.000048
 70
    64
  0
SEQEND
  5
1EA
  8
TEAM-NET1
  0
POLYLINE
  5
1EB
  8
TEAM-NET1
 66
     1
 10
0.0
 20
0.0
 30
0.0
 70
    16
 71
    16
 72
     7
  0
VERTEX
  5
1EC
  8
TEAM-NET1
 10
-672.97548
 20
-295.033705
 30
316.902244
 70
    64
  0
VERTEX
  5
1ED
  8
TEAM-NET1
 10
-697.621886
 20
-284.403549
 30
364.085203
 70
    64
  0
VERTEX
  5
1EE
  8
TEAM-NET1
 10
-722.268293
 20
-273.773393
 30
411.268163
 70
    64
  0
VERTEX
  5
1EF
  8
TEAM-NET1
 10
-746.914699
 20
-263.143237
 30
458.451122
 70
    64
  0
VERTEX
  5
1F0
  8
TEAM-NET1
 10
-771.561106
 20
-252.513082
 30
505.634081
 70
    64
  0
VERTEX
  5
1F1
  8
TEAM-NET1
 10
-796.207512
 20
-241.882926
 30
552.817041
 70
    64
  0
VERTEX
  5
1F2
  8
TEAM-NET1
 10
-820.853919
 20
-231.25277
 30
600.0
 70
    64
  0
VERTEX
  5
1F3
  8
TEAM-NET1
 10
-666.561713
 20
-336.058288
 30
315.589182
 70
    64
  0
VERTEX
  5
1F4
  8
TEAM-NET1
 10
-690.802532
 20
-326.664547
 30
362.892265
 70
    64
  0
VERTEX
  5
1F5
  8
TEAM-NET1
 10
-715.072592
 20
-318.803251
 30
410.313812
 70
    64
  0
VERTEX
  5
1F6
  8
TEAM-NET1
 10
-739.357274
 20
-311.708178
 30
457.794591
 70
    64
  0
VERTEX
  5
1F7
  8
TEAM-NET1
 10
-763.641955
 20
-304.613105
 30
505.275371
 70
    64
  0
VERTEX
  5
1F8
  8
TEAM-NET1
 10
-787.912016
 20
-296.751809
 30
552.696918
 70
    64
  0
VERTEX
  5
1F9
  8
TEAM-NET1
 10
-812.152834
 20
-287.358068
 30
600.0
 70
    64
  0
VERTEX
  5
1FA
  8
TEAM-NET1
 10
-653.58563
 20
-375.49921
 30
314.280054
 70
    64
  0
VERTEX
  5
1FB
  8
TEAM-NET1
 10
-676.483057
 20
-367.389335
 30
361.744433
 70
    64
  0
VERTEX
  5
1FC
  8
TEAM-NET1
 10
-699.188884
 20
-361.831113
 30
409.395547
 70
    64
  0
VERTEX
  5
1FD
  8
TEAM-NET1
 10
-721.79891
 20
-357.548719
 30
457.140027
 70
    64
  0
VERTEX
  5
1FE
  8
TEAM-NET1
 10
-744.408937
 20
-353.266325
 30
504.884508
 70
    64
  0
VERTEX
  5
1FF
  8
TEAM-NET1
 10
-767.114764
 20
-347.708104
 30
552.535621
 70
    64
  0
VERTEX
  5
200
  8
TEAM-NET1
 10
-790.01219
 20
-339.598228
 30
600.0
 70
    64
  0
VERTEX
  5
201
  8
TEAM-NET1
 10
-634.231328
 20
-412.235576
 30
312.968785
 70
    64
  0
VERTEX
  5
202
  8
TEAM-NET1
 10
-655.021912
 20
-405.299754
 30
360.629705
 70
    64
  0
VERTEX
  5
203
  8
TEAM-NET1
 10
-675.233556
 20
-401.275572
 30
408.503764
 70
    64
  0
VERTEX
  5
204
  8
TEAM-NET1
 10
-695.155731
 20
-398.70721
 30
456.484392
 70
    64
  0
VERTEX
  5
205
  8
TEAM-NET1
 10
-715.077906
 20
-396.138849
 30
504.465021
 70
    64
  0
VERTEX
  5
206
  8
TEAM-NET1
 10
-735.289551
 20
-392.114667
 30
552.33908
 70
    64
  0
VERTEX
  5
207
  8
TEAM-NET1
 10
-756.080135
 20
-385.178844
 30
600.0
 70
    64
  0
VERTEX
  5
208
  8
TEAM-NET1
 10
-610.12519
 20
-446.076102
 30
311.66072
 70
    64
  0
VERTEX
  5
209
  8
TEAM-NET1
 10
-628.485129
 20
-440.367264
 30
359.54665
 70
    64
  0
VERTEX
  5
20A
  8
TEAM-NET1
 10
-646.193823
 20
-437.604859
 30
407.63732
 70
    64
  0
VERTEX
  5
20B
  8
TEAM-NET1
 10
-663.576896
 20
-436.31567
 30
455.83036
 70
    64
  0
VERTEX
  5
20C
  8
TEAM-NET1
 10
-680.959968
 20
-435.02648
 30
504.0234
 70
    64
  0
VERTEX
  5
20D
  8
TEAM-NET1
 10
-698.668662
 20
-432.264075
 30
552.11407
 70
    64
  0
VERTEX
  5
20E
  8
TEAM-NET1
 10
-717.028601
 20
-426.555238
 30
600.0
 70
    64
  0
VERTEX
  5
20F
  8
TEAM-NET1
 10
-583.140821
 20
-477.682467
 30
310.355286
 70
    64
  0
VERTEX
  5
210
  8
TEAM-NET1
 10
-598.933068
 20
-473.366156
 30
358.488359
 70
    64
  0
VERTEX
  5
211
  8
TEAM-NET1
 10
-614.418992
 20
-471.964696
 30
406.790687
 70
    64
  0
VERTEX
  5
212
  8
TEAM-NET1
 10
-629.751755
 20
-472.020661
 30
455.177643
 70
    64
  0
VERTEX
  5
213
  8
TEAM-NET1
 10
-645.084517
 20
-472.076627
 30
503.564599
 70
    64
  0
VERTEX
  5
214
  8
TEAM-NET1
 10
-660.570441
 20
-470.675167
 30
551.866927
 70
    64
  0
VERTEX
  5
215
  8
TEAM-NET1
 10
-676.362688
 20
-466.358856
 30
600.0
 70
    64
  0
VERTEX
  5
216
  8
TEAM-NET1
 10
-554.155281
 20
-507.470148
 30
309.055251
 70
    64
  0
VERTEX
  5
217
  8
TEAM-NET1
 10
-567.301502
 20
-504.699444
 30
357.451015
 70
    64
  0
VERTEX
  5
218
  8
TEAM-NET1
 10
-580.813676
 20
-504.816856
 30
405.960812
 70
    64
  0
VERTEX
  5
219
  8
TEAM-NET1
 10
-594.508825
 20
-506.378326
 30
454.527626
 70
    64
  0
VERTEX
  5
21A
  8
TEAM-NET1
 10
-608.203975
 20
-507.939796
 30
503.094439
 70
    64
  0
VERTEX
  5
21B
  8
TEAM-NET1
 10
-621.716148
 20
-508.057208
 30
551.604236
 70
    64
  0
VERTEX
  5
21C
  8
TEAM-NET1
 10
-634.86237
 20
-505.286504
 30
600.0
 70
    64
  0
VERTEX
  5
21D
  8
TEAM-NET1
 10
-523.389223
 20
-535.411225
 30
307.759837
 70
    64
  0
VERTEX
  5
21E
  8
TEAM-NET1
 10
-533.725562
 20
-534.145315
 30
356.427519
 70
    64
  0
VERTEX
  5
21F
  8
TEAM-NET1
 10
-545.121255
 20
-535.5447
 30
405.142015
 70
    64
  0
VERTEX
  5
220
  8
TEAM-NET1
 10
-557.046624
 20
-538.276733
 30
453.879919
 70
    64
  0
VERTEX
  5
221
  8
TEAM-NET1
 10
-568.971994
 20
-541.008766
 30
502.617822
 70
    64
  0
VERTEX
  5
222
  8
TEAM-NET1
 10
-580.367687
 20
-542.408151
 30
551.332318
 70
    64
  0
VERTEX
  5
223
  8
TEAM-NET1
 10
-590.704026
 20
-541.142241
 30
600.0
 70
    64
  0
VERTEX
  5
224
  8
TEAM-NET1
 10
-490.567256
 20
-560.900209
 30
306.467991
 70
    64
  0
VERTEX
  5
225
  8
TEAM-NET1
 10
-497.979485
 20
-561.021213
 30
355.410516
 70
    64
  0
VERTEX
  5
226
  8
TEAM-NET1
 10
-507.062098
 20
-563.36292
 30
404.328413
 70
    64
  0
VERTEX
  5
227
  8
TEAM-NET1
 10
-516.979904
 20
-566.814977
 30
453.233996
 70
    64
  0
VERTEX
  5
228
  8
TEAM-NET1
 10
-526.897711
 20
-570.267035
 30
502.139578
 70
    64
  0
VERTEX
  5
229
  8
TEAM-NET1
 10
-535.980324
 20
-572.608742
 30
551.057475
 70
    64
  0
VERTEX
  5
22A
  8
TEAM-NET1
 10
-543.392553
 20
-572.729746
 30
600.0
 70
    64
  0
VERTEX
  5
22B
  8
TEAM-NET1
 10
-455.832467
 20
-583.718154
 30
305.180479
 70
    64
  0
VERTEX
  5
22C
  8
TEAM-NET1
 10
-460.325882
 20
-585.13221
 30
354.394336
 70
    64
  0
VERTEX
  5
22D
  8
TEAM-NET1
 10
-467.019684
 20
-588.226536
 30
403.515469
 70
    64
  0
VERTEX
  5
22E
  8
TEAM-NET1
 10
-474.813681
 20
-592.160998
 30
452.590239
 70
    64
  0
VERTEX
  5
22F
  8
TEAM-NET1
 10
-482.607679
 20
-596.09546
 30
501.66501
 70
    64
  0
VERTEX
  5
230
  8
TEAM-NET1
 10
-489.301481
 20
-599.189786
 30
550.786143
 70
    64
  0
VERTEX
  5
231
  8
TEAM-NET1
 10
-493.794895
 20
-600.603842
 30
600.0
 70
    64
  0
VERTEX
  5
232
  8
TEAM-NET1
 10
-419.58152
 20
-604.045991
 30
303.896452
 70
    64
  0
VERTEX
  5
233
  8
TEAM-NET1
 10
-421.252882
 20
-606.670203
 30
353.371814
 70
    64
  0
VERTEX
  5
234
  8
TEAM-NET1
 10
-425.532867
 20
-610.444776
 30
402.697452
 70
    64
  0
VERTEX
  5
235
  8
TEAM-NET1
 10
-431.117163
 20
-614.79453
 30
451.948226
 70
    64
  0
VERTEX
  5
236
  8
TEAM-NET1
 10
-436.70146
 20
-619.144283
 30
501.199
 70
    64
  0
VERTEX
  5
237
  8
TEAM-NET1
 10
-440.981445
 20
-622.918857
 30
550.524637
 70
    64
  0
VERTEX
  5
238
  8
TEAM-NET1
 10
-442.652807
 20
-625.543069
 30
600.0
 70
    64
  0
VERTEX
  5
239
  8
TEAM-NET1
 10
-382.148498
 20
-622.109252
 30
302.616005
 70
    64
  0
VERTEX
  5
23A
  8
TEAM-NET1
 10
-381.171755
 20
-625.858092
 30
352.336659
 70
    64
  0
VERTEX
  5
23B
  8
TEAM-NET1
 10
-383.027938
 20
-630.323861
 30
401.869327
 70
    64
  0
VERTEX
  5
23C
  8
TEAM-NET1
 10
-386.300583
 20
-635.148095
 30
451.308002
 70
    64
  0
VERTEX
  5
23D
  8
TEAM-NET1
 10
-389.573228
 20
-639.97233
 30
500.746677
 70
    64
  0
VERTEX
  5
23E
  8
TEAM-NET1
 10
-391.429411
 20
-644.438099
 30
550.279345
 70
    64
  0
VERTEX
  5
23F
  8
TEAM-NET1
 10
-390.452668
 20
-648.186939
 30
600.0
 70
    64
  0
VERTEX
  5
240
  8
TEAM-NET1
 10
-343.800349
 20
-638.141665
 30
301.339086
 70
    64
  0
VERTEX
  5
241
  8
TEAM-NET1
 10
-340.397782
 20
-642.86079
 30
351.282444
 70
    64
  0
VERTEX
  5
242
  8
TEAM-NET1
 10
-339.763067
 20
-647.946585
 30
401.025955
 70
    64
  0
VERTEX
  5
243
  8
TEAM-NET1
 10
-340.512278
 20
-653.215715
 30
450.669543
 70
    64
  0
VERTEX
  5
244
  8
TEAM-NET1
 10
-341.261489
 20
-658.484846
 30
500.313131
 70
    64
  0
VERTEX
  5
245
  8
TEAM-NET1
 10
-340.626775
 20
-663.570641
 30
550.056642
 70
    64
  0
VERTEX
  5
246
  8
TEAM-NET1
 10
-337.224208
 20
-668.289765
 30
600.0
 70
    64
  0
VERTEX
  5
247
  8
TEAM-NET1
 10
-304.681838
 20
-652.190156
 30
300.065068
 70
    64
  0
VERTEX
  5
248
  8
TEAM-NET1
 10
-299.130268
 20
-657.654365
 30
350.202208
 70
    64
  0
VERTEX
  5
249
  8
TEAM-NET1
 10
-295.895969
 20
-663.201777
 30
400.161766
 70
    64
  0
VERTEX
  5
24A
  8
TEAM-NET1
 10
-293.820306
 20
-668.790792
 30
450.032534
 70
    64
  0
VERTEX
  5
24B
  8
TEAM-NET1
 10
-291.744642
 20
-674.379807
 30
499.903302
 70
    64
  0
VERTEX
  5
24C
  8
TEAM-NET1
 10
-288.510343
 20
-679.927219
 30
549.86286
 70
    64
  0
VERTEX
  5
24D
  8
TEAM-NET1
 10
-282.958773
 20
-685.391428
 30
600.0
 70
    64
  0
VERTEX
  5
24E
  8
TEAM-NET1
 10
-264.885497
 20
-664.184344
 30
298.793695
 70
    64
  0
VERTEX
  5
24F
  8
TEAM-NET1
 10
-257.53615
 20
-670.148906
 30
349.089335
 70
    64
  0
VERTEX
  5
250
  8
TEAM-NET1
 10
-251.601657
 20
-676.040612
 30
399.271468
 70
    64
  0
VERTEX
  5
251
  8
TEAM-NET1
 10
-246.37459
 20
-681.895891
 30
449.396848
 70
    64
  0
VERTEX
  5
252
  8
TEAM-NET1
 10
-241.147523
 20
-687.751169
 30
499.522227
 70
    64
  0
VERTEX
  5
253
  8
TEAM-NET1
 10
-235.21303
 20
-693.642875
 30
549.70436
 70
    64
  0
VERTEX
  5
254
  8
TEAM-NET1
 10
-227.863683
 20
-699.607437
 30
600.0
 70
    64
  0
VERTEX
  5
255
  8
TEAM-NET1
 10
-224.514642
 20
-674.075226
 30
297.525259
 70
    64
  0
VERTEX
  5
256
  8
TEAM-NET1
 10
-215.796978
 20
-680.303143
 30
347.937716
 70
    64
  0
VERTEX
  5
257
  8
TEAM-NET1
 10
-207.079313
 20
-686.53106
 30
398.350173
 70
    64
  0
VERTEX
  5
258
  8
TEAM-NET1
 10
-198.361648
 20
-692.758977
 30
448.762629
 70
    64
  0
VERTEX
  5
259
  8
TEAM-NET1
 10
-189.643983
 20
-698.986894
 30
499.175086
 70
    64
  0
VERTEX
  5
25A
  8
TEAM-NET1
 10
-180.926318
 20
-705.214811
 30
549.587543
 70
    64
  0
VERTEX
  5
25B
  8
TEAM-NET1
 10
-172.208653
 20
-711.442728
 30
600.0
 70
    64
  0
SEQEND
  5
25C
  8
TEAM-NET1
  0
POLYLINE
  5
25D
  8
TEAM-NET1
 66
     1
 10
0.0
 20
0.0
 30
0.0
 70
    16
 71
    16
 72
     7
  0
VERTEX
  5
25E
  8
TEAM-NET1
 10
672.958523
 20
-295.044102
 30
316.902244
 70
    64
  0
VERTEX
  5
25F
  8
TEAM-NET1
 10
697.605093
 20
-284.414327
 30
364.085203
 70
    64
  0
VERTEX
  5
260
  8
TEAM-NET1
 10
722.251664
 20
-273.784552
 30
411.268163
 70
    64
  0
VERTEX
  5
261
  8
TEAM-NET1
 10
746.898235
 20
-263.154777
 30
458.451122
 70
    64
  0
VERTEX
  5
262
  8
TEAM-NET1
 10
771.544806
 20
-252.525002
 30
505.634081
 70
    64
  0
VERTEX
  5
263
  8
TEAM-NET1
 10
796.191376
 20
-241.895227
 30
552.817041
 70
    64
  0
VERTEX
  5
264
  8
TEAM-NET1
 10
820.837947
 20
-231.265452
 30
600.0
 70
    64
  0
VERTEX
  5
265
  8
TEAM-NET1
 10
666.544122
 20
-336.068586
 30
315.589182
 70
    64
  0
VERTEX
  5
266
  8
TEAM-NET1
 10
690.785086
 20
-326.67522
 30
362.892265
 70
    64
  0
VERTEX
  5
267
  8
TEAM-NET1
 10
715.055268
 20
-318.814299
 30
410.313812
 70
    64
  0
VERTEX
  5
268
  8
TEAM-NET1
 10
739.340059
 20
-311.719601
 30
457.794591
 70
    64
  0
VERTEX
  5
269
  8
TEAM-NET1
 10
763.62485
 20
-304.624903
 30
505.275371
 70
    64
  0
VERTEX
  5
26A
  8
TEAM-NET1
 10
787.895032
 20
-296.763982
 30
552.696918
 70
    64
  0
VERTEX
  5
26B
  8
TEAM-NET1
 10
812.135995
 20
-287.370615
 30
600.0
 70
    64
  0
VERTEX
  5
26C
  8
TEAM-NET1
 10
653.56743
 20
-375.509308
 30
314.280054
 70
    64
  0
VERTEX
  5
26D
  8
TEAM-NET1
 10
676.464982
 20
-367.399786
 30
361.744433
 70
    64
  0
VERTEX
  5
26E
  8
TEAM-NET1
 10
699.170894
 20
-361.841916
 30
409.395547
 70
    64
  0
VERTEX
  5
26F
  8
TEAM-NET1
 10
721.780987
 20
-357.559871
 30
457.140027
 70
    64
  0
VERTEX
  5
270
  8
TEAM-NET1
 10
744.39108
 20
-353.277826
 30
504.884508
 70
    64
  0
VERTEX
  5
271
  8
TEAM-NET1
 10
767.096993
 20
-347.719956
 30
552.535621
 70
    64
  0
VERTEX
  5
272
  8
TEAM-NET1
 10
789.994545
 20
-339.610434
 30
600.0
 70
    64
  0
VERTEX
  5
273
  8
TEAM-NET1
 10
634.21256
 20
-412.245375
 30
312.968785
 70
    64
  0
VERTEX
  5
274
  8
TEAM-NET1
 10
655.003251
 20
-405.309874
 30
360.629705
 70
    64
  0
VERTEX
  5
275
  8
TEAM-NET1
 10
675.214958
 20
-401.286004
 30
408.503764
 70
    64
  0
VERTEX
  5
276
  8
TEAM-NET1
 10
695.137172
 20
-398.71795
 30
456.484392
 70
    64
  0
VERTEX
  5
277
  8
TEAM-NET1
 10
715.059387
 20
-396.149897
 30
504.465021
 70
    64
  0
VERTEX
  5
278
  8
TEAM-NET1
 10
735.271094
 20
-392.126027
 30
552.33908
 70
    64
  0
VERTEX
  5
279
  8
TEAM-NET1
 10
756.061785
 20
-385.190526
 30
600.0
 70
    64
  0
VERTEX
  5
27A
  8
TEAM-NET1
 10
610.105899
 20
-446.085528
 30
311.66072
 70
    64
  0
VERTEX
  5
27B
  8
TEAM-NET1
 10
628.465926
 20
-440.376974
 30
359.54665
 70
    64
  0
VERTEX
  5
27C
  8
TEAM-NET1
 10
646.174663
 20
-437.614843
 30
407.63732
 70
    64
  0
VERTEX
  5
27D
  8
TEAM-NET1
 10
663.557756
 20
-436.325922
 30
455.83036
 70
    64
  0
VERTEX
  5
27E
  8
TEAM-NET1
 10
680.940848
 20
-435.037001
 30
504.0234
 70
    64
  0
VERTEX
  5
27F
  8
TEAM-NET1
 10
698.649585
 20
-432.274869
 30
552.11407
 70
    64
  0
VERTEX
  5
280
  8
TEAM-NET1
 10
717.009612
 20
-426.566316
 30
600.0
 70
    64
  0
VERTEX
  5
281
  8
TEAM-NET1
 10
583.121042
 20
-477.691476
 30
310.355286
 70
    64
  0
VERTEX
  5
282
  8
TEAM-NET1
 10
598.913356
 20
-473.375409
 30
358.488359
 70
    64
  0
VERTEX
  5
283
  8
TEAM-NET1
 10
614.399301
 20
-471.974189
 30
406.790687
 70
    64
  0
VERTEX
  5
284
  8
TEAM-NET1
 10
629.732063
 20
-472.030391
 30
455.177643
 70
    64
  0
VERTEX
  5
285
  8
TEAM-NET1
 10
645.064825
 20
-472.086593
 30
503.564599
 70
    64
  0
VERTEX
  5
286
  8
TEAM-NET1
 10
660.550771
 20
-470.685372
 30
551.866927
 70
    64
  0
VERTEX
  5
287
  8
TEAM-NET1
 10
676.343084
 20
-466.369306
 30
600.0
 70
    64
  0
VERTEX
  5
288
  8
TEAM-NET1
 10
554.135042
 20
-507.478709
 30
309.055251
 70
    64
  0
VERTEX
  5
289
  8
TEAM-NET1
 10
567.281306
 20
-504.708209
 30
357.451015
 70
    64
  0
VERTEX
  5
28A
  8
TEAM-NET1
 10
580.793477
 20
-504.82583
 30
405.960812
 70
    64
  0
VERTEX
  5
28B
  8
TEAM-NET1
 10
594.488603
 20
-506.387511
 30
454.527626
 70
    64
  0
VERTEX
  5
28C
  8
TEAM-NET1
 10
608.183728
 20
-507.949193
 30
503.094439
 70
    64
  0
VERTEX
  5
28D
  8
TEAM-NET1
 10
621.6959
 20
-508.066813
 30
551.604236
 70
    64
  0
VERTEX
  5
28E
  8
TEAM-NET1
 10
634.842164
 20
-505.296313
 30
600.0
 70
    64
  0
VERTEX
  5
28F
  8
TEAM-NET1
 10
523.368552
 20
-535.419311
 30
307.759837
 70
    64
  0
VERTEX
  5
290
  8
TEAM-NET1
 10
533.70491
 20
-534.153561
 30
356.427519
 70
    64
  0
VERTEX
  5
291
  8
TEAM-NET1
 10
545.100582
 20
-535.553122
 30
405.142015
 70
    64
  0
VERTEX
  5
292
  8
TEAM-NET1
 10
557.025909
 20
-538.285339
 30
453.879919
 70
    64
  0
VERTEX
  5
293
  8
TEAM-NET1
 10
568.951237
 20
-541.017557
 30
502.617822
 70
    64
  0
VERTEX
  5
294
  8
TEAM-NET1
 10
580.346908
 20
-542.417118
 30
551.332318
 70
    64
  0
VERTEX
  5
295
  8
TEAM-NET1
 10
590.683267
 20
-541.151367
 30
600.0
 70
    64
  0
VERTEX
  5
296
  8
TEAM-NET1
 10
490.546191
 20
-560.907788
 30
306.467991
 70
    64
  0
VERTEX
  5
297
  8
TEAM-NET1
 10
497.958418
 20
-561.028907
 30
355.410516
 70
    64
  0
VERTEX
  5
298
  8
TEAM-NET1
 10
507.040995
 20
-563.370754
 30
404.328413
 70
    64
  0
VERTEX
  5
299
  8
TEAM-NET1
 10
516.958748
 20
-566.822965
 30
453.233996
 70
    64
  0
VERTEX
  5
29A
  8
TEAM-NET1
 10
526.876501
 20
-570.275176
 30
502.139578
 70
    64
  0
VERTEX
  5
29B
  8
TEAM-NET1
 10
535.959079
 20
-572.617023
 30
551.057475
 70
    64
  0
VERTEX
  5
29C
  8
TEAM-NET1
 10
543.371305
 20
-572.738141
 30
600.0
 70
    64
  0
VERTEX
  5
29D
  8
TEAM-NET1
 10
455.81105
 20
-583.725197
 30
305.180479
 70
    64
  0
VERTEX
  5
29E
  8
TEAM-NET1
 10
460.304442
 20
-585.139322
 30
354.394336
 70
    64
  0
VERTEX
  5
29F
  8
TEAM-NET1
 10
466.998197
 20
-588.233752
 30
403.515469
 70
    64
  0
VERTEX
  5
2A0
  8
TEAM-NET1
 10
474.792134
 20
-592.168334
 30
452.590239
 70
    64
  0
VERTEX
  5
2A1
  8
TEAM-NET1
 10
482.58607
 20
-596.102916
 30
501.66501
 70
    64
  0
VERTEX
  5
2A2
  8
TEAM-NET1
 10
489.279825
 20
-599.197346
 30
550.786143
 70
    64
  0
VERTEX
  5
2A3
  8
TEAM-NET1
 10
493.773217
 20
-600.611471
 30
600.0
 70
    64
  0
VERTEX
  5
2A4
  8
TEAM-NET1
 10
419.559789
 20
-604.052473
 30
303.896452
 70
    64
  0
VERTEX
  5
2A5
  8
TEAM-NET1
 10
421.23111
 20
-606.676711
 30
353.371814
 70
    64
  0
VERTEX
  5
2A6
  8
TEAM-NET1
 10
425.511037
 20
-610.451351
 30
402.697452
 70
    64
  0
VERTEX
  5
2A7
  8
TEAM-NET1
 10
431.095266
 20
-614.801191
 30
451.948226
 70
    64
  0
VERTEX
  5
2A8
  8
TEAM-NET1
 10
436.679495
 20
-619.15103
 30
501.199
 70
    64
  0
VERTEX
  5
2A9
  8
TEAM-NET1
 10
440.959422
 20
-622.92567
 30
550.524637
 70
    64
  0
VERTEX
  5
2AA
  8
TEAM-NET1
 10
442.630743
 20
-625.549908
 30
600.0
 70
    64
  0
VERTEX
  5
2AB
  8
TEAM-NET1
 10
382.126487
 20
-622.115156
 30
302.616005
 70
    64
  0
VERTEX
  5
2AC
  8
TEAM-NET1
 10
381.149687
 20
-625.863981
 30
352.336659
 70
    64
  0
VERTEX
  5
2AD
  8
TEAM-NET1
 10
383.0058
 20
-630.329779
 30
401.869327
 70
    64
  0
VERTEX
  5
2AE
  8
TEAM-NET1
 10
386.278371
 20
-635.154064
 30
451.308002
 70
    64
  0
VERTEX
  5
2AF
  8
TEAM-NET1
 10
389.550942
 20
-639.978349
 30
500.746677
 70
    64
  0
VERTEX
  5
2B0
  8
TEAM-NET1
 10
391.407055
 20
-644.444147
 30
550.279345
 70
    64
  0
VERTEX
  5
2B1
  8
TEAM-NET1
 10
390.430254
 20
-648.192971
 30
600.0
 70
    64
  0
VERTEX
  5
2B2
  8
TEAM-NET1
 10
343.778091
 20
-638.146977
 30
301.339086
 70
    64
  0
VERTEX
  5
2B3
  8
TEAM-NET1
 10
340.375451
 20
-642.866049
 30
351.282444
 70
    64
  0
VERTEX
  5
2B4
  8
TEAM-NET1
 10
339.740658
 20
-647.951834
 30
401.025955
 70
    64
  0
VERTEX
  5
2B5
  8
TEAM-NET1
 10
340.489787
 20
-653.220976
 30
450.669543
 70
    64
  0
VERTEX
  5
2B6
  8
TEAM-NET1
 10
341.238917
 20
-658.490118
 30
500.313131
 70
    64
  0
VERTEX
  5
2B7
  8
TEAM-NET1
 10
340.604124
 20
-663.575903
 30
550.056642
 70
    64
  0
VERTEX
  5
2B8
  8
TEAM-NET1
 10
337.201484
 20
-668.294975
 30
600.0
 70
    64
  0
VERTEX
  5
2B9
  8
TEAM-NET1
 10
304.659363
 20
-652.194863
 30
300.065068
 70
    64
  0
VERTEX
  5
2BA
  8
TEAM-NET1
 10
299.107708
 20
-657.658986
 30
350.202208
 70
    64
  0
VERTEX
  5
2BB
  8
TEAM-NET1
 10
295.873324
 20
-663.206349
 30
400.161766
 70
    64
  0
VERTEX
  5
2BC
  8
TEAM-NET1
 10
293.797574
 20
-668.795331
 30
450.032534
 70
    64
  0
VERTEX
  5
2BD
  8
TEAM-NET1
 10
291.721824
 20
-674.384314
 30
499.903302
 70
    64
  0
VERTEX
  5
2BE
  8
TEAM-NET1
 10
288.48744
 20
-679.931677
 30
549.86286
 70
    64
  0
VERTEX
  5
2BF
  8
TEAM-NET1
 10
282.935785
 20
-685.3958
 30
600.0
 70
    64
  0
VERTEX
  5
2C0
  8
TEAM-NET1
 10
264.862836
 20
-664.188436
 30
298.793695
 70
    64
  0
VERTEX
  5
2C1
  8
TEAM-NET1
 10
257.513398
 20
-670.152885
 30
349.089335
 70
    64
  0
VERTEX
  5
2C2
  8
TEAM-NET1
 10
251.578813
 20
-676.0445
 30
399.271468
 70
    64
  0
VERTEX
  5
2C3
  8
TEAM-NET1
 10
246.351656
 20
-681.899697
 30
449.396848
 70
    64
  0
VERTEX
  5
2C4
  8
TEAM-NET1
 10
241.124499
 20
-687.754894
 30
499.522227
 70
    64
  0
VERTEX
  5
2C5
  8
TEAM-NET1
 10
235.189914
 20
-693.646509
 30
549.70436
 70
    64
  0
VERTEX
  5
2C6
  8
TEAM-NET1
 10
227.840475
 20
-699.610958
 30
600.0
 70
    64
  0
VERTEX
  5
2C7
  8
TEAM-NET1
 10
224.491829
 20
-674.078694
 30
297.525259
 70
    64
  0
VERTEX
  5
2C8
  8
TEAM-NET1
 10
215.774068
 20
-680.306477
 30
347.937716
 70
    64
  0
VERTEX
  5
2C9
  8
TEAM-NET1
 10
207.056307
 20
-686.534259
 30
398.350173
 70
    64
  0
VERTEX
  5
2CA
  8
TEAM-NET1
 10
198.338546
 20
-692.762042
 30
448.762629
 70
    64
  0
VERTEX
  5
2CB
  8
TEAM-NET1
 10
189.620785
 20
-698.989824
 30
499.175086
 70
    64
  0
VERTEX
  5
2CC
  8
TEAM-NET1
 10
180.903024
 20
-705.217606
 30
549.587543
 70
    64
  0
VERTEX
  5
2CD
  8
TEAM-NET1
 10
172.185263
 20
-711.445389
 30
600.0
 70
    64
  0
SEQEND
  5
2CE
  8
TEAM-NET1
  0
LINE
  5
2CF
  8
TEAM-NET1
 10
-392.43975
 20
239.114079
 30
575.562946
 11
-392.43975
 21
239.114079
 31
346.0
1001
ACAD
1000
R13OBJECT
1002
{
1005
2D3
1002
}
  0
LINE
  5
2D0
  8
TEAM-NET1
 10
-403.113237
 20
197.716528
 30
575.562946
 11
-403.113237
 21
197.716528
 31
346.0
1001
ACAD
1000
R13OBJECT
1002
{
1005
2D3
1002
}
  0
LINE
  5
2D1
  8
TEAM-NET1
 10
-392.284638
 20
156.35928
 30
489.740326
 11
-392.284638
 21
156.35928
 31
346.0
1001
ACAD
1000
R13OBJECT
1002
{
1005
2D3
1002
}
  0
LINE
  5
2D2
  8
TEAM-NET1
 10
-363.659008
 20
269.643503
 30
574.943424
 11
-363.659008
 21
269.643503
 31
346.0
1001
ACAD
1000
R13OBJECT
1002
{
1005
2D3
1002
}
  0
POLYLINE
  5
2D3
  8
TEAM-NET1
 66
     1
 10
0.0
 20
0.0
 30
0.0
 70
     8
  0
VERTEX
  5
2D4
  8
TEAM-NET1
 10
-362.693222
 20
125.504318
 30
346.0
 70
    32
  0
VERTEX
  5
2D5
  8
TEAM-NET1
 10
-364.838873
 20
126.870714
 30
365.355416
 70
    32
  0
VERTEX
  5
2D6
  8
TEAM-NET1
 10
-366.210661
 20
127.792667
 30
375.093444
 70
    32
  0
VERTEX
  5
2D7
  8
TEAM-NET1
 10
-366.967722
 20
128.318289
 30
379.977538
 70
    32
  0
VERTEX
  5
2D8
  8
TEAM-NET1
 10
-367.363509
 20
128.597962
 30
382.423355
 70
    32
  0
VERTEX
  5
2D9
  8
TEAM-NET1
 10
-367.565644
 20
128.742106
 30
383.647206
 70
    32
  0
VERTEX
  5
2DA
  8
TEAM-NET1
 10
-367.667762
 20
128.815266
 30
384.259367
 70
    32
  0
VERTEX
  5
2DB
  8
TEAM-NET1
 10
-367.719083
 20
128.85212
 30
384.565506
 70
    32
  0
VERTEX
  5
2DC
  8
TEAM-NET1
 10
-367.744808
 20
128.870616
 30
384.718591
 70
    32
  0
VERTEX
  5
2DD
  8
TEAM-NET1
 10
-367.770577
 20
128.889157
 30
384.871685
 70
    32
  0
VERTEX
  5
2DE
  8
TEAM-NET1
 10
-369.454983
 20
130.13339
 30
394.400865
 70
    32
  0
VERTEX
  5
2DF
  8
TEAM-NET1
 10
-370.353987
 20
130.824227
 30
399.16294
 70
    32
  0
VERTEX
  5
2E0
  8
TEAM-NET1
 10
-370.817021
 20
131.187566
 30
401.54335
 70
    32
  0
VERTEX
  5
2E1
  8
TEAM-NET1
 10
-371.051832
 20
131.37381
 30
402.733397
 70
    32
  0
VERTEX
  5
2E2
  8
TEAM-NET1
 10
-371.288803
 20
131.56314
 30
403.923339
 70
    32
  0
VERTEX
  5
2E3
  8
TEAM-NET1
 10
-373.242667
 20
133.178379
 30
413.35993
 70
    32
  0
VERTEX
  5
2E4
  8
TEAM-NET1
 10
-374.261475
 20
134.06055
 30
418.053241
 70
    32
  0
VERTEX
  5
2E5
  8
TEAM-NET1
 10
-374.780528
 20
134.521012
 30
420.393652
 70
    32
  0
VERTEX
  5
2E6
  8
TEAM-NET1
 10
-375.042358
 20
134.756182
 30
421.562295
 70
    32
  0
VERTEX
  5
2E7
  8
TEAM-NET1
 10
-375.173835
 20
134.875012
 30
422.146227
 70
    32
  0
VERTEX
  5
2E8
  8
TEAM-NET1
 10
-375.305681
 20
134.994678
 30
422.729898
 70
    32
  0
VERTEX
  5
2E9
  8
TEAM-NET1
 10
-377.473008
 20
137.036425
 30
432.077475
 70
    32
  0
VERTEX
  5
2EA
  8
TEAM-NET1
 10
-378.581574
 20
138.138101
 30
436.701869
 70
    32
  0
VERTEX
  5
2EB
  8
TEAM-NET1
 10
-379.141099
 20
138.709824
 30
439.001718
 70
    32
  0
VERTEX
  5
2EC
  8
TEAM-NET1
 10
-379.422043
 20
139.000992
 30
440.148555
 70
    32
  0
VERTEX
  5
2ED
  8
TEAM-NET1
 10
-379.562794
 20
139.147912
 30
440.721202
 70
    32
  0
VERTEX
  5
2EE
  8
TEAM-NET1
 10
-379.633237
 20
139.221708
 30
441.007333
 70
    32
  0
VERTEX
  5
2EF
  8
TEAM-NET1
 10
-379.668475
 20
139.25869
 30
441.15035
 70
    32
  0
VERTEX
  5
2F0
  8
TEAM-NET1
 10
-379.703724
 20
139.295728
 30
441.293334
 70
    32
  0
VERTEX
  5
2F1
  8
TEAM-NET1
 10
-382.024564
 20
141.836919
 30
450.554321
 70
    32
  0
VERTEX
  5
2F2
  8
TEAM-NET1
 10
-383.190137
 20
143.194804
 30
455.108198
 70
    32
  0
VERTEX
  5
2F3
  8
TEAM-NET1
 10
-383.773046
 20
143.896138
 30
457.365982
 70
    32
  0
VERTEX
  5
2F4
  8
TEAM-NET1
 10
-384.06438
 20
144.252471
 30
458.490085
 70
    32
  0
VERTEX
  5
2F5
  8
TEAM-NET1
 10
-384.209996
 20
144.432062
 30
459.05094
 70
    32
  0
VERTEX
  5
2F6
  8
TEAM-NET1
 10
-384.28279
 20
144.522215
 30
459.331068
 70
    32
  0
VERTEX
  5
2F7
  8
TEAM-NET1
 10
-384.319182
 20
144.567381
 30
459.471057
 70
    32
  0
VERTEX
  5
2F8
  8
TEAM-NET1
 10
-384.355572
 20
144.612606
 30
459.610996
 70
    32
  0
VERTEX
  5
2F9
  8
TEAM-NET1
 10
-386.759136
 20
147.748399
 30
468.783443
 70
    32
  0
VERTEX
  5
2FA
  8
TEAM-NET1
 10
-387.94244
 20
149.410362
 30
473.264287
 70
    32
  0
VERTEX
  5
2FB
  8
TEAM-NET1
 10
-388.528089
 20
150.265242
 30
475.478365
 70
    32
  0
VERTEX
  5
2FC
  8
TEAM-NET1
 10
-388.819234
 20
150.6987
 30
476.578818
 70
    32
  0
VERTEX
  5
2FD
  8
TEAM-NET1
 10
-388.964363
 20
150.916939
 30
477.127398
 70
    32
  0
VERTEX
  5
2FE
  8
TEAM-NET1
 10
-389.036815
 20
151.026436
 30
477.401276
 70
    32
  0
VERTEX
  5
2FF
  8
TEAM-NET1
 10
-389.073011
 20
151.081279
 30
477.538112
 70
    32
  0
VERTEX
  5
300
  8
TEAM-NET1
 10
-389.091103
 20
151.108724
 30
477.606504
 70
    32
  0
VERTEX
  5
301
  8
TEAM-NET1
 10
-389.109189
 20
151.136185
 30
477.67488
 70
    32
  0
VERTEX
  5
302
  8
TEAM-NET1
 10
-391.480236
 20
154.953762
 30
486.665805
 70
    32
  0
VERTEX
  5
303
  8
TEAM-NET1
 10
-392.616387
 20
156.9576
 30
491.014154
 70
    32
  0
VERTEX
  5
304
  8
TEAM-NET1
 10
-393.170606
 20
157.983319
 30
493.15155
 70
    32
  0
VERTEX
  5
305
  8
TEAM-NET1
 10
-393.444058
 20
158.502126
 30
494.211054
 70
    32
  0
VERTEX
  5
306
  8
TEAM-NET1
 10
-393.579845
 20
158.763016
 30
494.738507
 70
    32
  0
VERTEX
  5
307
  8
TEAM-NET1
 10
-393.647501
 20
158.893832
 30
495.001658
 70
    32
  0
VERTEX
  5
308
  8
TEAM-NET1
 10
-393.681269
 20
158.959333
 30
495.133091
 70
    32
  0
VERTEX
  5
309
  8
TEAM-NET1
 10
-393.698138
 20
158.992107
 30
495.198771
 70
    32
  0
VERTEX
  5
30A
  8
TEAM-NET1
 10
-393.714997
 20
159.024896
 30
495.264427
 70
    32
  0
VERTEX
  5
30B
  8
TEAM-NET1
 10
-395.90834
 20
163.62756
 30
503.966901
 70
    32
  0
VERTEX
  5
30C
  8
TEAM-NET1
 10
-396.921165
 20
166.027237
 30
508.134603
 70
    32
  0
VERTEX
  5
30D
  8
TEAM-NET1
 10
-397.404849
 20
167.251282
 30
510.172571
 70
    32
  0
VERTEX
  5
30E
  8
TEAM-NET1
 10
-397.640784
 20
167.869298
 30
511.180084
 70
    32
  0
VERTEX
  5
30F
  8
TEAM-NET1
 10
-397.757248
 20
168.179797
 30
511.680973
 70
    32
  0
VERTEX
  5
310
  8
TEAM-NET1
 10
-397.8151
 20
168.335418
 30
511.9307
 70
    32
  0
VERTEX
  5
311
  8
TEAM-NET1
 10
-397.84393
 20
168.413322
 30
512.055385
 70
    32
  0
VERTEX
  5
312
  8
TEAM-NET1
 10
-397.858322
 20
168.452296
 30
512.117682
 70
    32
  0
VERTEX
  5
313
  8
TEAM-NET1
 10
-397.872697
 20
168.491287
 30
512.17995
 70
    32
  0
VERTEX
  5
314
  8
TEAM-NET1
 10
-399.685081
 20
173.979015
 30
520.432714
 70
    32
  0
VERTEX
  5
315
  8
TEAM-NET1
 10
-400.46524
 20
176.824192
 30
524.345033
 70
    32
  0
VERTEX
  5
316
  8
TEAM-NET1
 10
-400.821641
 20
178.271139
 30
526.247677
 70
    32
  0
VERTEX
  5
317
  8
TEAM-NET1
 10
-400.991151
 20
179.000567
 30
527.18562
 70
    32
  0
VERTEX
  5
318
  8
TEAM-NET1
 10
-401.073698
 20
179.366751
 30
527.651247
 70
    32
  0
VERTEX
  5
319
  8
TEAM-NET1
 10
-401.114416
 20
179.550208
 30
527.883224
 70
    32
  0
VERTEX
  5
31A
  8
TEAM-NET1
 10
-401.134636
 20
179.642028
 30
527.999004
 70
    32
  0
VERTEX
  5
31B
  8
TEAM-NET1
 10
-401.14471
 20
179.68796
 30
528.056841
 70
    32
  0
VERTEX
  5
31C
  8
TEAM-NET1
 10
-401.154762
 20
179.733908
 30
528.114644
 70
    32
  0
VERTEX
  5
31D
  8
TEAM-NET1
 10
-402.308311
 20
186.20474
 30
535.744505
 70
    32
  0
VERTEX
  5
31E
  8
TEAM-NET1
 10
-402.702907
 20
189.532406
 30
539.303073
 70
    32
  0
VERTEX
  5
31F
  8
TEAM-NET1
 10
-402.852189
 20
191.217365
 30
541.018267
 70
    32
  0
VERTEX
  5
320
  8
TEAM-NET1
 10
-402.914521
 20
192.064863
 30
541.859841
 70
    32
  0
VERTEX
  5
321
  8
TEAM-NET1
 10
-402.942573
 20
192.489833
 30
542.276622
 70
    32
  0
VERTEX
  5
322
  8
TEAM-NET1
 10
-402.955815
 20
192.702618
 30
542.484011
 70
    32
  0
VERTEX
  5
323
  8
TEAM-NET1
 10
-402.96224
 20
192.809085
 30
542.587455
 70
    32
  0
VERTEX
  5
324
  8
TEAM-NET1
 10
-402.965403
 20
192.862338
 30
542.639115
 70
    32
  0
VERTEX
  5
325
  8
TEAM-NET1
 10
-402.968533
 20
192.915602
 30
542.690733
 70
    32
  0
VERTEX
  5
326
  8
TEAM-NET1
 10
-403.075372
 20
200.417696
 30
549.448942
 70
    32
  0
VERTEX
  5
327
  8
TEAM-NET1
 10
-402.874555
 20
204.243293
 30
552.529841
 70
    32
  0
VERTEX
  5
328
  8
TEAM-NET1
 10
-402.70763
 20
206.171269
 30
553.995739
 70
    32
  0
VERTEX
  5
329
  8
TEAM-NET1
 10
-402.607183
 20
207.138587
 30
554.71005
 70
    32
  0
VERTEX
  5
32A
  8
TEAM-NET1
 10
-402.55267
 20
207.623018
 30
555.062546
 70
    32
  0
VERTEX
  5
32B
  8
TEAM-NET1
 10
-402.524336
 20
207.865419
 30
555.23763
 70
    32
  0
VERTEX
  5
32C
  8
TEAM-NET1
 10
-402.509899
 20
207.986665
 30
555.32488
 70
    32
  0
VERTEX
  5
32D
  8
TEAM-NET1
 10
-402.502613
 20
208.047299
 30
555.368432
 70
    32
  0
VERTEX
  5
32E
  8
TEAM-NET1
 10
-402.495282
 20
208.107941
 30
555.411936
 70
    32
  0
VERTEX
  5
32F
  8
TEAM-NET1
 10
-401.069858
 20
216.402149
 30
560.874075
 70
    32
  0
VERTEX
  5
330
  8
TEAM-NET1
 10
-400.023995
 20
220.583823
 30
563.279657
 70
    32
  0
VERTEX
  5
331
  8
TEAM-NET1
 10
-399.414495
 20
222.677656
 30
564.401077
 70
    32
  0
VERTEX
  5
332
  8
TEAM-NET1
 10
-399.087726
 20
223.724569
 30
564.941444
 70
    32
  0
VERTEX
  5
333
  8
TEAM-NET1
 10
-398.918791
 20
224.247927
 30
565.206541
 70
    32
  0
VERTEX
  5
334
  8
TEAM-NET1
 10
-398.832931
 20
224.50957
 30
565.337819
 70
    32
  0
VERTEX
  5
335
  8
TEAM-NET1
 10
-398.74614
 20
224.771183
 30
565.468249
 70
    32
  0
VERTEX
  5
336
  8
TEAM-NET1
 10
-395.39663
 20
233.263703
 30
569.259413
 70
    32
  0
VERTEX
  5
337
  8
TEAM-NET1
 10
-390.999211
 20
241.609777
 30
572.164873
 70
    32
  0
VERTEX
  5
338
  8
TEAM-NET1
 10
-388.398122
 20
245.678106
 30
573.284559
 70
    32
  0
VERTEX
  5
339
  8
TEAM-NET1
 10
-386.996173
 20
247.677069
 30
573.76108
 70
    32
  0
VERTEX
  5
33A
  8
TEAM-NET1
 10
-386.269785
 20
248.666647
 30
573.978509
 70
    32
  0
VERTEX
  5
33B
  8
TEAM-NET1
 10
-385.900234
 20
249.15882
 30
574.082016
 70
    32
  0
VERTEX
  5
33C
  8
TEAM-NET1
 10
-385.713869
 20
249.404235
 30
574.132468
 70
    32
  0
VERTEX
  5
33D
  8
TEAM-NET1
 10
-385.526444
 20
249.649196
 30
574.182051
 70
    32
  0
VERTEX
  5
33E
  8
TEAM-NET1
 10
-382.442853
 20
253.434102
 30
574.846933
 70
    32
  0
VERTEX
  5
33F
  8
TEAM-NET1
 10
-380.805914
 20
255.274862
 30
575.09827
 70
    32
  0
VERTEX
  5
340
  8
TEAM-NET1
 10
-379.963828
 20
256.181274
 30
575.203663
 70
    32
  0
VERTEX
  5
341
  8
TEAM-NET1
 10
-379.106077
 20
257.077973
 30
575.295539
 70
    32
  0
VERTEX
  5
342
  8
TEAM-NET1
 10
-375.540016
 20
260.543081
 30
575.526872
 70
    32
  0
VERTEX
  5
343
  8
TEAM-NET1
 10
-373.670731
 20
262.2061
 30
575.561645
 70
    32
  0
VERTEX
  5
344
  8
TEAM-NET1
 10
-372.714954
 20
263.019295
 30
575.558808
 70
    32
  0
VERTEX
  5
345
  8
TEAM-NET1
 10
-372.23184
 20
263.421198
 30
575.552334
 70
    32
  0
VERTEX
  5
346
  8
TEAM-NET1
 10
-371.988984
 20
263.620961
 30
575.547833
 70
    32
  0
VERTEX
  5
347
  8
TEAM-NET1
 10
-371.745265
 20
263.819927
 30
575.542489
 70
    32
  0
VERTEX
  5
348
  8
TEAM-NET1
 10
-363.659008
 20
269.643503
 30
574.943424
 70
    32
  0
SEQEND
  5
349
  8
TEAM-NET1
  0
LINE
  5
34A
  8
TEAM-BODY
 10
-363.659008
 20
269.643503
 30
574.943424
 11
-363.659008
 21
269.643503
 31
346.0
  0
LINE
  5
34B
  8
TEAM-BODY
 10
0.0
 20
479.73889
 30
594.553613
 11
0.0
 21
479.73889
 31
346.0
  0
POLYLINE
  5
34C
  8
TEAM-BODY
 66
     1
 10
0.0
 20
0.0
 30
0.0
 70
     8
  0
VERTEX
  5
34D
  8
TEAM-BODY
 10
-363.659008
 20
269.643503
 30
574.943424
 70
    32
  0
VERTEX
  5
34E
  8
TEAM-BODY
 10
-379.004649
 20
257.18229
 30
575.30541
 70
    32
  0
VERTEX
  5
34F
  8
TEAM-BODY
 10
-390.93932
 20
241.709435
 30
572.194656
 70
    32
  0
VERTEX
  5
350
  8
TEAM-BODY
 10
-398.742934
 20
224.780794
 30
565.473024
 70
    32
  0
VERTEX
  5
351
  8
TEAM-BODY
 10
-402.494379
 20
208.115384
 30
555.417273
 70
    32
  0
VERTEX
  5
352
  8
TEAM-BODY
 10
-402.971651
 20
192.969218
 30
542.742636
 70
    32
  0
VERTEX
  5
353
  8
TEAM-BODY
 10
-401.161623
 20
179.765342
 30
528.154158
 70
    32
  0
VERTEX
  5
354
  8
TEAM-BODY
 10
-397.896337
 20
168.555533
 30
512.282432
 70
    32
  0
VERTEX
  5
355
  8
TEAM-BODY
 10
-393.750921
 20
159.094881
 30
495.40438
 70
    32
  0
VERTEX
  5
356
  8
TEAM-BODY
 10
-384.479058
 20
144.766548
 30
460.085579
 70
    32
  0
VERTEX
  5
357
  8
TEAM-BODY
 10
-375.367858
 20
135.051286
 30
423.004496
 70
    32
  0
VERTEX
  5
358
  8
TEAM-BODY
 10
-367.776449
 20
128.893384
 30
384.906534
 70
    32
  0
VERTEX
  5
359
  8
TEAM-BODY
 10
-362.693222
 20
125.504318
 30
346.0
 70
    32
  0
SEQEND
  5
35A
  8
TEAM-BODY
  0
POLYLINE
  5
35B
  8
TEAM-NET1
 66
     1
 10
0.0
 20
0.0
 30
0.0
 70
    16
 71
     2
 72
    16
  0
VERTEX
  5
35C
  8
TEAM-NET1
 10
-0.318771
 20
479.736957
 30
594.553293
 70
    64
  0
VERTEX
  5
35D
  8
TEAM-NET1
 10
-29.490317
 20
479.372209
 30
594.197481
 70
    64
  0
VERTEX
  5
35E
  8
TEAM-NET1
 10
-58.622876
 20
477.936312
 30
593.636521
 70
    64
  0
VERTEX
  5
35F
  8
TEAM-NET1
 10
-87.5919
 20
474.565234
 30
593.108757
 70
    64
  0
VERTEX
  5
360
  8
TEAM-NET1
 10
-116.097359
 20
468.453571
 30
592.441666
 70
    64
  0
VERTEX
  5
361
  8
TEAM-NET1
 10
-143.505853
 20
458.583493
 30
591.44252
 70
    64
  0
VERTEX
  5
362
  8
TEAM-NET1
 10
-169.182703
 20
444.842674
 30
590.077446
 70
    64
  0
VERTEX
  5
363
  8
TEAM-NET1
 10
-193.051333
 20
428.158168
 30
588.483702
 70
    64
  0
VERTEX
  5
364
  8
TEAM-NET1
 10
-215.678226
 20
409.815369
 30
586.839818
 70
    64
  0
VERTEX
  5
365
  8
TEAM-NET1
 10
-237.686102
 20
390.721974
 30
585.312502
 70
    64
  0
VERTEX
  5
366
  8
TEAM-NET1
 10
-259.211695
 20
371.088023
 30
583.759728
 70
    64
  0
VERTEX
  5
367
  8
TEAM-NET1
 10
-280.424745
 20
351.124479
 30
582.102163
 70
    64
  0
VERTEX
  5
368
  8
TEAM-NET1
 10
-301.562536
 20
331.086223
 30
580.384265
 70
    64
  0
VERTEX
  5
369
  8
TEAM-NET1
 10
-322.526279
 20
310.869463
 30
578.629334
 70
    64
  0
VERTEX
  5
36A
  8
TEAM-NET1
 10
-343.182244
 20
290.34364
 30
576.812882
 70
    64
  0
VERTEX
  5
36B
  8
TEAM-NET1
 10
-363.659008
 20
269.643503
 30
574.943424
 70
    64
  0
VERTEX
  5
36C
  8
TEAM-NET1
 10
0.0
 20
479.73889
 30
346.0
 70
    64
  0
VERTEX
  5
36D
  8
TEAM-NET1
 10
-29.161586
 20
479.380357
 30
346.0
 70
    64
  0
VERTEX
  5
36E
  8
TEAM-NET1
 10
-58.287841
 20
477.962507
 30
346.0
 70
    64
  0
VERTEX
  5
36F
  8
TEAM-NET1
 10
-87.252208
 20
474.619001
 30
346.0
 70
    64
  0
VERTEX
  5
370
  8
TEAM-NET1
 10
-115.761235
 20
468.546972
 30
346.0
 70
    64
  0
VERTEX
  5
371
  8
TEAM-NET1
 10
-143.191733
 20
458.724035
 30
346.0
 70
    64
  0
VERTEX
  5
372
  8
TEAM-NET1
 10
-168.907046
 20
445.014269
 30
346.0
 70
    64
  0
VERTEX
  5
373
  8
TEAM-NET1
 10
-192.818157
 20
428.336815
 30
346.0
 70
    64
  0
VERTEX
  5
374
  8
TEAM-NET1
 10
-215.479434
 20
409.982986
 30
346.0
 70
    64
  0
VERTEX
  5
375
  8
TEAM-NET1
 10
-237.512383
 20
390.876734
 30
346.0
 70
    64
  0
VERTEX
  5
376
  8
TEAM-NET1
 10
-259.06243
 20
371.226984
 30
346.0
 70
    64
  0
VERTEX
  5
377
  8
TEAM-NET1
 10
-280.301683
 20
351.240954
 30
346.0
 70
    64
  0
VERTEX
  5
378
  8
TEAM-NET1
 10
-301.467344
 20
331.176894
 30
346.0
 70
    64
  0
VERTEX
  5
379
  8
TEAM-NET1
 10
-322.461074
 20
310.933336
 30
346.0
 70
    64
  0
VERTEX
  5
37A
  8
TEAM-NET1
 10
-343.148876
 20
290.377184
 30
346.0
 70
    64
  0
VERTEX
  5
37B
  8
TEAM-NET1
 10
-363.659008
 20
269.643503
 30
346.0
 70
    64
  0
SEQEND
  5
37C
  8
TEAM-NET1
  0
POLYLINE
  5
37D
  8
TEAM-NET1
 66
     1
 10
0.0
 20
0.0
 30
0.0
 70
    16
 71
    11
 72
     7
  0
VERTEX
  5
37E
  8
TEAM-NET1
 10
-466.980768
 20
49.303065
 30
330.101265
 70
    64
  0
VERTEX
  5
37F
  8
TEAM-NET1
 10
-518.711985
 20
3.143126
 30
327.940446
 70
    64
  0
VERTEX
  5
380
  8
TEAM-NET1
 10
-566.332697
 20
-47.239236
 30
325.77055
 70
    64
  0
VERTEX
  5
381
  8
TEAM-NET1
 10
-608.897363
 20
-101.95081
 30
323.57843
 70
    64
  0
VERTEX
  5
382
  8
TEAM-NET1
 10
-645.18008
 20
-160.998079
 30
321.347303
 70
    64
  0
VERTEX
  5
383
  8
TEAM-NET1
 10
-668.520352
 20
-226.052614
 30
319.111836
 70
    64
  0
VERTEX
  5
384
  8
TEAM-NET1
 10
-672.97548
 20
-295.033705
 30
316.902244
 70
    64
  0
VERTEX
  5
385
  8
TEAM-NET1
 10
-475.791388
 20
58.670772
 30
357.091139
 70
    64
  0
VERTEX
  5
386
  8
TEAM-NET1
 10
-527.960427
 20
12.081596
 30
355.061217
 70
    64
  0
VERTEX
  5
387
  8
TEAM-NET1
 10
-576.611552
 20
-38.851626
 30
353.128066
 70
    64
  0
VERTEX
  5
388
  8
TEAM-NET1
 10
-620.587573
 20
-94.112142
 30
351.226108
 70
    64
  0
VERTEX
  5
389
  8
TEAM-NET1
 10
-658.38871
 20
-153.64968
 30
349.286236
 70
    64
  0
VERTEX
  5
38A
  8
TEAM-NET1
 10
-682.839008
 20
-219.260734
 30
347.289348
 70
    64
  0
VERTEX
  5
38B
  8
TEAM-NET1
 10
-687.763324
 20
-288.655611
 30
345.21202
 70
    64
  0
VERTEX
  5
38C
  8
TEAM-NET1
 10
-484.602007
 20
68.038479
 30
384.081012
 70
    64
  0
VERTEX
  5
38D
  8
TEAM-NET1
 10
-537.200407
 20
20.663866
 30
382.238778
 70
    64
  0
VERTEX
  5
38E
  8
TEAM-NET1
 10
-586.750836
 20
-30.815465
 30
380.529201
 70
    64
  0
VERTEX
  5
38F
  8
TEAM-NET1
 10
-632.090889
 20
-86.332159
 30
378.870105
 70
    64
  0
VERTEX
  5
390
  8
TEAM-NET1
 10
-671.546661
 20
-145.966617
 30
377.176059
 70
    64
  0
VERTEX
  5
391
  8
TEAM-NET1
 10
-697.112357
 20
-212.13914
 30
375.40773
 70
    64
  0
VERTEX
  5
392
  8
TEAM-NET1
 10
-702.551168
 20
-282.277518
 30
373.521795
 70
    64
  0
VERTEX
  5
393
  8
TEAM-NET1
 10
-493.412627
 20
77.406186
 30
411.070886
 70
    64
  0
VERTEX
  5
394
  8
TEAM-NET1
 10
-546.434041
 20
28.978985
 30
409.458931
 70
    64
  0
VERTEX
  5
395
  8
TEAM-NET1
 10
-596.785444
 20
-23.042892
 30
407.96305
 70
    64
  0
VERTEX
  5
396
  8
TEAM-NET1
 10
-643.454034
 20
-78.59619
 30
406.511342
 70
    64
  0
VERTEX
  5
397
  8
TEAM-NET1
 10
-684.666603
 20
-138.032556
 30
405.029052
 70
    64
  0
VERTEX
  5
398
  8
TEAM-NET1
 10
-711.351726
 20
-204.77026
 30
403.481763
 70
    64
  0
VERTEX
  5
399
  8
TEAM-NET1
 10
-717.339012
 20
-275.899424
 30
401.831571
 70
    64
  0
VERTEX
  5
39A
  8
TEAM-NET1
 10
-502.223246
 20
86.773893
 30
438.060759
 70
    64
  0
VERTEX
  5
39B
  8
TEAM-NET1
 10
-555.663445
 20
37.116004
 30
436.707478
 70
    64
  0
VERTEX
  5
39C
  8
TEAM-NET1
 10
-606.750266
 20
-15.446044
 30
435.41871
 70
    64
  0
VERTEX
  5
39D
  8
TEAM-NET1
 10
-654.723732
 20
-70.889563
 30
434.150738
 70
    64
  0
VERTEX
  5
39E
  8
TEAM-NET1
 10
-697.761205
 20
-129.931163
 30
432.85749
 70
    64
  0
VERTEX
  5
39F
  8
TEAM-NET1
 10
-725.56844
 20
-197.236523
 30
431.526232
 70
    64
  0
VERTEX
  5
3A0
  8
TEAM-NET1
 10
-732.126855
 20
-269.521331
 30
430.141346
 70
    64
  0
VERTEX
  5
3A1
  8
TEAM-NET1
 10
-511.033866
 20
96.1416
 30
465.050633
 70
    64
  0
VERTEX
  5
3A2
  8
TEAM-NET1
 10
-564.890734
 20
45.163972
 30
463.970223
 70
    64
  0
VERTEX
  5
3A3
  8
TEAM-NET1
 10
-616.680196
 20
-7.937057
 30
462.885275
 70
    64
  0
VERTEX
  5
3A4
  8
TEAM-NET1
 10
-665.946706
 20
-63.197607
 30
461.789215
 70
    64
  0
VERTEX
  5
3A5
  8
TEAM-NET1
 10
-710.843137
 20
-121.746105
 30
460.673652
 70
    64
  0
VERTEX
  5
3A6
  8
TEAM-NET1
 10
-739.773827
 20
-189.620357
 30
459.555918
 70
    64
  0
VERTEX
  5
3A7
  8
TEAM-NET1
 10
-746.914699
 20
-263.143237
 30
458.451122
 70
    64
  0
VERTEX
  5
3A8
  8
TEAM-NET1
 10
-519.844485
 20
105.509307
 30
492.040506
 70
    64
  0
VERTEX
  5
3A9
  8
TEAM-NET1
 10
-574.118023
 20
53.211941
 30
491.232968
 70
    64
  0
VERTEX
  5
3AA
  8
TEAM-NET1
 10
-626.610125
 20
-0.428071
 30
490.35184
 70
    64
  0
VERTEX
  5
3AB
  8
TEAM-NET1
 10
-677.16968
 20
-55.505652
 30
489.427692
 70
    64
  0
VERTEX
  5
3AC
  8
TEAM-NET1
 10
-723.92507
 20
-113.561046
 30
488.489813
 70
    64
  0
VERTEX
  5
3AD
  8
TEAM-NET1
 10
-753.979214
 20
-182.004191
 30
487.585604
 70
    64
  0
VERTEX
  5
3AE
  8
TEAM-NET1
 10
-761.702543
 20
-256.765144
 30
486.760898
 70
    64
  0
VERTEX
  5
3AF
  8
TEAM-NET1
 10
-528.655105
 20
114.877014
 30
519.03038
 70
    64
  0
VERTEX
  5
3B0
  8
TEAM-NET1
 10
-583.347426
 20
61.348959
 30
518.481515
 70
    64
  0
VERTEX
  5
3B1
  8
TEAM-NET1
 10
-636.574947
 20
7.168777
 30
517.8075
 70
    64
  0
VERTEX
  5
3B2
  8
TEAM-NET1
 10
-688.439378
 20
-47.799025
 30
517.067088
 70
    64
  0
VERTEX
  5
3B3
  8
TEAM-NET1
 10
-737.019672
 20
-105.459653
 30
516.318251
 70
    64
  0
VERTEX
  5
3B4
  8
TEAM-NET1
 10
-768.195928
 20
-174.470454
 30
515.630072
 70
    64
  0
VERTEX
  5
3B5
  8
TEAM-NET1
 10
-776.490387
 20
-250.38705
 30
515.070673
 70
    64
  0
VERTEX
  5
3B6
  8
TEAM-NET1
 10
-537.465724
 20
124.244721
 30
546.020253
 70
    64
  0
VERTEX
  5
3B7
  8
TEAM-NET1
 10
-592.581061
 20
69.664079
 30
545.701668
 70
    64
  0
VERTEX
  5
3B8
  8
TEAM-NET1
 10
-646.609555
 20
14.941351
 30
545.24135
 70
    64
  0
VERTEX
  5
3B9
  8
TEAM-NET1
 10
-699.802523
 20
-40.063055
 30
544.708325
 70
    64
  0
VERTEX
  5
3BA
  8
TEAM-NET1
 10
-750.139613
 20
-97.525592
 30
544.171244
 70
    64
  0
VERTEX
  5
3BB
  8
TEAM-NET1
 10
-782.435296
 20
-167.101574
 30
543.704106
 70
    64
  0
VERTEX
  5
3BC
  8
TEAM-NET1
 10
-791.278231
 20
-244.008957
 30
543.380449
 70
    64
  0
VERTEX
  5
3BD
  8
TEAM-NET1
 10
-546.276343
 20
133.612428
 30
573.010127
 70
    64
  0
VERTEX
  5
3BE
  8
TEAM-NET1
 10
-601.821041
 20
78.246348
 30
572.879229
 70
    64
  0
VERTEX
  5
3BF
  8
TEAM-NET1
 10
-656.748839
 20
22.977511
 30
572.642485
 70
    64
  0
VERTEX
  5
3C0
  8
TEAM-NET1
 10
-711.305839
 20
-32.283073
 30
572.352322
 70
    64
  0
VERTEX
  5
3C1
  8
TEAM-NET1
 10
-763.297564
 20
-89.842529
 30
572.061068
 70
    64
  0
VERTEX
  5
3C2
  8
TEAM-NET1
 10
-796.708645
 20
-159.97998
 30
571.822488
 70
    64
  0
VERTEX
  5
3C3
  8
TEAM-NET1
 10
-806.066075
 20
-237.630863
 30
571.690224
 70
    64
  0
VERTEX
  5
3C4
  8
TEAM-NET1
 10
-555.086963
 20
142.980135
 30
600.0
 70
    64
  0
VERTEX
  5
3C5
  8
TEAM-NET1
 10
-611.069482
 20
87.184819
 30
600.0
 70
    64
  0
VERTEX
  5
3C6
  8
TEAM-NET1
 10
-667.027694
 20
31.365121
 30
600.0
 70
    64
  0
VERTEX
  5
3C7
  8
TEAM-NET1
 10
-722.996049
 20
-24.444405
 30
600.0
 70
    64
  0
VERTEX
  5
3C8
  8
TEAM-NET1
 10
-776.506195
 20
-82.49413
 30
600.0
 70
    64
  0
VERTEX
  5
3C9
  8
TEAM-NET1
 10
-811.027302
 20
-153.1881
 30
600.0
 70
    64
  0
VERTEX
  5
3CA
  8
TEAM-NET1
 10
-820.853919
 20
-231.25277
 30
600.0
 70
    64
  0
SEQEND
  5
3CB
  8
TEAM-NET1
  0
POLYLINE
  5
3CC
  8
TEAM-NET1
 66
     1
 10
0.0
 20
0.0
 30
0.0
 70
    16
 71
    11
 72
     7
  0
VERTEX
  5
3CD
  8
TEAM-NET1
 10
-362.376861
 20
124.580805
 30
334.123929
 70
    64
  0
VERTEX
  5
3CE
  8
TEAM-NET1
 10
-380.448897
 20
112.946466
 30
333.451719
 70
    64
  0
VERTEX
  5
3CF
  8
TEAM-NET1
 10
-398.286002
 20
100.955035
 30
332.780467
 70
    64
  0
VERTEX
  5
3D0
  8
TEAM-NET1
 10
-415.873922
 20
88.60101
 30
332.110019
 70
    64
  0
VERTEX
  5
3D1
  8
TEAM-NET1
 10
-433.197085
 20
75.878408
 30
331.44014
 70
    64
  0
VERTEX
  5
3D2
  8
TEAM-NET1
 10
-450.238789
 20
62.781225
 30
330.770616
 70
    64
  0
VERTEX
  5
3D3
  8
TEAM-NET1
 10
-466.980768
 20
49.303065
 30
330.101265
 70
    64
  0
VERTEX
  5
3D4
  8
TEAM-NET1
 10
-363.376762
 20
125.770134
 30
351.039979
 70
    64
  0
VERTEX
  5
3D5
  8
TEAM-NET1
 10
-382.156268
 20
114.868825
 30
351.394383
 70
    64
  0
VERTEX
  5
3D6
  8
TEAM-NET1
 10
-401.399163
 20
104.345821
 30
352.532605
 70
    64
  0
VERTEX
  5
3D7
  8
TEAM-NET1
 10
-420.74572
 20
93.833074
 30
354.063053
 70
    64
  0
VERTEX
  5
3D8
  8
TEAM-NET1
 10
-439.834933
 20
82.96207
 30
355.594054
 70
    64
  0
VERTEX
  5
3D9
  8
TEAM-NET1
 10
-458.304697
 20
71.364275
 30
356.733956
 70
    64
  0
VERTEX
  5
3DA
  8
TEAM-NET1
 10
-475.791388
 20
58.670772
 30
357.091139
 70
    64
  0
VERTEX
  5
3DB
  8
TEAM-NET1
 10
-365.17633
 20
127.093893
 30
367.876876
 70
    64
  0
VERTEX
  5
3DC
  8
TEAM-NET1
 10
-384.825039
 20
117.133756
 30
369.744451
 70
    64
  0
VERTEX
  5
3DD
  8
TEAM-NET1
 10
-405.255968
 20
107.975276
 30
372.610723
 70
    64
  0
VERTEX
  5
3DE
  8
TEAM-NET1
 10
-425.959985
 20
99.052717
 30
375.976634
 70
    64
  0
VERTEX
  5
3DF
  8
TEAM-NET1
 10
-446.42678
 20
89.799913
 30
379.343056
 70
    64
  0
VERTEX
  5
3E0
  8
TEAM-NET1
 10
-466.145029
 20
79.65068
 30
382.210876
 70
    64
  0
VERTEX
  5
3E1
  8
TEAM-NET1
 10
-484.602007
 20
68.038479
 30
384.081012
 70
    64
  0
VERTEX
  5
3E2
  8
TEAM-NET1
 10
-367.721411
 20
128.853792
 30
384.579365
 70
    64
  0
VERTEX
  5
3E3
  8
TEAM-NET1
 10
-388.349825
 20
119.966094
 30
388.330586
 70
    64
  0
VERTEX
  5
3E4
  8
TEAM-NET1
 10
-409.778479
 20
112.032116
 30
392.877736
 70
    64
  0
VERTEX
  5
3E5
  8
TEAM-NET1
 10
-431.503983
 20
104.430704
 30
397.823104
 70
    64
  0
VERTEX
  5
3E6
  8
TEAM-NET1
 10
-453.021918
 20
96.540327
 30
402.768919
 70
    64
  0
VERTEX
  5
3E7
  8
TEAM-NET1
 10
-473.826977
 20
87.73944
 30
407.317423
 70
    64
  0
VERTEX
  5
3E8
  8
TEAM-NET1
 10
-493.412627
 20
77.406186
 30
411.070886
 70
    64
  0
VERTEX
  5
3E9
  8
TEAM-NET1
 10
-370.738198
 20
131.125282
 30
401.141025
 70
    64
  0
VERTEX
  5
3EA
  8
TEAM-NET1
 10
-392.421861
 20
123.381177
 30
407.026672
 70
    64
  0
VERTEX
  5
3EB
  8
TEAM-NET1
 10
-414.726052
 20
116.537458
 30
413.232737
 70
    64
  0
VERTEX
  5
3EC
  8
TEAM-NET1
 10
-437.255152
 20
110.024668
 30
419.599221
 70
    64
  0
VERTEX
  5
3ED
  8
TEAM-NET1
 10
-459.612689
 20
103.27304
 30
425.966075
 70
    64
  0
VERTEX
  5
3EE
  8
TEAM-NET1
 10
-481.40146
 20
95.712794
 30
432.17326
 70
    64
  0
VERTEX
  5
3EF
  8
TEAM-NET1
 10
-502.223246
 20
86.773893
 30
438.060759
 70
    64
  0
VERTEX
  5
3F0
  8
TEAM-NET1
 10
-374.148506
 20
133.961035
 30
417.53848
 70
    64
  0
VERTEX
  5
3F1
  8
TEAM-NET1
 10
-396.91351
 20
127.37325
 30
425.690889
 70
    64
  0
VERTEX
  5
3F2
  8
TEAM-NET1
 10
-420.002947
 20
121.495545
 30
433.562257
 70
    64
  0
VERTEX
  5
3F3
  8
TEAM-NET1
 10
-443.18874
 20
115.880855
 30
441.293267
 70
    64
  0
VERTEX
  5
3F4
  8
TEAM-NET1
 10
-466.242155
 20
110.081876
 30
449.024562
 70
    64
  0
VERTEX
  5
3F5
  8
TEAM-NET1
 10
-488.93389
 20
103.651295
 30
456.896794
 70
    64
  0
VERTEX
  5
3F6
  8
TEAM-NET1
 10
-511.033866
 20
96.1416
 30
465.050633
 70
    64
  0
VERTEX
  5
3F7
  8
TEAM-NET1
 10
-377.87043
 20
137.426711
 30
433.745904
 70
    64
  0
VERTEX
  5
3F8
  8
TEAM-NET1
 10
-401.693691
 20
131.948586
 30
444.179152
 70
    64
  0
VERTEX
  5
3F9
  8
TEAM-NET1
 10
-425.510667
 20
126.920242
 30
453.751014
 70
    64
  0
VERTEX
  5
3FA
  8
TEAM-NET1
 10
-449.278135
 20
122.052004
 30
462.892298
 70
    64
  0
VERTEX
  5
3FB
  8
TEAM-NET1
 10
-472.952409
 20
117.054026
 30
472.033782
 70
    64
  0
VERTEX
  5
3FC
  8
TEAM-NET1
 10
-496.489403
 20
111.636457
 30
481.606252
 70
    64
  0
VERTEX
  5
3FD
  8
TEAM-NET1
 10
-519.844485
 20
105.509307
 30
492.040506
 70
    64
  0
VERTEX
  5
3FE
  8
TEAM-NET1
 10
-381.815749
 20
141.599628
 30
449.732074
 70
    64
  0
VERTEX
  5
3FF
  8
TEAM-NET1
 10
-406.625479
 20
137.12425
 30
462.342376
 70
    64
  0
VERTEX
  5
400
  8
TEAM-NET1
 10
-431.146042
 20
132.834049
 30
473.679726
 70
    64
  0
VERTEX
  5
401
  8
TEAM-NET1
 10
-455.49357
 20
128.596681
 30
484.38067
 70
    64
  0
VERTEX
  5
402
  8
TEAM-NET1
 10
-479.783911
 20
124.279701
 30
495.081737
 70
    64
  0
VERTEX
  5
403
  8
TEAM-NET1
 10
-504.132667
 20
119.750658
 30
506.41946
 70
    64
  0
VERTEX
  5
404
  8
TEAM-NET1
 10
-528.655105
 20
114.877014
 30
519.03038
 70
    64
  0
VERTEX
  5
405
  8
TEAM-NET1
 10
-385.883646
 20
146.571216
 30
465.456549
 70
    64
  0
VERTEX
  5
406
  8
TEAM-NET1
 10
-411.56028
 20
142.930374
 30
480.022944
 70
    64
  0
VERTEX
  5
407
  8
TEAM-NET1
 10
-436.796565
 20
139.269917
 30
493.222285
 70
    64
  0
VERTEX
  5
408
  8
TEAM-NET1
 10
-461.798976
 20
135.580512
 30
505.738133
 70
    64
  0
VERTEX
  5
409
  8
TEAM-NET1
 10
-486.773852
 20
131.852775
 30
518.254041
 70
    64
  0
VERTEX
  5
40A
  8
TEAM-NET1
 10
-511.927415
 20
128.07732
 30
531.453562
 70
    64
  0
VERTEX
  5
40B
  8
TEAM-NET1
 10
-537.465724
 20
124.244721
 30
546.020253
 70
    64
  0
VERTEX
  5
40C
  8
TEAM-NET1
 10
-389.952836
 20
152.443629
 30
480.866299
 70
    64
  0
VERTEX
  5
40D
  8
TEAM-NET1
 10
-416.330554
 20
149.407021
 30
497.051579
 70
    64
  0
VERTEX
  5
40E
  8
TEAM-NET1
 10
-442.334572
 20
146.268745
 30
512.243256
 70
    64
  0
VERTEX
  5
40F
  8
TEAM-NET1
 10
-468.148053
 20
143.074482
 30
526.938141
 70
    64
  0
VERTEX
  5
410
  8
TEAM-NET1
 10
-493.954121
 20
139.8699
 30
541.633042
 70
    64
  0
VERTEX
  5
411
  8
TEAM-NET1
 10
-519.935868
 20
136.700663
 30
556.824767
 70
    64
  0
VERTEX
  5
412
  8
TEAM-NET1
 10
-546.276343
 20
133.612428
 30
573.010127
 70
    64
  0
VERTEX
  5
413
  8
TEAM-NET1
 10
-393.874325
 20
159.336517
 30
495.885675
 70
    64
  0
VERTEX
  5
414
  8
TEAM-NET1
 10
-420.743098
 20
156.610454
 30
513.238063
 70
    64
  0
VERTEX
  5
415
  8
TEAM-NET1
 10
-447.611871
 20
153.88439
 30
530.59045
 70
    64
  0
VERTEX
  5
416
  8
TEAM-NET1
 10
-474.480644
 20
151.158326
 30
547.942838
 70
    64
  0
VERTEX
  5
417
  8
TEAM-NET1
 10
-501.349417
 20
148.432262
 30
565.295225
 70
    64
  0
VERTEX
  5
418
  8
TEAM-NET1
 10
-528.21819
 20
145.706199
 30
582.647613
 70
    64
  0
VERTEX
  5
419
  8
TEAM-NET1
 10
-555.086963
 20
142.980135
 30
600.0
 70
    64
  0
SEQEND
  5
41A
  8
TEAM-NET1
  0
LINE
  5
41B
  8
TEAM-NET1
 10
391.748986
 20
156.140204
 30
490.285873
 11
391.748986
 21
156.140204
 31
346.0
1001
ACAD
1000
R13OBJECT
1002
{
1005
41F
1002
}
  0
LINE
  5
41C
  8
TEAM-NET1
 10
402.80952
 20
197.753257
 30
547.613721
 11
402.80952
 21
197.753257
 31
346.0
1001
ACAD
1000
R13OBJECT
1002
{
1005
41F
1002
}
  0
LINE
  5
41D
  8
TEAM-NET1
 10
392.058657
 20
239.447387
 30
575.854461
 11
392.058657
 21
239.447387
 31
346.0
1001
ACAD
1000
R13OBJECT
1002
{
1005
41F
1002
}
  0
LINE
  5
41E
  8
TEAM-NET1
 10
363.659008
 20
269.643503
 30
575.272517
 11
363.659008
 21
269.643503
 31
346.0
1001
ACAD
1000
R13OBJECT
1002
{
1005
41F
1002
}
  0
POLYLINE
  5
41F
  8
TEAM-NET1
 66
     1
 10
0.0
 20
0.0
 30
0.0
 70
     8
  0
VERTEX
  5
420
  8
TEAM-NET1
 10
363.659008
 20
269.643503
 30
575.272517
 70
    32
  0
VERTEX
  5
421
  8
TEAM-NET1
 10
367.773056
 20
266.834788
 30
575.653384
 70
    32
  0
VERTEX
  5
422
  8
TEAM-NET1
 10
369.757443
 20
265.348295
 30
575.767055
 70
    32
  0
VERTEX
  5
423
  8
TEAM-NET1
 10
370.730905
 20
264.5853
 30
575.8047
 70
    32
  0
VERTEX
  5
424
  8
TEAM-NET1
 10
371.212884
 20
264.198964
 30
575.818725
 70
    32
  0
VERTEX
  5
425
  8
TEAM-NET1
 10
371.452678
 20
264.0046
 30
575.824538
 70
    32
  0
VERTEX
  5
426
  8
TEAM-NET1
 10
371.691671
 20
263.809442
 30
575.829551
 70
    32
  0
VERTEX
  5
427
  8
TEAM-NET1
 10
375.445668
 20
260.544349
 30
575.799415
 70
    32
  0
VERTEX
  5
428
  8
TEAM-NET1
 10
377.238223
 20
258.841736
 30
575.705697
 70
    32
  0
VERTEX
  5
429
  8
TEAM-NET1
 10
378.112987
 20
257.973831
 30
575.639176
 70
    32
  0
VERTEX
  5
42A
  8
TEAM-NET1
 10
378.544944
 20
257.535843
 30
575.601
 70
    32
  0
VERTEX
  5
42B
  8
TEAM-NET1
 10
378.759561
 20
257.315855
 30
575.580683
 70
    32
  0
VERTEX
  5
42C
  8
TEAM-NET1
 10
378.973268
 20
257.09521
 30
575.559547
 70
    32
  0
VERTEX
  5
42D
  8
TEAM-NET1
 10
382.329545
 20
253.406747
 30
575.098667
 70
    32
  0
VERTEX
  5
42E
  8
TEAM-NET1
 10
383.91081
 20
251.50794
 30
574.786616
 70
    32
  0
VERTEX
  5
42F
  8
TEAM-NET1
 10
384.67707
 20
250.545968
 30
574.610188
 70
    32
  0
VERTEX
  5
430
  8
TEAM-NET1
 10
385.427035
 20
249.576023
 30
574.420158
 70
    32
  0
VERTEX
  5
431
  8
TEAM-NET1
 10
388.272433
 20
245.609312
 30
573.52039
 70
    32
  0
VERTEX
  5
432
  8
TEAM-NET1
 10
389.594124
 20
243.589047
 30
572.988771
 70
    32
  0
VERTEX
  5
433
  8
TEAM-NET1
 10
390.229797
 20
242.570775
 30
572.702527
 70
    32
  0
VERTEX
  5
434
  8
TEAM-NET1
 10
390.541354
 20
242.059737
 30
572.554297
 70
    32
  0
VERTEX
  5
435
  8
TEAM-NET1
 10
390.695565
 20
241.803759
 30
572.478904
 70
    32
  0
VERTEX
  5
436
  8
TEAM-NET1
 10
390.848731
 20
241.547481
 30
572.402661
 70
    32
  0
VERTEX
  5
437
  8
TEAM-NET1
 10
395.244877
 20
233.124266
 30
569.476053
 70
    32
  0
VERTEX
  5
438
  8
TEAM-NET1
 10
397.041106
 20
228.849873
 30
567.679393
 70
    32
  0
VERTEX
  5
439
  8
TEAM-NET1
 10
397.84135
 20
226.704864
 30
566.697724
 70
    32
  0
VERTEX
  5
43A
  8
TEAM-NET1
 10
398.21738
 20
225.631338
 30
566.186055
 70
    32
  0
VERTEX
  5
43B
  8
TEAM-NET1
 10
398.399423
 20
225.094432
 30
565.925012
 70
    32
  0
VERTEX
  5
43C
  8
TEAM-NET1
 10
398.488957
 20
224.825957
 30
565.793188
 70
    32
  0
VERTEX
  5
43D
  8
TEAM-NET1
 10
398.533354
 20
224.691716
 30
565.726951
 70
    32
  0
VERTEX
  5
43E
  8
TEAM-NET1
 10
398.577503
 20
224.557473
 30
565.660496
 70
    32
  0
VERTEX
  5
43F
  8
TEAM-NET1
 10
400.862798
 20
216.159287
 30
561.062456
 70
    32
  0
VERTEX
  5
440
  8
TEAM-NET1
 10
401.663499
 20
211.983553
 30
558.439538
 70
    32
  0
VERTEX
  5
441
  8
TEAM-NET1
 10
401.981746
 20
209.907087
 30
557.047105
 70
    32
  0
VERTEX
  5
442
  8
TEAM-NET1
 10
402.120796
 20
208.872351
 30
556.330644
 70
    32
  0
VERTEX
  5
443
  8
TEAM-NET1
 10
402.185361
 20
208.355935
 30
555.967353
 70
    32
  0
VERTEX
  5
444
  8
TEAM-NET1
 10
402.21641
 20
208.097975
 30
555.784442
 70
    32
  0
VERTEX
  5
445
  8
TEAM-NET1
 10
402.231628
 20
207.969058
 30
555.69267
 70
    32
  0
VERTEX
  5
446
  8
TEAM-NET1
 10
402.23916
 20
207.904616
 30
555.646705
 70
    32
  0
VERTEX
  5
447
  8
TEAM-NET1
 10
402.246641
 20
207.840184
 30
555.600688
 70
    32
  0
VERTEX
  5
448
  8
TEAM-NET1
 10
402.7846
 20
200.151435
 30
549.659427
 70
    32
  0
VERTEX
  5
449
  8
TEAM-NET1
 10
402.793214
 20
196.374637
 30
546.393521
 70
    32
  0
VERTEX
  5
44A
  8
TEAM-NET1
 10
402.73541
 20
194.506503
 30
544.686748
 70
    32
  0
VERTEX
  5
44B
  8
TEAM-NET1
 10
402.691365
 20
193.577893
 30
543.814907
 70
    32
  0
VERTEX
  5
44C
  8
TEAM-NET1
 10
402.665606
 20
193.114999
 30
543.374373
 70
    32
  0
VERTEX
  5
44D
  8
TEAM-NET1
 10
402.651798
 20
192.88391
 30
543.152952
 70
    32
  0
VERTEX
  5
44E
  8
TEAM-NET1
 10
402.644663
 20
192.768456
 30
543.041953
 70
    32
  0
VERTEX
  5
44F
  8
TEAM-NET1
 10
402.641038
 20
192.710751
 30
542.986382
 70
    32
  0
VERTEX
  5
450
  8
TEAM-NET1
 10
402.637374
 20
192.653062
 30
542.930763
 70
    32
  0
VERTEX
  5
451
  8
TEAM-NET1
 10
401.936028
 20
185.910703
 30
535.978496
 70
    32
  0
VERTEX
  5
452
  8
TEAM-NET1
 10
401.395969
 20
182.62889
 30
532.24562
 70
    32
  0
VERTEX
  5
453
  8
TEAM-NET1
 10
401.081107
 20
181.012236
 30
530.314997
 70
    32
  0
VERTEX
  5
454
  8
TEAM-NET1
 10
400.912785
 20
180.21019
 30
529.333639
 70
    32
  0
VERTEX
  5
455
  8
TEAM-NET1
 10
400.825942
 20
179.810763
 30
528.838948
 70
    32
  0
VERTEX
  5
456
  8
TEAM-NET1
 10
400.781855
 20
179.611452
 30
528.590599
 70
    32
  0
VERTEX
  5
457
  8
TEAM-NET1
 10
400.759645
 20
179.511897
 30
528.466175
 70
    32
  0
VERTEX
  5
458
  8
TEAM-NET1
 10
400.748499
 20
179.462145
 30
528.4039
 70
    32
  0
VERTEX
  5
459
  8
TEAM-NET1
 10
400.737325
 20
179.41241
 30
528.341583
 70
    32
  0
VERTEX
  5
45A
  8
TEAM-NET1
 10
399.230609
 20
173.662214
 30
520.689343
 70
    32
  0
VERTEX
  5
45B
  8
TEAM-NET1
 10
398.346526
 20
170.886774
 30
516.650856
 70
    32
  0
VERTEX
  5
45C
  8
TEAM-NET1
 10
397.873968
 20
169.524899
 30
514.578521
 70
    32
  0
VERTEX
  5
45D
  8
TEAM-NET1
 10
397.63033
 20
168.850524
 30
513.52908
 70
    32
  0
VERTEX
  5
45E
  8
TEAM-NET1
 10
397.506704
 20
168.514988
 30
513.001042
 70
    32
  0
VERTEX
  5
45F
  8
TEAM-NET1
 10
397.444444
 20
168.347636
 30
512.736193
 70
    32
  0
VERTEX
  5
460
  8
TEAM-NET1
 10
397.413202
 20
168.264063
 30
512.603561
 70
    32
  0
VERTEX
  5
461
  8
TEAM-NET1
 10
397.397554
 20
168.222302
 30
512.537193
 70
    32
  0
VERTEX
  5
462
  8
TEAM-NET1
 10
397.381887
 20
168.180559
 30
512.470791
 70
    32
  0
VERTEX
  5
463
  8
TEAM-NET1
 10
395.378656
 20
163.311194
 30
504.271545
 70
    32
  0
VERTEX
  5
464
  8
TEAM-NET1
 10
394.289124
 20
160.975283
 30
499.989486
 70
    32
  0
VERTEX
  5
465
  8
TEAM-NET1
 10
393.724161
 20
159.832371
 30
497.802847
 70
    32
  0
VERTEX
  5
466
  8
TEAM-NET1
 10
393.43685
 20
159.26721
 30
496.698125
 70
    32
  0
VERTEX
  5
467
  8
TEAM-NET1
 10
393.292014
 20
158.986206
 30
496.142913
 70
    32
  0
VERTEX
  5
468
  8
TEAM-NET1
 10
393.219304
 20
158.846099
 30
495.864595
 70
    32
  0
VERTEX
  5
469
  8
TEAM-NET1
 10
393.182877
 20
158.776145
 30
495.725257
 70
    32
  0
VERTEX
  5
46A
  8
TEAM-NET1
 10
393.164645
 20
158.741192
 30
495.655544
 70
    32
  0
VERTEX
  5
46B
  8
TEAM-NET1
 10
393.146401
 20
158.706256
 30
495.585801
 70
    32
  0
VERTEX
  5
46C
  8
TEAM-NET1
 10
390.890496
 20
154.661191
 30
487.061865
 70
    32
  0
VERTEX
  5
46D
  8
TEAM-NET1
 10
389.710462
 20
152.733372
 30
482.655204
 70
    32
  0
VERTEX
  5
46E
  8
TEAM-NET1
 10
389.10891
 20
151.793082
 30
480.4157
 70
    32
  0
VERTEX
  5
46F
  8
TEAM-NET1
 10
388.805431
 20
151.328828
 30
479.286905
 70
    32
  0
VERTEX
  5
470
  8
TEAM-NET1
 10
388.653038
 20
151.098172
 30
478.720247
 70
    32
  0
VERTEX
  5
471
  8
TEAM-NET1
 10
388.576681
 20
150.983211
 30
478.436353
 70
    32
  0
VERTEX
  5
472
  8
TEAM-NET1
 10
388.538463
 20
150.925823
 30
478.294264
 70
    32
  0
VERTEX
  5
473
  8
TEAM-NET1
 10
388.519344
 20
150.897151
 30
478.223185
 70
    32
  0
VERTEX
  5
474
  8
TEAM-NET1
 10
388.500218
 20
150.868495
 30
478.152082
 70
    32
  0
VERTEX
  5
475
  8
TEAM-NET1
 10
386.131285
 20
147.500288
 30
469.335766
 70
    32
  0
VERTEX
  5
476
  8
TEAM-NET1
 10
384.925595
 20
145.910697
 30
464.823791
 70
    32
  0
VERTEX
  5
477
  8
TEAM-NET1
 10
384.3188
 20
145.139134
 30
462.541849
 70
    32
  0
VERTEX
  5
478
  8
TEAM-NET1
 10
384.014579
 20
144.759106
 30
461.394389
 70
    32
  0
VERTEX
  5
479
  8
TEAM-NET1
 10
383.862282
 20
144.570524
 30
460.819037
 70
    32
  0
VERTEX
  5
47A
  8
TEAM-NET1
 10
383.78609
 20
144.47659
 30
460.530956
 70
    32
  0
VERTEX
  5
47B
  8
TEAM-NET1
 10
383.747983
 20
144.429712
 30
460.386814
 70
    32
  0
VERTEX
  5
47C
  8
TEAM-NET1
 10
383.709869
 20
144.382894
 30
460.242604
 70
    32
  0
VERTEX
  5
47D
  8
TEAM-NET1
 10
381.33635
 20
141.594299
 30
451.164662
 70
    32
  0
VERTEX
  5
47E
  8
TEAM-NET1
 10
380.152686
 20
140.290304
 30
446.549373
 70
    32
  0
VERTEX
  5
47F
  8
TEAM-NET1
 10
379.56281
 20
139.660282
 30
444.22265
 70
    32
  0
VERTEX
  5
480
  8
TEAM-NET1
 10
379.268502
 20
139.350688
 30
443.054518
 70
    32
  0
VERTEX
  5
481
  8
TEAM-NET1
 10
379.121523
 20
139.197236
 30
442.46926
 70
    32
  0
VERTEX
  5
482
  8
TEAM-NET1
 10
379.04808
 20
139.120844
 30
442.176333
 70
    32
  0
VERTEX
  5
483
  8
TEAM-NET1
 10
378.974668
 20
139.044676
 30
441.883207
 70
    32
  0
VERTEX
  5
484
  8
TEAM-NET1
 10
376.687369
 20
136.762872
 30
432.569724
 70
    32
  0
VERTEX
  5
485
  8
TEAM-NET1
 10
375.567853
 20
135.707027
 30
427.863165
 70
    32
  0
VERTEX
  5
486
  8
TEAM-NET1
 10
375.015143
 20
135.199639
 30
425.497431
 70
    32
  0
VERTEX
  5
487
  8
TEAM-NET1
 10
374.74067
 20
134.950987
 30
424.31145
 70
    32
  0
VERTEX
  5
488
  8
TEAM-NET1
 10
374.603919
 20
134.82791
 30
423.717682
 70
    32
  0
VERTEX
  5
489
  8
TEAM-NET1
 10
374.467497
 20
134.705662
 30
423.123394
 70
    32
  0
VERTEX
  5
48A
  8
TEAM-NET1
 10
372.359944
 20
132.882445
 30
413.66689
 70
    32
  0
VERTEX
  5
48B
  8
TEAM-NET1
 10
371.348361
 20
132.049104
 30
408.914256
 70
    32
  0
VERTEX
  5
48C
  8
TEAM-NET1
 10
370.853954
 20
131.651221
 30
406.531843
 70
    32
  0
VERTEX
  5
48D
  8
TEAM-NET1
 10
370.609695
 20
131.45688
 30
405.339113
 70
    32
  0
VERTEX
  5
48E
  8
TEAM-NET1
 10
370.367435
 20
131.265571
 30
404.145367
 70
    32
  0
VERTEX
  5
48F
  8
TEAM-NET1
 10
368.505208
 20
129.841608
 30
394.560158
 70
    32
  0
VERTEX
  5
490
  8
TEAM-NET1
 10
367.631822
 20
129.201252
 30
389.766101
 70
    32
  0
VERTEX
  5
491
  8
TEAM-NET1
 10
367.210231
 20
128.898214
 30
387.368708
 70
    32
  0
VERTEX
  5
492
  8
TEAM-NET1
 10
367.003289
 20
128.750888
 30
386.169921
 70
    32
  0
VERTEX
  5
493
  8
TEAM-NET1
 10
366.90079
 20
128.678261
 30
385.570505
 70
    32
  0
VERTEX
  5
494
  8
TEAM-NET1
 10
366.849785
 20
128.642206
 30
385.270792
 70
    32
  0
VERTEX
  5
495
  8
TEAM-NET1
 10
366.824344
 20
128.624242
 30
385.120933
 70
    32
  0
VERTEX
  5
496
  8
TEAM-NET1
 10
366.798944
 20
128.606322
 30
384.971074
 70
    32
  0
VERTEX
  5
497
  8
TEAM-NET1
 10
363.851838
 20
126.618822
 30
365.400717
 70
    32
  0
VERTEX
  5
498
  8
TEAM-NET1
 10
361.71526
 20
125.286406
 30
346.0
 70
    32
  0
SEQEND
  5
499
  8
TEAM-NET1
  0
POLYLINE
  5
49A
  8
TEAM-BODY
 66
     1
 10
0.0
 20
0.0
 30
0.0
 70
     8
  0
VERTEX
  5
49B
  8
TEAM-BODY
 10
361.715256
 20
125.286404
 30
346.0
 70
    32
  0
VERTEX
  5
49C
  8
TEAM-BODY
 10
366.793726
 20
128.602642
 30
384.940262
 70
    32
  0
VERTEX
  5
49D
  8
TEAM-BODY
 10
374.406782
 20
134.651425
 30
422.858269
 70
    32
  0
VERTEX
  5
49E
  8
TEAM-BODY
 10
383.591889
 20
144.238398
 30
459.795939
 70
    32
  0
VERTEX
  5
49F
  8
TEAM-BODY
 10
393.117129
 20
158.650281
 30
495.47393
 70
    32
  0
VERTEX
  5
4A0
  8
TEAM-BODY
 10
397.364232
 20
168.133599
 30
512.396015
 70
    32
  0
VERTEX
  5
4A1
  8
TEAM-BODY
 10
400.732833
 20
179.392453
 30
528.31656
 70
    32
  0
VERTEX
  5
4A2
  8
TEAM-BODY
 10
402.634923
 20
192.614799
 30
542.893837
 70
    32
  0
VERTEX
  5
4A3
  8
TEAM-BODY
 10
402.246113
 20
207.844741
 30
555.603945
 70
    32
  0
VERTEX
  5
4A4
  8
TEAM-BODY
 10
398.578131
 20
224.555559
 30
565.659547
 70
    32
  0
VERTEX
  5
4A5
  8
TEAM-BODY
 10
390.901481
 20
241.458744
 30
572.376083
 70
    32
  0
VERTEX
  5
4A6
  8
TEAM-BODY
 10
379.072023
 20
256.992708
 30
575.549471
 70
    32
  0
VERTEX
  5
4A7
  8
TEAM-BODY
 10
363.659008
 20
269.643503
 30
575.272517
 70
    32
  0
SEQEND
  5
4A8
  8
TEAM-BODY
  0
LINE
  5
4A9
  8
TEAM-BODY
 10
363.659008
 20
269.643503
 30
575.272517
 11
363.659008
 21
269.643503
 31
346.0
  0
POLYLINE
  5
4AA
  8
TEAM-NET1
 66
     1
 10
0.0
 20
0.0
 30
0.0
 70
    16
 71
    11
 72
     7
  0
VERTEX
  5
4AB
  8
TEAM-NET1
 10
466.969131
 20
49.29585
 30
330.101265
 70
    64
  0
VERTEX
  5
4AC
  8
TEAM-NET1
 10
518.699635
 20
3.135112
 30
327.940446
 70
    64
  0
VERTEX
  5
4AD
  8
TEAM-NET1
 10
566.319569
 20
-47.247985
 30
325.77055
 70
    64
  0
VERTEX
  5
4AE
  8
TEAM-NET1
 10
608.883389
 20
-101.960217
 30
323.57843
 70
    64
  0
VERTEX
  5
4AF
  8
TEAM-NET1
 10
645.165194
 20
-161.008047
 30
321.347303
 70
    64
  0
VERTEX
  5
4B0
  8
TEAM-NET1
 10
668.50446
 20
-226.062943
 30
319.111836
 70
    64
  0
VERTEX
  5
4B1
  8
TEAM-NET1
 10
672.958523
 20
-295.044102
 30
316.902244
 70
    64
  0
VERTEX
  5
4B2
  8
TEAM-NET1
 10
475.779895
 20
58.663421
 30
357.091139
 70
    64
  0
VERTEX
  5
4B3
  8
TEAM-NET1
 10
527.948215
 20
12.073439
 30
355.061217
 70
    64
  0
VERTEX
  5
4B4
  8
TEAM-NET1
 10
576.598553
 20
-38.860534
 30
353.128066
 70
    64
  0
VERTEX
  5
4B5
  8
TEAM-NET1
 10
620.57372
 20
-94.12173
 30
351.226108
 70
    64
  0
VERTEX
  5
4B6
  8
TEAM-NET1
 10
658.373937
 20
-153.659852
 30
349.286236
 70
    64
  0
VERTEX
  5
4B7
  8
TEAM-NET1
 10
682.823222
 20
-219.271284
 30
347.289348
 70
    64
  0
VERTEX
  5
4B8
  8
TEAM-NET1
 10
687.746465
 20
-288.666237
 30
345.21202
 70
    64
  0
VERTEX
  5
4B9
  8
TEAM-NET1
 10
484.59066
 20
68.030992
 30
384.081012
 70
    64
  0
VERTEX
  5
4BA
  8
TEAM-NET1
 10
537.188327
 20
20.655566
 30
382.238778
 70
    64
  0
VERTEX
  5
4BB
  8
TEAM-NET1
 10
586.737962
 20
-30.824531
 30
380.529201
 70
    64
  0
VERTEX
  5
4BC
  8
TEAM-NET1
 10
632.077156
 20
-86.341925
 30
378.870105
 70
    64
  0
VERTEX
  5
4BD
  8
TEAM-NET1
 10
671.532007
 20
-145.976993
 30
377.176059
 70
    64
  0
VERTEX
  5
4BE
  8
TEAM-NET1
 10
697.096681
 20
-212.14991
 30
375.40773
 70
    64
  0
VERTEX
  5
4BF
  8
TEAM-NET1
 10
702.534408
 20
-282.288372
 30
373.521795
 70
    64
  0
VERTEX
  5
4C0
  8
TEAM-NET1
 10
493.401424
 20
77.398563
 30
411.070886
 70
    64
  0
VERTEX
  5
4C1
  8
TEAM-NET1
 10
546.42209
 20
28.970543
 30
409.458931
 70
    64
  0
VERTEX
  5
4C2
  8
TEAM-NET1
 10
596.772689
 20
-23.052112
 30
407.96305
 70
    64
  0
VERTEX
  5
4C3
  8
TEAM-NET1
 10
643.440421
 20
-78.606131
 30
406.511342
 70
    64
  0
VERTEX
  5
4C4
  8
TEAM-NET1
 10
684.652071
 20
-138.043134
 30
405.029052
 70
    64
  0
VERTEX
  5
4C5
  8
TEAM-NET1
 10
711.336163
 20
-204.78125
 30
403.481763
 70
    64
  0
VERTEX
  5
4C6
  8
TEAM-NET1
 10
717.32235
 20
-275.910507
 30
401.831571
 70
    64
  0
VERTEX
  5
4C7
  8
TEAM-NET1
 10
502.212188
 20
86.766133
 30
438.060759
 70
    64
  0
VERTEX
  5
4C8
  8
TEAM-NET1
 10
555.65162
 20
37.107419
 30
436.707478
 70
    64
  0
VERTEX
  5
4C9
  8
TEAM-NET1
 10
606.737628
 20
-15.455418
 30
435.41871
 70
    64
  0
VERTEX
  5
4CA
  8
TEAM-NET1
 10
654.710238
 20
-70.899679
 30
434.150738
 70
    64
  0
VERTEX
  5
4CB
  8
TEAM-NET1
 10
697.746799
 20
-129.941944
 30
432.85749
 70
    64
  0
VERTEX
  5
4CC
  8
TEAM-NET1
 10
725.552994
 20
-197.247733
 30
431.526232
 70
    64
  0
VERTEX
  5
4CD
  8
TEAM-NET1
 10
732.110292
 20
-269.532642
 30
430.141346
 70
    64
  0
VERTEX
  5
4CE
  8
TEAM-NET1
 10
511.022952
 20
96.133704
 30
465.050633
 70
    64
  0
VERTEX
  5
4CF
  8
TEAM-NET1
 10
564.879033
 20
45.155245
 30
463.970223
 70
    64
  0
VERTEX
  5
4D0
  8
TEAM-NET1
 10
616.667674
 20
-7.946585
 30
462.885275
 70
    64
  0
VERTEX
  5
4D1
  8
TEAM-NET1
 10
665.933331
 20
-63.207896
 30
461.789215
 70
    64
  0
VERTEX
  5
4D2
  8
TEAM-NET1
 10
710.828857
 20
-121.757087
 30
460.673652
 70
    64
  0
VERTEX
  5
4D3
  8
TEAM-NET1
 10
739.758498
 20
-189.631786
 30
459.555918
 70
    64
  0
VERTEX
  5
4D4
  8
TEAM-NET1
 10
746.898235
 20
-263.154777
 30
458.451122
 70
    64
  0
VERTEX
  5
4D5
  8
TEAM-NET1
 10
519.833716
 20
105.501275
 30
492.040506
 70
    64
  0
VERTEX
  5
4D6
  8
TEAM-NET1
 10
574.106446
 20
53.203071
 30
491.232968
 70
    64
  0
VERTEX
  5
4D7
  8
TEAM-NET1
 10
626.59772
 20
-0.437752
 30
490.35184
 70
    64
  0
VERTEX
  5
4D8
  8
TEAM-NET1
 10
677.156424
 20
-55.516114
 30
489.427692
 70
    64
  0
VERTEX
  5
4D9
  8
TEAM-NET1
 10
723.910916
 20
-113.572231
 30
488.489813
 70
    64
  0
VERTEX
  5
4DA
  8
TEAM-NET1
 10
753.964003
 20
-182.01584
 30
487.585604
 70
    64
  0
VERTEX
  5
4DB
  8
TEAM-NET1
 10
761.686177
 20
-256.776912
 30
486.760898
 70
    64
  0
VERTEX
  5
4DC
  8
TEAM-NET1
 10
528.644481
 20
114.868846
 30
519.03038
 70
    64
  0
VERTEX
  5
4DD
  8
TEAM-NET1
 10
583.335976
 20
61.339947
 30
518.481515
 70
    64
  0
VERTEX
  5
4DE
  8
TEAM-NET1
 10
636.562659
 20
7.158942
 30
517.8075
 70
    64
  0
VERTEX
  5
4DF
  8
TEAM-NET1
 10
688.426241
 20
-47.809661
 30
517.067088
 70
    64
  0
VERTEX
  5
4E0
  8
TEAM-NET1
 10
737.005643
 20
-105.47104
 30
516.318251
 70
    64
  0
VERTEX
  5
4E1
  8
TEAM-NET1
 10
768.180834
 20
-174.482322
 30
515.630072
 70
    64
  0
VERTEX
  5
4E2
  8
TEAM-NET1
 10
776.47412
 20
-250.399047
 30
515.070673
 70
    64
  0
VERTEX
  5
4E3
  8
TEAM-NET1
 10
537.455245
 20
124.236417
 30
546.020253
 70
    64
  0
VERTEX
  5
4E4
  8
TEAM-NET1
 10
592.569738
 20
69.654923
 30
545.701668
 70
    64
  0
VERTEX
  5
4E5
  8
TEAM-NET1
 10
646.597387
 20
14.931361
 30
545.24135
 70
    64
  0
VERTEX
  5
4E6
  8
TEAM-NET1
 10
699.789505
 20
-40.073867
 30
544.708325
 70
    64
  0
VERTEX
  5
4E7
  8
TEAM-NET1
 10
750.125708
 20
-97.537182
 30
544.171244
 70
    64
  0
VERTEX
  5
4E8
  8
TEAM-NET1
 10
782.420316
 20
-167.113662
 30
543.704106
 70
    64
  0
VERTEX
  5
4E9
  8
TEAM-NET1
 10
791.262062
 20
-244.021182
 30
543.380449
 70
    64
  0
VERTEX
  5
4EA
  8
TEAM-NET1
 10
546.266009
 20
133.603988
 30
573.010127
 70
    64
  0
VERTEX
  5
4EB
  8
TEAM-NET1
 10
601.809851
 20
78.23705
 30
572.879229
 70
    64
  0
VERTEX
  5
4EC
  8
TEAM-NET1
 10
656.736795
 20
22.967364
 30
572.642485
 70
    64
  0
VERTEX
  5
4ED
  8
TEAM-NET1
 10
711.292941
 20
-32.294062
 30
572.352322
 70
    64
  0
VERTEX
  5
4EE
  8
TEAM-NET1
 10
763.283777
 20
-89.854322
 30
572.061068
 70
    64
  0
VERTEX
  5
4EF
  8
TEAM-NET1
 10
796.693775
 20
-159.992289
 30
571.822488
 70
    64
  0
VERTEX
  5
4F0
  8
TEAM-NET1
 10
806.050005
 20
-237.643317
 30
571.690224
 70
    64
  0
VERTEX
  5
4F1
  8
TEAM-NET1
 10
555.076773
 20
142.971559
 30
600.0
 70
    64
  0
VERTEX
  5
4F2
  8
TEAM-NET1
 10
611.058431
 20
87.175378
 30
600.0
 70
    64
  0
VERTEX
  5
4F3
  8
TEAM-NET1
 10
667.015779
 20
31.354815
 30
600.0
 70
    64
  0
VERTEX
  5
4F4
  8
TEAM-NET1
 10
722.983272
 20
-24.455575
 30
600.0
 70
    64
  0
VERTEX
  5
4F5
  8
TEAM-NET1
 10
776.492521
 20
-82.506127
 30
600.0
 70
    64
  0
VERTEX
  5
4F6
  8
TEAM-NET1
 10
811.012536
 20
-153.20063
 30
600.0
 70
    64
  0
VERTEX
  5
4F7
  8
TEAM-NET1
 10
820.837947
 20
-231.265452
 30
600.0
 70
    64
  0
SEQEND
  5
4F8
  8
TEAM-NET1
  0
POLYLINE
  5
4F9
  8
TEAM-NET1
 66
     1
 10
0.0
 20
0.0
 30
0.0
 70
    16
 71
    11
 72
     7
  0
VERTEX
  5
4FA
  8
TEAM-NET1
 10
362.366387
 20
124.575206
 30
334.123929
 70
    64
  0
VERTEX
  5
4FB
  8
TEAM-NET1
 10
380.438243
 20
112.940589
 30
333.451719
 70
    64
  0
VERTEX
  5
4FC
  8
TEAM-NET1
 10
398.275163
 20
100.948882
 30
332.780467
 70
    64
  0
VERTEX
  5
4FD
  8
TEAM-NET1
 10
415.862892
 20
88.594585
 30
332.110019
 70
    64
  0
VERTEX
  5
4FE
  8
TEAM-NET1
 10
433.185859
 20
75.871715
 30
331.44014
 70
    64
  0
VERTEX
  5
4FF
  8
TEAM-NET1
 10
450.22736
 20
62.774269
 30
330.770616
 70
    64
  0
VERTEX
  5
500
  8
TEAM-NET1
 10
466.969131
 20
49.29585
 30
330.101265
 70
    64
  0
VERTEX
  5
501
  8
TEAM-NET1
 10
363.366307
 20
125.764519
 30
351.039979
 70
    64
  0
VERTEX
  5
502
  8
TEAM-NET1
 10
382.145644
 20
114.862921
 30
351.394383
 70
    64
  0
VERTEX
  5
503
  8
TEAM-NET1
 10
401.388376
 20
104.339619
 30
352.532605
 70
    64
  0
VERTEX
  5
504
  8
TEAM-NET1
 10
420.734771
 20
93.826573
 30
354.063053
 70
    64
  0
VERTEX
  5
505
  8
TEAM-NET1
 10
439.823816
 20
82.955274
 30
355.594054
 70
    64
  0
VERTEX
  5
506
  8
TEAM-NET1
 10
458.293401
 20
71.357194
 30
356.733956
 70
    64
  0
VERTEX
  5
507
  8
TEAM-NET1
 10
475.779895
 20
58.663421
 30
357.091139
 70
    64
  0
VERTEX
  5
508
  8
TEAM-NET1
 10
365.165895
 20
127.088251
 30
367.876876
 70
    64
  0
VERTEX
  5
509
  8
TEAM-NET1
 10
384.81445
 20
117.127811
 30
369.744451
 70
    64
  0
VERTEX
  5
50A
  8
TEAM-NET1
 10
405.245237
 20
107.969015
 30
372.610723
 70
    64
  0
VERTEX
  5
50B
  8
TEAM-NET1
 10
425.949117
 20
99.046136
 30
375.976634
 70
    64
  0
VERTEX
  5
50C
  8
TEAM-NET1
 10
446.415769
 20
89.793016
 30
379.343056
 70
    64
  0
VERTEX
  5
50D
  8
TEAM-NET1
 10
466.133861
 20
79.643478
 30
382.210876
 70
    64
  0
VERTEX
  5
50E
  8
TEAM-NET1
 10
484.59066
 20
68.030992
 30
384.081012
 70
    64
  0
VERTEX
  5
50F
  8
TEAM-NET1
 10
367.711003
 20
128.848111
 30
384.579365
 70
    64
  0
VERTEX
  5
510
  8
TEAM-NET1
 10
388.33928
 20
119.960095
 30
388.330586
 70
    64
  0
VERTEX
  5
511
  8
TEAM-NET1
 10
409.767811
 20
112.025785
 30
392.877736
 70
    64
  0
VERTEX
  5
512
  8
TEAM-NET1
 10
431.493198
 20
104.424037
 30
397.823104
 70
    64
  0
VERTEX
  5
513
  8
TEAM-NET1
 10
453.011011
 20
96.533328
 30
402.768919
 70
    64
  0
VERTEX
  5
514
  8
TEAM-NET1
 10
473.815933
 20
87.732119
 30
407.317423
 70
    64
  0
VERTEX
  5
515
  8
TEAM-NET1
 10
493.401424
 20
77.398563
 30
411.070886
 70
    64
  0
VERTEX
  5
516
  8
TEAM-NET1
 10
370.727825
 20
131.119554
 30
401.141025
 70
    64
  0
VERTEX
  5
517
  8
TEAM-NET1
 10
392.411369
 20
123.375114
 30
407.026672
 70
    64
  0
VERTEX
  5
518
  8
TEAM-NET1
 10
414.715454
 20
116.531051
 30
413.232737
 70
    64
  0
VERTEX
  5
519
  8
TEAM-NET1
 10
437.244453
 20
110.017913
 30
419.599221
 70
    64
  0
VERTEX
  5
51A
  8
TEAM-NET1
 10
459.601886
 20
103.265939
 30
425.966075
 70
    64
  0
VERTEX
  5
51B
  8
TEAM-NET1
 10
481.39054
 20
95.705356
 30
432.17326
 70
    64
  0
VERTEX
  5
51C
  8
TEAM-NET1
 10
502.212188
 20
86.766133
 30
438.060759
 70
    64
  0
VERTEX
  5
51D
  8
TEAM-NET1
 10
374.138177
 20
133.955254
 30
417.53848
 70
    64
  0
VERTEX
  5
51E
  8
TEAM-NET1
 10
396.903079
 20
127.367118
 30
425.690889
 70
    64
  0
VERTEX
  5
51F
  8
TEAM-NET1
 10
419.992425
 20
121.489056
 30
433.562257
 70
    64
  0
VERTEX
  5
520
  8
TEAM-NET1
 10
443.178132
 20
115.874008
 30
441.293267
 70
    64
  0
VERTEX
  5
521
  8
TEAM-NET1
 10
466.231457
 20
110.074673
 30
449.024562
 70
    64
  0
VERTEX
  5
522
  8
TEAM-NET1
 10
488.923093
 20
103.643741
 30
456.896794
 70
    64
  0
VERTEX
  5
523
  8
TEAM-NET1
 10
511.022952
 20
96.133704
 30
465.050633
 70
    64
  0
VERTEX
  5
524
  8
TEAM-NET1
 10
377.860154
 20
137.420873
 30
433.745904
 70
    64
  0
VERTEX
  5
525
  8
TEAM-NET1
 10
401.683331
 20
131.94238
 30
444.179152
 70
    64
  0
VERTEX
  5
526
  8
TEAM-NET1
 10
425.50023
 20
126.913668
 30
453.751014
 70
    64
  0
VERTEX
  5
527
  8
TEAM-NET1
 10
449.267622
 20
122.045062
 30
462.892298
 70
    64
  0
VERTEX
  5
528
  8
TEAM-NET1
 10
472.941818
 20
117.046719
 30
472.033782
 70
    64
  0
VERTEX
  5
529
  8
TEAM-NET1
 10
496.478729
 20
111.628786
 30
481.606252
 70
    64
  0
VERTEX
  5
52A
  8
TEAM-NET1
 10
519.833716
 20
105.501275
 30
492.040506
 70
    64
  0
VERTEX
  5
52B
  8
TEAM-NET1
 10
381.805538
 20
141.593729
 30
449.732074
 70
    64
  0
VERTEX
  5
52C
  8
TEAM-NET1
 10
406.615199
 20
137.117968
 30
462.342376
 70
    64
  0
VERTEX
  5
52D
  8
TEAM-NET1
 10
431.135696
 20
132.827387
 30
473.679726
 70
    64
  0
VERTEX
  5
52E
  8
TEAM-NET1
 10
455.483158
 20
128.589644
 30
484.38067
 70
    64
  0
VERTEX
  5
52F
  8
TEAM-NET1
 10
479.773432
 20
124.272289
 30
495.081737
 70
    64
  0
VERTEX
  5
530
  8
TEAM-NET1
 10
504.122118
 20
119.742869
 30
506.41946
 70
    64
  0
VERTEX
  5
531
  8
TEAM-NET1
 10
528.644481
 20
114.868846
 30
519.03038
 70
    64
  0
VERTEX
  5
532
  8
TEAM-NET1
 10
385.873512
 20
146.565254
 30
465.456549
 70
    64
  0
VERTEX
  5
533
  8
TEAM-NET1
 10
411.55009
 20
142.924015
 30
480.022944
 70
    64
  0
VERTEX
  5
534
  8
TEAM-NET1
 10
436.786318
 20
139.263168
 30
493.222285
 70
    64
  0
VERTEX
  5
535
  8
TEAM-NET1
 10
461.788672
 20
135.573377
 30
505.738133
 70
    64
  0
VERTEX
  5
536
  8
TEAM-NET1
 10
486.763491
 20
131.845255
 30
518.254041
 70
    64
  0
VERTEX
  5
537
  8
TEAM-NET1
 10
511.916995
 20
128.069411
 30
531.453562
 70
    64
  0
VERTEX
  5
538
  8
TEAM-NET1
 10
537.455245
 20
124.236417
 30
546.020253
 70
    64
  0
VERTEX
  5
539
  8
TEAM-NET1
 10
389.942793
 20
152.437604
 30
480.866299
 70
    64
  0
VERTEX
  5
53A
  8
TEAM-NET1
 10
416.320463
 20
149.400588
 30
497.051579
 70
    64
  0
VERTEX
  5
53B
  8
TEAM-NET1
 10
442.324433
 20
146.261911
 30
512.243256
 70
    64
  0
VERTEX
  5
53C
  8
TEAM-NET1
 10
468.137865
 20
143.06725
 30
526.938141
 70
    64
  0
VERTEX
  5
53D
  8
TEAM-NET1
 10
493.943883
 20
139.862268
 30
541.633042
 70
    64
  0
VERTEX
  5
53E
  8
TEAM-NET1
 10
519.925581
 20
136.69263
 30
556.824767
 70
    64
  0
VERTEX
  5
53F
  8
TEAM-NET1
 10
546.266009
 20
133.603988
 30
573.010127
 70
    64
  0
VERTEX
  5
540
  8
TEAM-NET1
 10
393.864388
 20
159.330432
 30
495.885675
 70
    64
  0
VERTEX
  5
541
  8
TEAM-NET1
 10
420.733119
 20
156.603953
 30
513.238063
 70
    64
  0
VERTEX
  5
542
  8
TEAM-NET1
 10
447.60185
 20
153.877474
 30
530.59045
 70
    64
  0
VERTEX
  5
543
  8
TEAM-NET1
 10
474.470581
 20
151.150995
 30
547.942838
 70
    64
  0
VERTEX
  5
544
  8
TEAM-NET1
 10
501.339311
 20
148.424517
 30
565.295225
 70
    64
  0
VERTEX
  5
545
  8
TEAM-NET1
 10
528.208042
 20
145.698038
 30
582.647613
 70
    64
  0
VERTEX
  5
546
  8
TEAM-NET1
 10
555.076773
 20
142.971559
 30
600.0
 70
    64
  0
SEQEND
  5
547
  8
TEAM-NET1
  0
POLYLINE
  5
548
  8
TEAM-NET1
 66
     1
 10
0.0
 20
0.0
 30
0.0
 70
    16
 71
     2
 72
    16
  0
VERTEX
  5
549
  8
TEAM-NET1
 10
363.659008
 20
269.643503
 30
575.272517
 70
    64
  0
VERTEX
  5
54A
  8
TEAM-NET1
 10
343.167058
 20
290.358908
 30
577.120197
 70
    64
  0
VERTEX
  5
54B
  8
TEAM-NET1
 10
322.495244
 20
310.899867
 30
578.90799
 70
    64
  0
VERTEX
  5
54C
  8
TEAM-NET1
 10
301.515274
 20
331.131237
 30
580.634753
 70
    64
  0
VERTEX
  5
54D
  8
TEAM-NET1
 10
280.361817
 20
351.184036
 30
582.331537
 70
    64
  0
VERTEX
  5
54E
  8
TEAM-NET1
 10
259.132639
 20
371.161635
 30
583.96708
 70
    64
  0
VERTEX
  5
54F
  8
TEAM-NET1
 10
237.589401
 20
390.808155
 30
585.493707
 70
    64
  0
VERTEX
  5
550
  8
TEAM-NET1
 10
215.562587
 20
409.912885
 30
586.990111
 70
    64
  0
VERTEX
  5
551
  8
TEAM-NET1
 10
192.913718
 20
428.263635
 30
588.598492
 70
    64
  0
VERTEX
  5
552
  8
TEAM-NET1
 10
169.016784
 20
444.94602
 30
590.156034
 70
    64
  0
VERTEX
  5
553
  8
TEAM-NET1
 10
143.307756
 20
458.672202
 30
591.489866
 70
    64
  0
VERTEX
  5
554
  8
TEAM-NET1
 10
115.868139
 20
468.51733
 30
592.466939
 70
    64
  0
VERTEX
  5
555
  8
TEAM-NET1
 10
87.336729
 20
474.605651
 30
593.119867
 70
    64
  0
VERTEX
  5
556
  8
TEAM-NET1
 10
58.345103
 20
477.958048
 30
593.638449
 70
    64
  0
VERTEX
  5
557
  8
TEAM-NET1
 10
29.191632
 20
479.379627
 30
594.188153
 70
    64
  0
VERTEX
  5
558
  8
TEAM-NET1
 10
0.0
 20
479.73889
 30
594.553613
 70
    64
  0
VERTEX
  5
559
  8
TEAM-NET1
 10
363.659008
 20
269.643503
 30
346.0
 70
    64
  0
VERTEX
  5
55A
  8
TEAM-NET1
 10
343.148876
 20
290.377184
 30
346.0
 70
    64
  0
VERTEX
  5
55B
  8
TEAM-NET1
 10
322.461074
 20
310.933336
 30
346.0
 70
    64
  0
VERTEX
  5
55C
  8
TEAM-NET1
 10
301.467343
 20
331.176894
 30
346.0
 70
    64
  0
VERTEX
  5
55D
  8
TEAM-NET1
 10
280.301683
 20
351.240954
 30
346.0
 70
    64
  0
VERTEX
  5
55E
  8
TEAM-NET1
 10
259.062431
 20
371.226984
 30
346.0
 70
    64
  0
VERTEX
  5
55F
  8
TEAM-NET1
 10
237.51238
 20
390.876735
 30
346.0
 70
    64
  0
VERTEX
  5
560
  8
TEAM-NET1
 10
215.479433
 20
409.982987
 30
346.0
 70
    64
  0
VERTEX
  5
561
  8
TEAM-NET1
 10
192.818156
 20
428.336816
 30
346.0
 70
    64
  0
VERTEX
  5
562
  8
TEAM-NET1
 10
168.907044
 20
445.014271
 30
346.0
 70
    64
  0
VERTEX
  5
563
  8
TEAM-NET1
 10
143.191736
 20
458.724034
 30
346.0
 70
    64
  0
VERTEX
  5
564
  8
TEAM-NET1
 10
115.761234
 20
468.546972
 30
346.0
 70
    64
  0
VERTEX
  5
565
  8
TEAM-NET1
 10
87.252211
 20
474.619
 30
346.0
 70
    64
  0
VERTEX
  5
566
  8
TEAM-NET1
 10
58.287838
 20
477.962507
 30
346.0
 70
    64
  0
VERTEX
  5
567
  8
TEAM-NET1
 10
29.161586
 20
479.380357
 30
346.0
 70
    64
  0
VERTEX
  5
568
  8
TEAM-NET1
 10
0.0
 20
479.73889
 30
346.0
 70
    64
  0
SEQEND
  5
569
  8
TEAM-NET1
  0
CIRCLE
  5
56A
  8
TEAM-INSP
 10
0.0
 20
0.0
 30
0.0
 40
10.0
  0
LINE
  5
56C
  8
TEAM-BODY
 10
-2.161012
 20
219.66237
 30
135.0
 11
-2.056468
 21
234.416564
 31
346.0
  0
LINE
  5
56D
  8
TEAM-BODY
 10
-2.161012
 20
219.66237
 30
135.0
 11
-2.056468
 21
234.416564
 31
346.0
  0
POLYLINE
  5
56E
  8
TEAM-NET1
 66
     1
 10
0.0
 20
0.0
 30
0.0
 70
    16
 71
     2
 72
    16
  0
VERTEX
  5
56F
  8
TEAM-NET1
 10
0.306782
 20
-693.46139
 30
290.672708
 70
    64
  0
VERTEX
  5
570
  8
TEAM-NET1
 10
118.982564
 20
-690.718665
 30
294.256729
 70
    64
  0
VERTEX
  5
571
  8
TEAM-NET1
 10
236.127305
 20
-671.543753
 30
297.863695
 70
    64
  0
VERTEX
  5
572
  8
TEAM-NET1
 10
349.378429
 20
-636.063189
 30
301.494838
 70
    64
  0
VERTEX
  5
573
  8
TEAM-NET1
 10
455.888948
 20
-583.776816
 30
305.150807
 70
    64
  0
VERTEX
  5
574
  8
TEAM-NET1
 10
549.908974
 20
-511.584979
 30
308.836667
 70
    64
  0
VERTEX
  5
575
  8
TEAM-NET1
 10
627.636359
 20
-422.034971
 30
312.557638
 70
    64
  0
VERTEX
  5
576
  8
TEAM-NET1
 10
670.934225
 20
-312.573568
 30
316.2966
 70
    64
  0
VERTEX
  5
577
  8
TEAM-NET1
 10
660.115815
 20
-195.396265
 30
320.07406
 70
    64
  0
VERTEX
  5
578
  8
TEAM-NET1
 10
601.930101
 20
-92.31067
 30
323.887249
 70
    64
  0
VERTEX
  5
579
  8
TEAM-NET1
 10
524.188186
 20
-2.672577
 30
327.611752
 70
    64
  0
VERTEX
  5
57A
  8
TEAM-NET1
 10
434.050708
 20
74.56061
 30
331.30436
 70
    64
  0
VERTEX
  5
57B
  8
TEAM-NET1
 10
335.203515
 20
140.327148
 30
335.00803
 70
    64
  0
VERTEX
  5
57C
  8
TEAM-NET1
 10
229.385638
 20
194.123491
 30
338.735211
 70
    64
  0
VERTEX
  5
57D
  8
TEAM-NET1
 10
116.422402
 20
229.811456
 30
342.4237
 70
    64
  0
VERTEX
  5
57E
  8
TEAM-NET1
 10
-2.056468
 20
234.416564
 30
346.0
 70
    64
  0
VERTEX
  5
57F
  8
TEAM-NET1
 10
0.467122
 20
-676.334878
 30
135.0
 70
    64
  0
VERTEX
  5
580
  8
TEAM-NET1
 10
110.729538
 20
-668.738085
 30
135.0
 70
    64
  0
VERTEX
  5
581
  8
TEAM-NET1
 10
218.826502
 20
-645.744507
 30
135.0
 70
    64
  0
VERTEX
  5
582
  8
TEAM-NET1
 10
322.223074
 20
-606.775973
 30
135.0
 70
    64
  0
VERTEX
  5
583
  8
TEAM-NET1
 10
417.553037
 20
-550.976365
 30
135.0
 70
    64
  0
VERTEX
  5
584
  8
TEAM-NET1
 10
500.001627
 20
-477.562744
 30
135.0
 70
    64
  0
VERTEX
  5
585
  8
TEAM-NET1
 10
562.70299
 20
-386.824549
 30
135.0
 70
    64
  0
VERTEX
  5
586
  8
TEAM-NET1
 10
597.174562
 20
-282.184897
 30
135.0
 70
    64
  0
VERTEX
  5
587
  8
TEAM-NET1
 10
596.722441
 20
-172.07593
 30
135.0
 70
    64
  0
VERTEX
  5
588
  8
TEAM-NET1
 10
561.453215
 20
-67.698987
 30
135.0
 70
    64
  0
VERTEX
  5
589
  8
TEAM-NET1
 10
498.180526
 20
22.645901
 30
135.0
 70
    64
  0
VERTEX
  5
58A
  8
TEAM-NET1
 10
415.365918
 20
95.649894
 30
135.0
 70
    64
  0
VERTEX
  5
58B
  8
TEAM-NET1
 10
319.812956
 20
151.069456
 30
135.0
 70
    64
  0
VERTEX
  5
58C
  8
TEAM-NET1
 10
216.286456
 20
189.693621
 30
135.0
 70
    64
  0
VERTEX
  5
58D
  8
TEAM-NET1
 10
108.122042
 20
212.369722
 30
135.0
 70
    64
  0
VERTEX
  5
58E
  8
TEAM-NET1
 10
-2.161012
 20
219.66237
 30
135.0
 70
    64
  0
SEQEND
  5
58F
  8
TEAM-NET1
  0
POLYLINE
  5
590
  8
TEAM-NET1
 66
     1
 10
0.0
 20
0.0
 30
0.0
 70
    16
 71
     2
 72
    16
  0
VERTEX
  5
591
  8
TEAM-NET1
 10
-2.161012
 20
219.66237
 30
135.0
 70
    64
  0
VERTEX
  5
592
  8
TEAM-NET1
 10
-112.107816
 20
211.800567
 30
135.0
 70
    64
  0
VERTEX
  5
593
  8
TEAM-NET1
 10
-219.861229
 20
188.617625
 30
135.0
 70
    64
  0
VERTEX
  5
594
  8
TEAM-NET1
 10
-322.897736
 20
149.534686
 30
135.0
 70
    64
  0
VERTEX
  5
595
  8
TEAM-NET1
 10
-417.863691
 20
93.699979
 30
135.0
 70
    64
  0
VERTEX
  5
596
  8
TEAM-NET1
 10
-499.964267
 20
20.340609
 30
135.0
 70
    64
  0
VERTEX
  5
597
  8
TEAM-NET1
 10
-562.371347
 20
-70.242228
 30
135.0
 70
    64
  0
VERTEX
  5
598
  8
TEAM-NET1
 10
-596.665934
 20
-174.631026
 30
135.0
 70
    64
  0
VERTEX
  5
599
  8
TEAM-NET1
 10
-596.214487
 20
-284.447173
 30
135.0
 70
    64
  0
VERTEX
  5
59A
  8
TEAM-NET1
 10
-561.123979
 20
-388.574428
 30
135.0
 70
    64
  0
VERTEX
  5
59B
  8
TEAM-NET1
 10
-498.146221
 20
-478.765513
 30
135.0
 70
    64
  0
VERTEX
  5
59C
  8
TEAM-NET1
 10
-415.679273
 20
-551.716248
 30
135.0
 70
    64
  0
VERTEX
  5
59D
  8
TEAM-NET1
 10
-320.489715
 20
-607.171609
 30
135.0
 70
    64
  0
VERTEX
  5
59E
  8
TEAM-NET1
 10
-217.322632
 20
-645.91069
 30
135.0
 70
    64
  0
VERTEX
  5
59F
  8
TEAM-NET1
 10
-109.501068
 20
-668.77634
 30
135.0
 70
    64
  0
VERTEX
  5
5A0
  8
TEAM-NET1
 10
0.467122
 20
-676.334878
 30
135.0
 70
    64
  0
VERTEX
  5
5A1
  8
TEAM-NET1
 10
-2.056468
 20
234.416564
 30
346.0
 70
    64
  0
VERTEX
  5
5A2
  8
TEAM-NET1
 10
-120.318269
 20
229.442137
 30
342.422143
 70
    64
  0
VERTEX
  5
5A3
  8
TEAM-NET1
 10
-232.960873
 20
193.416618
 30
338.733374
 70
    64
  0
VERTEX
  5
5A4
  8
TEAM-NET1
 10
-338.379442
 20
139.283824
 30
335.005801
 70
    64
  0
VERTEX
  5
5A5
  8
TEAM-NET1
 10
-436.762515
 20
73.187524
 30
331.300974
 70
    64
  0
VERTEX
  5
5A6
  8
TEAM-NET1
 10
-526.36009
 20
-4.36176
 30
327.606038
 70
    64
  0
VERTEX
  5
5A7
  8
TEAM-NET1
 10
-603.464135
 20
-94.28167
 30
323.877451
 70
    64
  0
VERTEX
  5
5A8
  8
TEAM-NET1
 10
-660.867529
 20
-197.567814
 30
320.058208
 70
    64
  0
VERTEX
  5
5A9
  8
TEAM-NET1
 10
-670.75832
 20
-314.625801
 30
316.278217
 70
    64
  0
VERTEX
  5
5AA
  8
TEAM-NET1
 10
-626.75221
 20
-423.595748
 30
312.540326
 70
    64
  0
VERTEX
  5
5AB
  8
TEAM-NET1
 10
-548.757601
 20
-512.65151
 30
308.821833
 70
    64
  0
VERTEX
  5
5AC
  8
TEAM-NET1
 10
-454.666714
 20
-584.42254
 30
305.138356
 70
    64
  0
VERTEX
  5
5AD
  8
TEAM-NET1
 10
-348.23058
 20
-636.405895
 30
301.485089
 70
    64
  0
VERTEX
  5
5AE
  8
TEAM-NET1
 10
-235.127202
 20
-671.685368
 30
297.856884
 70
    64
  0
VERTEX
  5
5AF
  8
TEAM-NET1
 10
-118.168421
 20
-690.750049
 30
294.253166
 70
    64
  0
VERTEX
  5
5B0
  8
TEAM-NET1
 10
0.306782
 20
-693.46139
 30
290.672708
 70
    64
  0
SEQEND
  5
5B1
  8
TEAM-NET1
  0
LINE
  5
5B2
  8
TEAM-BODY
 10
0.467122
 20
-676.334878
 30
135.0
 11
0.306782
 21
-693.46139
 31
290.672708
  0
POLYLINE
  5
5B3
  8
TEAM-NET1
 66
     1
 10
0.0
 20
0.0
 30
0.0
 70
    16
 71
     2
 72
    16
  0
VERTEX
  5
5B4
  8
TEAM-NET1
 10
-600.975968
 20
-227.977186
 30
134.999994
 70
    64
  0
VERTEX
  5
5B5
  8
TEAM-NET1
 10
-583.007584
 20
-119.474265
 30
134.999985
 70
    64
  0
VERTEX
  5
5B6
  8
TEAM-NET1
 10
-533.067636
 20
-21.366701
 30
134.999985
 70
    64
  0
VERTEX
  5
5B7
  8
TEAM-NET1
 10
-459.381513
 20
60.580147
 30
135.000015
 70
    64
  0
VERTEX
  5
5B8
  8
TEAM-NET1
 10
-369.769858
 20
124.865333
 30
134.999983
 70
    64
  0
VERTEX
  5
5B9
  8
TEAM-NET1
 10
-269.979211
 20
171.931455
 30
135.000006
 70
    64
  0
VERTEX
  5
5BA
  8
TEAM-NET1
 10
-163.986099
 20
202.667248
 30
135.00001
 70
    64
  0
VERTEX
  5
5BB
  8
TEAM-NET1
 10
-54.656632
 20
217.806798
 30
134.999992
 70
    64
  0
VERTEX
  5
5BC
  8
TEAM-NET1
 10
55.720069
 20
217.741158
 30
134.999994
 70
    64
  0
VERTEX
  5
5BD
  8
TEAM-NET1
 10
165.031454
 20
202.471584
 30
135.000012
 70
    64
  0
VERTEX
  5
5BE
  8
TEAM-NET1
 10
270.987935
 20
171.609746
 30
135.000004
 70
    64
  0
VERTEX
  5
5BF
  8
TEAM-NET1
 10
370.722531
 20
124.424968
 30
134.999987
 70
    64
  0
VERTEX
  5
5C0
  8
TEAM-NET1
 10
460.257661
 20
60.033246
 30
135.000013
 70
    64
  0
VERTEX
  5
5C1
  8
TEAM-NET1
 10
533.84626
 20
-22.00118
 30
134.999989
 70
    64
  0
VERTEX
  5
5C2
  8
TEAM-NET1
 10
583.669487
 20
-120.168073
 30
134.999989
 70
    64
  0
VERTEX
  5
5C3
  8
TEAM-NET1
 10
601.508808
 20
-228.692287
 30
134.999996
 70
    64
  0
VERTEX
  5
5C4
  8
TEAM-NET1
 10
-600.975968
 20
-227.977186
 30
134.999994
 70
    64
  0
VERTEX
  5
5C5
  8
TEAM-NET1
 10
-583.136647
 20
-336.501401
 30
134.999992
 70
    64
  0
VERTEX
  5
5C6
  8
TEAM-NET1
 10
-533.31342
 20
-434.668293
 30
134.999982
 70
    64
  0
VERTEX
  5
5C7
  8
TEAM-NET1
 10
-459.724822
 20
-516.702719
 30
135.000014
 70
    64
  0
VERTEX
  5
5C8
  8
TEAM-NET1
 10
-370.189691
 20
-581.094441
 30
134.999987
 70
    64
  0
VERTEX
  5
5C9
  8
TEAM-NET1
 10
-270.455095
 20
-628.279219
 30
135.000003
 70
    64
  0
VERTEX
  5
5CA
  8
TEAM-NET1
 10
-164.498615
 20
-659.141057
 30
135.000012
 70
    64
  0
VERTEX
  5
5CB
  8
TEAM-NET1
 10
-55.187229
 20
-674.410632
 30
134.999994
 70
    64
  0
VERTEX
  5
5CC
  8
TEAM-NET1
 10
55.189471
 20
-674.476271
 30
134.999994
 70
    64
  0
VERTEX
  5
5CD
  8
TEAM-NET1
 10
164.518939
 20
-659.336721
 30
135.000013
 70
    64
  0
VERTEX
  5
5CE
  8
TEAM-NET1
 10
270.512051
 20
-628.600928
 30
135.000001
 70
    64
  0
VERTEX
  5
5CF
  8
TEAM-NET1
 10
370.302697
 20
-581.534806
 30
134.99999
 70
    64
  0
VERTEX
  5
5D0
  8
TEAM-NET1
 10
459.914352
 20
-517.24962
 30
135.000011
 70
    64
  0
VERTEX
  5
5D1
  8
TEAM-NET1
 10
533.600475
 20
-435.302772
 30
134.999987
 70
    64
  0
VERTEX
  5
5D2
  8
TEAM-NET1
 10
583.540423
 20
-337.195208
 30
134.999992
 70
    64
  0
VERTEX
  5
5D3
  8
TEAM-NET1
 10
601.508808
 20
-228.692287
 30
134.999996
 70
    64
  0
SEQEND
  5
5D4
  8
TEAM-NET1
  0
POLYLINE
  5
5D5
  8
TEAM-BODY
 66
     1
 10
0.0
 20
0.0
 30
0.0
 70
     8
  0
VERTEX
  5
5D6
  8
TEAM-BODY
 10
0.467122
 20
-676.334878
 30
135.0
 70
    32
  0
VERTEX
  5
5D7
  8
TEAM-BODY
 10
52.247564
 20
-674.671196
 30
135.0
 70
    32
  0
VERTEX
  5
5D8
  8
TEAM-BODY
 10
103.819047
 20
-669.667598
 30
135.0
 70
    32
  0
VERTEX
  5
5D9
  8
TEAM-BODY
 10
154.957864
 20
-661.294088
 30
135.0
 70
    32
  0
VERTEX
  5
5DA
  8
TEAM-BODY
 10
205.423714
 20
-649.501485
 30
135.0
 70
    32
  0
VERTEX
  5
5DB
  8
TEAM-BODY
 10
254.951158
 20
-634.223416
 30
135.0
 70
    32
  0
VERTEX
  5
5DC
  8
TEAM-BODY
 10
303.238946
 20
-615.377647
 30
135.0
 70
    32
  0
VERTEX
  5
5DD
  8
TEAM-BODY
 10
349.936759
 20
-592.870829
 30
135.0
 70
    32
  0
VERTEX
  5
5DE
  8
TEAM-BODY
 10
394.633056
 20
-566.603166
 30
135.0
 70
    32
  0
VERTEX
  5
5DF
  8
TEAM-BODY
 10
436.82972
 20
-536.489826
 30
135.0
 70
    32
  0
VERTEX
  5
5E0
  8
TEAM-BODY
 10
475.935139
 20
-502.471679
 30
135.0
 70
    32
  0
VERTEX
  5
5E1
  8
TEAM-BODY
 10
511.260041
 20
-464.544029
 30
135.0
 70
    32
  0
VERTEX
  5
5E2
  8
TEAM-BODY
 10
541.995844
 20
-422.813452
 30
135.0
 70
    32
  0
VERTEX
  5
5E3
  8
TEAM-BODY
 10
567.24697
 20
-377.556962
 30
135.0
 70
    32
  0
VERTEX
  5
5E4
  8
TEAM-BODY
 10
586.093589
 20
-329.285242
 30
135.0
 70
    32
  0
VERTEX
  5
5E5
  8
TEAM-BODY
 10
597.707343
 20
-278.786713
 30
135.0
 70
    32
  0
VERTEX
  5
5E6
  8
TEAM-BODY
 10
600.606652
 20
-253.022823
 30
135.0
 70
    32
  0
VERTEX
  5
5E7
  8
TEAM-BODY
 10
601.50595
 20
-227.111895
 30
135.0
 70
    32
  0
VERTEX
  5
5E8
  8
TEAM-BODY
 10
600.392784
 20
-201.209164
 30
135.0
 70
    32
  0
VERTEX
  5
5E9
  8
TEAM-BODY
 10
597.282931
 20
-175.469707
 30
135.0
 70
    32
  0
VERTEX
  5
5EA
  8
TEAM-BODY
 10
585.267751
 20
-125.065032
 30
135.0
 70
    32
  0
VERTEX
  5
5EB
  8
TEAM-BODY
 10
566.062689
 20
-76.93446
 30
135.0
 70
    32
  0
VERTEX
  5
5EC
  8
TEAM-BODY
 10
540.504293
 20
-31.850363
 30
135.0
 70
    32
  0
VERTEX
  5
5ED
  8
TEAM-BODY
 10
509.51322
 20
9.691232
 30
135.0
 70
    32
  0
VERTEX
  5
5EE
  8
TEAM-BODY
 10
473.980505
 20
47.42478
 30
135.0
 70
    32
  0
VERTEX
  5
5EF
  8
TEAM-BODY
 10
434.708427
 20
81.250389
 30
135.0
 70
    32
  0
VERTEX
  5
5F0
  8
TEAM-BODY
 10
392.378428
 20
111.178319
 30
135.0
 70
    32
  0
VERTEX
  5
5F1
  8
TEAM-BODY
 10
347.57766
 20
137.267249
 30
135.0
 70
    32
  0
VERTEX
  5
5F2
  8
TEAM-BODY
 10
300.79819
 20
159.60378
 30
135.0
 70
    32
  0
VERTEX
  5
5F3
  8
TEAM-BODY
 10
252.447281
 20
178.287058
 30
135.0
 70
    32
  0
VERTEX
  5
5F4
  8
TEAM-BODY
 10
202.872065
 20
193.409426
 30
135.0
 70
    32
  0
VERTEX
  5
5F5
  8
TEAM-BODY
 10
152.371208
 20
205.051767
 30
135.0
 70
    32
  0
VERTEX
  5
5F6
  8
TEAM-BODY
 10
101.209156
 20
213.279847
 30
135.0
 70
    32
  0
VERTEX
  5
5F7
  8
TEAM-BODY
 10
49.623853
 20
218.140337
 30
135.0
 70
    32
  0
VERTEX
  5
5F8
  8
TEAM-BODY
 10
-2.161012
 20
219.66237
 30
135.0
 70
    32
  0
SEQEND
  5
5F9
  8
TEAM-BODY
  0
POLYLINE
  5
5FA
  8
TEAM-BODY
 66
     1
 10
0.0
 20
0.0
 30
0.0
 70
     8
  0
VERTEX
  5
5FB
  8
TEAM-BODY
 10
-2.161012
 20
219.66237
 30
135.0
 70
    32
  0
VERTEX
  5
5FC
  8
TEAM-BODY
 10
-53.863892
 20
217.860438
 30
135.0
 70
    32
  0
VERTEX
  5
5FD
  8
TEAM-BODY
 10
-105.336698
 20
212.728832
 30
135.0
 70
    32
  0
VERTEX
  5
5FE
  8
TEAM-BODY
 10
-156.357091
 20
204.239033
 30
135.0
 70
    32
  0
VERTEX
  5
5FF
  8
TEAM-BODY
 10
-206.687166
 20
192.344078
 30
135.0
 70
    32
  0
VERTEX
  5
600
  8
TEAM-BODY
 10
-256.062986
 20
176.978949
 30
135.0
 70
    32
  0
VERTEX
  5
601
  8
TEAM-BODY
 10
-304.185564
 20
158.063228
 30
135.0
 70
    32
  0
VERTEX
  5
602
  8
TEAM-BODY
 10
-350.706334
 20
135.506023
 30
135.0
 70
    32
  0
VERTEX
  5
603
  8
TEAM-BODY
 10
-395.218447
 20
109.208175
 30
135.0
 70
    32
  0
VERTEX
  5
604
  8
TEAM-BODY
 10
-437.22411
 20
79.089175
 30
135.0
 70
    32
  0
VERTEX
  5
605
  8
TEAM-BODY
 10
-476.138202
 20
45.091634
 30
135.0
 70
    32
  0
VERTEX
  5
606
  8
TEAM-BODY
 10
-511.276977
 20
7.212734
 30
135.0
 70
    32
  0
VERTEX
  5
607
  8
TEAM-BODY
 10
-541.838896
 20
-34.438737
 30
135.0
 70
    32
  0
VERTEX
  5
608
  8
TEAM-BODY
 10
-566.937706
 20
-79.585415
 30
135.0
 70
    32
  0
VERTEX
  5
609
  8
TEAM-BODY
 10
-585.664237
 20
-127.718754
 30
135.0
 70
    32
  0
VERTEX
  5
60A
  8
TEAM-BODY
 10
-597.201351
 20
-178.05605
 30
135.0
 70
    32
  0
VERTEX
  5
60B
  8
TEAM-BODY
 10
-600.079906
 20
-203.734254
 30
135.0
 70
    32
  0
VERTEX
  5
60C
  8
TEAM-BODY
 10
-600.973002
 20
-229.557609
 30
135.0
 70
    32
  0
VERTEX
  5
60D
  8
TEAM-BODY
 10
-599.867002
 20
-255.372794
 30
135.0
 70
    32
  0
VERTEX
  5
60E
  8
TEAM-BODY
 10
-596.77775
 20
-281.02646
 30
135.0
 70
    32
  0
VERTEX
  5
60F
  8
TEAM-BODY
 10
-584.840983
 20
-331.270755
 30
135.0
 70
    32
  0
VERTEX
  5
610
  8
TEAM-BODY
 10
-565.756545
 20
-379.262867
 30
135.0
 70
    32
  0
VERTEX
  5
611
  8
TEAM-BODY
 10
-540.35108
 20
-424.238789
 30
135.0
 70
    32
  0
VERTEX
  5
612
  8
TEAM-BODY
 10
-509.533921
 20
-465.702146
 30
135.0
 70
    32
  0
VERTEX
  5
613
  8
TEAM-BODY
 10
-474.187296
 20
-503.387523
 30
135.0
 70
    32
  0
VERTEX
  5
614
  8
TEAM-BODY
 10
-435.106119
 20
-537.193478
 30
135.0
 70
    32
  0
VERTEX
  5
615
  8
TEAM-BODY
 10
-392.966465
 20
-567.127092
 30
135.0
 70
    32
  0
VERTEX
  5
616
  8
TEAM-BODY
 10
-348.350466
 20
-593.245979
 30
135.0
 70
    32
  0
VERTEX
  5
617
  8
TEAM-BODY
 10
-301.747281
 20
-615.633496
 30
135.0
 70
    32
  0
VERTEX
  5
618
  8
TEAM-BODY
 10
-253.561273
 20
-634.386887
 30
135.0
 70
    32
  0
VERTEX
  5
619
  8
TEAM-BODY
 10
-204.137266
 20
-649.596519
 30
135.0
 70
    32
  0
VERTEX
  5
61A
  8
TEAM-BODY
 10
-153.772011
 20
-661.341619
 30
135.0
 70
    32
  0
VERTEX
  5
61B
  8
TEAM-BODY
 10
-102.72734
 20
-669.685508
 30
135.0
 70
    32
  0
VERTEX
  5
61C
  8
TEAM-BODY
 10
-51.240517
 20
-674.674334
 30
135.0
 70
    32
  0
VERTEX
  5
61D
  8
TEAM-BODY
 10
0.467122
 20
-676.334878
 30
135.0
 70
    32
  0
SEQEND
  5
61E
  8
TEAM-BODY
  0
POLYLINE
  5
61F
  8
TEAM-NET1
 66
     1
 10
0.0
 20
0.0
 30
0.0
 70
    16
 71
    11
 72
     7
  0
VERTEX
  5
620
  8
TEAM-NET1
 10
-362.693222
 20
125.504318
 30
346.0
 70
    64
  0
VERTEX
  5
621
  8
TEAM-NET1
 10
-362.640495
 20
125.350399
 30
344.020655
 70
    64
  0
VERTEX
  5
622
  8
TEAM-NET1
 10
-362.587768
 20
125.19648
 30
342.04131
 70
    64
  0
VERTEX
  5
623
  8
TEAM-NET1
 10
-362.535041
 20
125.042561
 30
340.061964
 70
    64
  0
VERTEX
  5
624
  8
TEAM-NET1
 10
-362.482314
 20
124.888643
 30
338.082619
 70
    64
  0
VERTEX
  5
625
  8
TEAM-NET1
 10
-362.429587
 20
124.734724
 30
336.103274
 70
    64
  0
VERTEX
  5
626
  8
TEAM-NET1
 10
-362.376861
 20
124.580805
 30
334.123929
 70
    64
  0
VERTEX
  5
627
  8
TEAM-NET1
 10
-350.44809
 20
133.136415
 30
346.000001
 70
    64
  0
VERTEX
  5
628
  8
TEAM-NET1
 10
-348.321017
 20
134.234888
 30
344.140585
 70
    64
  0
VERTEX
  5
629
  8
TEAM-NET1
 10
-344.605894
 20
136.493563
 30
342.377932
 70
    64
  0
VERTEX
  5
62A
  8
TEAM-NET1
 10
-340.079925
 20
139.258401
 30
340.663659
 70
    64
  0
VERTEX
  5
62B
  8
TEAM-NET1
 10
-335.534214
 20
141.906243
 30
338.949386
 70
    64
  0
VERTEX
  5
62C
  8
TEAM-NET1
 10
-331.762342
 20
143.843648
 30
337.186731
 70
    64
  0
VERTEX
  5
62D
  8
TEAM-NET1
 10
-329.551448
 20
144.483818
 30
335.327317
 70
    64
  0
VERTEX
  5
62E
  8
TEAM-NET1
 10
-338.106933
 20
140.612239
 30
346.000003
 70
    64
  0
VERTEX
  5
62F
  8
TEAM-NET1
 10
-332.915918
 20
143.470195
 30
344.313488
 70
    64
  0
VERTEX
  5
630
  8
TEAM-NET1
 10
-325.676072
 20
148.177679
 30
342.757443
 70
    64
  0
VERTEX
  5
631
  8
TEAM-NET1
 10
-317.349335
 20
153.535297
 30
341.266633
 70
    64
  0
VERTEX
  5
632
  8
TEAM-NET1
 10
-308.949272
 20
158.458355
 30
339.775822
 70
    64
  0
VERTEX
  5
633
  8
TEAM-NET1
 10
-301.498643
 20
161.972548
 30
338.219772
 70
    64
  0
VERTEX
  5
634
  8
TEAM-NET1
 10
-295.996295
 20
163.128236
 30
336.533263
 70
    64
  0
VERTEX
  5
635
  8
TEAM-NET1
 10
-325.666584
 20
147.921769
 30
346.000004
 70
    64
  0
VERTEX
  5
636
  8
TEAM-NET1
 10
-316.654178
 20
152.883481
 30
344.526006
 70
    64
  0
VERTEX
  5
637
  8
TEAM-NET1
 10
-305.954731
 20
159.976816
 30
343.168722
 70
    64
  0
VERTEX
  5
638
  8
TEAM-NET1
 10
-294.282008
 20
167.565578
 30
341.869796
 70
    64
  0
VERTEX
  5
639
  8
TEAM-NET1
 10
-282.456994
 20
174.251793
 30
340.570869
 70
    64
  0
VERTEX
  5
63A
  8
TEAM-NET1
 10
-271.319768
 20
178.866757
 30
339.213573
 70
    64
  0
VERTEX
  5
63B
  8
TEAM-NET1
 10
-261.660745
 20
180.292988
 30
337.739588
 70
    64
  0
VERTEX
  5
63C
  8
TEAM-NET1
 10
-313.120022
 20
155.047401
 30
346.000006
 70
    64
  0
VERTEX
  5
63D
  8
TEAM-NET1
 10
-299.776055
 20
162.322866
 30
344.765103
 70
    64
  0
VERTEX
  5
63E
  8
TEAM-NET1
 10
-285.647411
 20
171.711288
 30
343.601773
 70
    64
  0
VERTEX
  5
63F
  8
TEAM-NET1
 10
-270.914976
 20
181.226672
 30
342.474229
 70
    64
  0
VERTEX
  5
640
  8
TEAM-NET1
 10
-255.934364
 20
189.271239
 30
341.346685
 70
    64
  0
VERTEX
  5
641
  8
TEAM-NET1
 10
-241.092303
 20
194.620833
 30
340.183336
 70
    64
  0
VERTEX
  5
642
  8
TEAM-NET1
 10
-226.69459
 20
196.134774
 30
338.948454
 70
    64
  0
VERTEX
  5
643
  8
TEAM-NET1
 10
-300.461101
 20
161.971407
 30
346.000007
 70
    64
  0
VERTEX
  5
644
  8
TEAM-NET1
 10
-282.507839
 20
171.603989
 30
345.017049
 70
    64
  0
VERTEX
  5
645
  8
TEAM-NET1
 10
-264.908579
 20
183.088029
 30
344.044169
 70
    64
  0
VERTEX
  5
646
  8
TEAM-NET1
 10
-247.185963
 20
194.177461
 30
343.076327
 70
    64
  0
VERTEX
  5
647
  8
TEAM-NET1
 10
-229.110822
 20
203.177665
 30
342.108484
 70
    64
  0
VERTEX
  5
648
  8
TEAM-NET1
 10
-210.498186
 20
208.924733
 30
341.135577
 70
    64
  0
VERTEX
  5
649
  8
TEAM-NET1
 10
-191.048125
 20
210.373332
 30
340.152648
 70
    64
  0
VERTEX
  5
64A
  8
TEAM-NET1
 10
-287.685121
 20
168.67692
 30
346.000007
 70
    64
  0
VERTEX
  5
64B
  8
TEAM-NET1
 10
-265.063458
 20
180.492356
 30
345.26828
 70
    64
  0
VERTEX
  5
64C
  8
TEAM-NET1
 10
-243.84582
 20
193.636355
 30
344.484062
 70
    64
  0
VERTEX
  5
64D
  8
TEAM-NET1
 10
-222.94093
 20
205.733481
 30
343.673598
 70
    64
  0
VERTEX
  5
64E
  8
TEAM-NET1
 10
-201.579168
 20
215.122966
 30
342.863134
 70
    64
  0
VERTEX
  5
64F
  8
TEAM-NET1
 10
-179.048194
 20
220.831849
 30
342.07888
 70
    64
  0
VERTEX
  5
650
  8
TEAM-NET1
 10
-154.48668
 20
222.040844
 30
341.347191
 70
    64
  0
VERTEX
  5
651
  8
TEAM-NET1
 10
-274.795757
 20
175.161872
 30
346.000007
 70
    64
  0
VERTEX
  5
652
  8
TEAM-NET1
 10
-247.677255
 20
188.75356
 30
345.505168
 70
    64
  0
VERTEX
  5
653
  8
TEAM-NET1
 10
-222.617228
 20
202.848895
 30
344.909385
 70
    64
  0
VERTEX
  5
654
  8
TEAM-NET1
 10
-198.115477
 20
215.125766
 30
344.263129
 70
    64
  0
VERTEX
  5
655
  8
TEAM-NET1
 10
-173.060966
 20
224.126727
 30
343.616873
 70
    64
  0
VERTEX
  5
656
  8
TEAM-NET1
 10
-146.411965
 20
229.22649
 30
343.021047
 70
    64
  0
VERTEX
  5
657
  8
TEAM-NET1
 10
-116.946483
 20
229.985693
 30
342.526253
 70
    64
  0
VERTEX
  5
658
  8
TEAM-NET1
 10
-261.807662
 20
181.446827
 30
346.000007
 70
    64
  0
VERTEX
  5
659
  8
TEAM-NET1
 10
-230.625878
 20
196.257415
 30
345.714422
 70
    64
  0
VERTEX
  5
65A
  8
TEAM-NET1
 10
-201.501522
 20
210.526458
 30
345.309245
 70
    64
  0
VERTEX
  5
65B
  8
TEAM-NET1
 10
-172.867638
 20
222.158688
 30
344.844272
 70
    64
  0
VERTEX
  5
65C
  8
TEAM-NET1
 10
-143.60203
 20
230.047021
 30
344.379298
 70
    64
  0
VERTEX
  5
65D
  8
TEAM-NET1
 10
-112.661704
 20
234.035411
 30
343.974072
 70
    64
  0
VERTEX
  5
65E
  8
TEAM-NET1
 10
-78.797657
 20
234.180301
 30
343.68854
 70
    64
  0
VERTEX
  5
65F
  8
TEAM-NET1
 10
-248.734259
 20
187.552403
 30
346.000005
 70
    64
  0
VERTEX
  5
660
  8
TEAM-NET1
 10
-214.186564
 20
202.92792
 30
345.885966
 70
    64
  0
VERTEX
  5
661
  8
TEAM-NET1
 10
-180.782563
 20
216.659388
 30
345.684008
 70
    64
  0
VERTEX
  5
662
  8
TEAM-NET1
 10
-147.366511
 20
227.002097
 30
345.43809
 70
    64
  0
VERTEX
  5
663
  8
TEAM-NET1
 10
-113.26515
 20
233.283347
 30
345.192171
 70
    64
  0
VERTEX
  5
664
  8
TEAM-NET1
 10
-77.891145
 20
235.862141
 30
344.99016
 70
    64
  0
VERTEX
  5
665
  8
TEAM-NET1
 10
-40.433674
 20
235.327995
 30
344.876178
 70
    64
  0
VERTEX
  5
666
  8
TEAM-NET1
 10
-235.576475
 20
193.47387
 30
346.000004
 70
    64
  0
VERTEX
  5
667
  8
TEAM-NET1
 10
-198.610795
 20
208.686682
 30
346.0
 70
    64
  0
VERTEX
  5
668
  8
TEAM-NET1
 10
-160.685296
 20
221.293
 30
346.0
 70
    64
  0
VERTEX
  5
669
  8
TEAM-NET1
 10
-121.679172
 20
229.9554
 30
346.0
 70
    64
  0
VERTEX
  5
66A
  8
TEAM-NET1
 10
-81.967998
 20
234.439344
 30
346.0
 70
    64
  0
VERTEX
  5
66B
  8
TEAM-NET1
 10
-42.015746
 20
235.571718
 30
345.999945
 70
    64
  0
VERTEX
  5
66C
  8
TEAM-NET1
 10
-2.056468
 20
234.416564
 30
346.0
 70
    64
  0
SEQEND
  5
66D
  8
TEAM-NET1
  0
POLYLINE
  5
66E
  8
TEAM-NET1
 66
     1
 10
0.0
 20
0.0
 30
0.0
 70
    16
 71
    11
 72
     7
  0
VERTEX
  5
66F
  8
TEAM-NET1
 10
362.682762
 20
125.498714
 30
346.0
 70
    64
  0
VERTEX
  5
670
  8
TEAM-NET1
 10
362.630033
 20
125.344796
 30
344.020655
 70
    64
  0
VERTEX
  5
671
  8
TEAM-NET1
 10
362.577303
 20
125.190878
 30
342.04131
 70
    64
  0
VERTEX
  5
672
  8
TEAM-NET1
 10
362.524574
 20
125.03696
 30
340.061964
 70
    64
  0
VERTEX
  5
673
  8
TEAM-NET1
 10
362.471845
 20
124.883042
 30
338.082619
 70
    64
  0
VERTEX
  5
674
  8
TEAM-NET1
 10
362.419116
 20
124.729124
 30
336.103274
 70
    64
  0
VERTEX
  5
675
  8
TEAM-NET1
 10
362.366387
 20
124.575206
 30
334.123929
 70
    64
  0
VERTEX
  5
676
  8
TEAM-NET1
 10
350.437749
 20
133.131001
 30
346.000001
 70
    64
  0
VERTEX
  5
677
  8
TEAM-NET1
 10
348.310692
 20
134.229506
 30
344.140585
 70
    64
  0
VERTEX
  5
678
  8
TEAM-NET1
 10
344.595604
 20
136.488239
 30
342.377932
 70
    64
  0
VERTEX
  5
679
  8
TEAM-NET1
 10
340.069677
 20
139.253147
 30
340.663659
 70
    64
  0
VERTEX
  5
67A
  8
TEAM-NET1
 10
335.524008
 20
141.901059
 30
338.949386
 70
    64
  0
VERTEX
  5
67B
  8
TEAM-NET1
 10
331.752165
 20
143.838522
 30
337.186731
 70
    64
  0
VERTEX
  5
67C
  8
TEAM-NET1
 10
329.541281
 20
144.478726
 30
335.327317
 70
    64
  0
VERTEX
  5
67D
  8
TEAM-NET1
 10
338.096707
 20
140.607015
 30
346.000003
 70
    64
  0
VERTEX
  5
67E
  8
TEAM-NET1
 10
332.905736
 20
143.465052
 30
344.313488
 70
    64
  0
VERTEX
  5
67F
  8
TEAM-NET1
 10
325.665962
 20
148.172647
 30
342.757443
 70
    64
  0
VERTEX
  5
680
  8
TEAM-NET1
 10
317.339308
 20
153.530394
 30
341.266633
 70
    64
  0
VERTEX
  5
681
  8
TEAM-NET1
 10
308.939322
 20
158.453581
 30
339.775822
 70
    64
  0
VERTEX
  5
682
  8
TEAM-NET1
 10
301.488747
 20
161.96789
 30
338.219772
 70
    64
  0
VERTEX
  5
683
  8
TEAM-NET1
 10
295.986416
 20
163.123663
 30
336.533263
 70
    64
  0
VERTEX
  5
684
  8
TEAM-NET1
 10
325.656471
 20
147.916737
 30
346.000004
 70
    64
  0
VERTEX
  5
685
  8
TEAM-NET1
 10
316.644142
 20
152.878589
 30
344.526006
 70
    64
  0
VERTEX
  5
686
  8
TEAM-NET1
 10
305.944804
 20
159.972089
 30
343.168722
 70
    64
  0
VERTEX
  5
687
  8
TEAM-NET1
 10
294.272198
 20
167.561031
 30
341.869796
 70
    64
  0
VERTEX
  5
688
  8
TEAM-NET1
 10
282.447287
 20
174.247429
 30
340.570869
 70
    64
  0
VERTEX
  5
689
  8
TEAM-NET1
 10
271.310133
 20
178.862565
 30
339.213573
 70
    64
  0
VERTEX
  5
68A
  8
TEAM-NET1
 10
261.651132
 20
180.288946
 30
337.739588
 70
    64
  0
VERTEX
  5
68B
  8
TEAM-NET1
 10
313.110019
 20
155.042563
 30
346.000006
 70
    64
  0
VERTEX
  5
68C
  8
TEAM-NET1
 10
299.766164
 20
162.318235
 30
344.765103
 70
    64
  0
VERTEX
  5
68D
  8
TEAM-NET1
 10
285.637665
 20
171.706875
 30
343.601773
 70
    64
  0
VERTEX
  5
68E
  8
TEAM-NET1
 10
270.905377
 20
181.222486
 30
342.474229
 70
    64
  0
VERTEX
  5
68F
  8
TEAM-NET1
 10
255.92489
 20
189.267285
 30
341.346685
 70
    64
  0
VERTEX
  5
690
  8
TEAM-NET1
 10
241.082911
 20
194.617108
 30
340.183336
 70
    64
  0
VERTEX
  5
691
  8
TEAM-NET1
 10
226.685221
 20
196.131272
 30
338.948454
 70
    64
  0
VERTEX
  5
692
  8
TEAM-NET1
 10
300.451205
 20
161.966765
 30
346.000007
 70
    64
  0
VERTEX
  5
693
  8
TEAM-NET1
 10
282.498091
 20
171.599625
 30
345.017049
 70
    64
  0
VERTEX
  5
694
  8
TEAM-NET1
 10
264.899009
 20
183.083936
 30
344.044169
 70
    64
  0
VERTEX
  5
695
  8
TEAM-NET1
 10
247.176564
 20
194.173642
 30
343.076327
 70
    64
  0
VERTEX
  5
696
  8
TEAM-NET1
 10
229.101562
 20
203.174126
 30
342.108484
 70
    64
  0
VERTEX
  5
697
  8
TEAM-NET1
 10
210.489016
 20
208.92148
 30
341.135577
 70
    64
  0
VERTEX
  5
698
  8
TEAM-NET1
 10
191.038977
 20
210.37038
 30
340.152648
 70
    64
  0
VERTEX
  5
699
  8
TEAM-NET1
 10
287.675328
 20
168.672475
 30
346.000007
 70
    64
  0
VERTEX
  5
69A
  8
TEAM-NET1
 10
265.053848
 20
180.488261
 30
345.26828
 70
    64
  0
VERTEX
  5
69B
  8
TEAM-NET1
 10
243.836413
 20
193.632588
 30
344.484062
 70
    64
  0
VERTEX
  5
69C
  8
TEAM-NET1
 10
222.93171
 20
205.730036
 30
343.673598
 70
    64
  0
VERTEX
  5
69D
  8
TEAM-NET1
 10
201.570093
 20
215.119852
 30
342.863134
 70
    64
  0
VERTEX
  5
69E
  8
TEAM-NET1
 10
179.039207
 20
220.829083
 30
342.07888
 70
    64
  0
VERTEX
  5
69F
  8
TEAM-NET1
 10
154.477712
 20
222.038457
 30
341.347191
 70
    64
  0
VERTEX
  5
6A0
  8
TEAM-NET1
 10
274.786064
 20
175.157626
 30
346.000007
 70
    64
  0
VERTEX
  5
6A1
  8
TEAM-NET1
 10
247.667773
 20
188.749734
 30
345.505168
 70
    64
  0
VERTEX
  5
6A2
  8
TEAM-NET1
 10
222.607964
 20
202.845456
 30
344.909385
 70
    64
  0
VERTEX
  5
6A3
  8
TEAM-NET1
 10
198.106402
 20
215.122705
 30
344.263129
 70
    64
  0
VERTEX
  5
6A4
  8
TEAM-NET1
 10
173.05203
 20
224.124054
 30
343.616873
 70
    64
  0
VERTEX
  5
6A5
  8
TEAM-NET1
 10
146.403108
 20
229.224228
 30
343.021047
 70
    64
  0
VERTEX
  5
6A6
  8
TEAM-NET1
 10
116.937638
 20
229.983886
 30
342.526253
 70
    64
  0
VERTEX
  5
6A7
  8
TEAM-NET1
 10
261.798066
 20
181.442782
 30
346.000007
 70
    64
  0
VERTEX
  5
6A8
  8
TEAM-NET1
 10
230.616511
 20
196.253851
 30
345.714422
 70
    64
  0
VERTEX
  5
6A9
  8
TEAM-NET1
 10
201.492376
 20
210.523345
 30
345.309245
 70
    64
  0
VERTEX
  5
6AA
  8
TEAM-NET1
 10
172.858672
 20
222.156017
 30
344.844272
 70
    64
  0
VERTEX
  5
6AB
  8
TEAM-NET1
 10
143.593186
 20
230.044802
 30
344.379298
 70
    64
  0
VERTEX
  5
6AC
  8
TEAM-NET1
 10
112.652921
 20
234.03367
 30
343.974072
 70
    64
  0
VERTEX
  5
6AD
  8
TEAM-NET1
 10
78.788876
 20
234.179083
 30
343.68854
 70
    64
  0
VERTEX
  5
6AE
  8
TEAM-NET1
 10
248.724758
 20
187.54856
 30
346.000005
 70
    64
  0
VERTEX
  5
6AF
  8
TEAM-NET1
 10
214.177301
 20
202.924611
 30
345.885966
 70
    64
  0
VERTEX
  5
6B0
  8
TEAM-NET1
 10
180.773511
 20
216.656595
 30
345.684008
 70
    64
  0
VERTEX
  5
6B1
  8
TEAM-NET1
 10
147.357619
 20
226.99982
 30
345.43809
 70
    64
  0
VERTEX
  5
6B2
  8
TEAM-NET1
 10
113.256356
 20
233.281597
 30
345.192171
 70
    64
  0
VERTEX
  5
6B3
  8
TEAM-NET1
 10
77.882391
 20
235.860937
 30
344.99016
 70
    64
  0
VERTEX
  5
6B4
  8
TEAM-NET1
 10
40.424911
 20
235.327371
 30
344.876178
 70
    64
  0
VERTEX
  5
6B5
  8
TEAM-NET1
 10
235.567066
 20
193.47023
 30
346.000004
 70
    64
  0
VERTEX
  5
6B6
  8
TEAM-NET1
 10
198.60162
 20
208.683613
 30
346.0
 70
    64
  0
VERTEX
  5
6B7
  8
TEAM-NET1
 10
160.676316
 20
221.290518
 30
346.0
 70
    64
  0
VERTEX
  5
6B8
  8
TEAM-NET1
 10
121.670326
 20
229.95352
 30
346.0
 70
    64
  0
VERTEX
  5
6B9
  8
TEAM-NET1
 10
81.959221
 20
234.438078
 30
346.0
 70
    64
  0
VERTEX
  5
6BA
  8
TEAM-NET1
 10
42.006987
 20
235.571069
 30
345.999945
 70
    64
  0
VERTEX
  5
6BB
  8
TEAM-NET1
 10
2.047691
 20
234.416532
 30
346.0
 70
    64
  0
SEQEND
  5
6BC
  8
TEAM-NET1
  0
POLYLINE
  5
6BD
  8
TEAM-BODY
 66
     1
 10
0.0
 20
0.0
 30
0.0
 70
     8
  0
VERTEX
  5
6BE
  8
TEAM-BODY
 10
-2.056468
 20
234.416564
 30
346.0
 70
    32
  0
VERTEX
  5
6BF
  8
TEAM-BODY
 10
-59.470042
 20
235.114105
 30
344.271022
 70
    32
  0
VERTEX
  5
6C0
  8
TEAM-BODY
 10
-116.434258
 20
230.065582
 30
342.542044
 70
    32
  0
VERTEX
  5
6C1
  8
TEAM-BODY
 10
-144.120889
 20
224.666355
 30
341.677555
 70
    32
  0
VERTEX
  5
6C2
  8
TEAM-BODY
 10
-171.003115
 20
217.207125
 30
340.813066
 70
    32
  0
VERTEX
  5
6C3
  8
TEAM-BODY
 10
-222.729544
 20
197.824752
 30
339.084089
 70
    32
  0
VERTEX
  5
6C4
  8
TEAM-BODY
 10
-272.676563
 20
174.978817
 30
337.355111
 70
    32
  0
VERTEX
  5
6C5
  8
TEAM-BODY
 10
-321.305179
 20
149.234213
 30
335.626133
 70
    32
  0
VERTEX
  5
6C6
  8
TEAM-BODY
 10
-368.495903
 20
120.697445
 30
333.897155
 70
    32
  0
VERTEX
  5
6C7
  8
TEAM-BODY
 10
-414.357831
 20
89.687661
 30
332.168177
 70
    32
  0
VERTEX
  5
6C8
  8
TEAM-BODY
 10
-458.566655
 20
56.156023
 30
330.439199
 70
    32
  0
VERTEX
  5
6C9
  8
TEAM-BODY
 10
-500.722676
 20
20.051513
 30
328.710221
 70
    32
  0
VERTEX
  5
6CA
  8
TEAM-BODY
 10
-540.360983
 20
-18.639848
 30
326.981244
 70
    32
  0
VERTEX
  5
6CB
  8
TEAM-BODY
 10
-576.944324
 20
-59.846405
 30
325.252266
 70
    32
  0
VERTEX
  5
6CC
  8
TEAM-BODY
 10
-609.885574
 20
-103.371656
 30
323.523288
 70
    32
  0
VERTEX
  5
6CD
  8
TEAM-BODY
 10
-638.585611
 20
-148.887282
 30
321.79431
 70
    32
  0
VERTEX
  5
6CE
  8
TEAM-BODY
 10
-650.873404
 20
-172.532893
 30
320.929821
 70
    32
  0
VERTEX
  5
6CF
  8
TEAM-BODY
 10
-660.797199
 20
-197.357863
 30
320.065332
 70
    32
  0
VERTEX
  5
6D0
  8
TEAM-BODY
 10
-667.943962
 20
-223.331134
 30
319.200843
 70
    32
  0
VERTEX
  5
6D1
  8
TEAM-BODY
 10
-672.265492
 20
-250.017544
 30
318.336354
 70
    32
  0
VERTEX
  5
6D2
  8
TEAM-BODY
 10
-673.668052
 20
-277.1045
 30
317.471865
 70
    32
  0
VERTEX
  5
6D3
  8
TEAM-BODY
 10
-672.116713
 20
-304.304628
 30
316.607376
 70
    32
  0
VERTEX
  5
6D4
  8
TEAM-BODY
 10
-667.655899
 20
-331.304462
 30
315.742887
 70
    32
  0
VERTEX
  5
6D5
  8
TEAM-BODY
 10
-660.325959
 20
-357.744758
 30
314.878399
 70
    32
  0
VERTEX
  5
6D6
  8
TEAM-BODY
 10
-650.152559
 20
-383.210808
 30
314.01391
 70
    32
  0
VERTEX
  5
6D7
  8
TEAM-BODY
 10
-637.234848
 20
-407.357159
 30
313.149421
 70
    32
  0
VERTEX
  5
6D8
  8
TEAM-BODY
 10
-605.346849
 20
-452.040916
 30
311.420443
 70
    32
  0
VERTEX
  5
6D9
  8
TEAM-BODY
 10
-568.567953
 20
-493.079471
 30
309.691465
 70
    32
  0
VERTEX
  5
6DA
  8
TEAM-BODY
 10
-528.337324
 20
-531.181673
 30
307.962487
 70
    32
  0
VERTEX
  5
6DB
  8
TEAM-BODY
 10
-484.379773
 20
-565.244632
 30
306.233509
 70
    32
  0
VERTEX
  5
6DC
  8
TEAM-BODY
 10
-436.927042
 20
-594.709667
 30
304.504531
 70
    32
  0
VERTEX
  5
6DD
  8
TEAM-BODY
 10
-386.873443
 20
-619.970796
 30
302.775554
 70
    32
  0
VERTEX
  5
6DE
  8
TEAM-BODY
 10
-334.890951
 20
-641.54224
 30
301.046576
 70
    32
  0
VERTEX
  5
6DF
  8
TEAM-BODY
 10
-281.371028
 20
-659.492503
 30
299.317598
 70
    32
  0
VERTEX
  5
6E0
  8
TEAM-BODY
 10
-226.545228
 20
-673.62899
 30
297.58862
 70
    32
  0
VERTEX
  5
6E1
  8
TEAM-BODY
 10
-170.703985
 20
-684.138711
 30
295.859642
 70
    32
  0
VERTEX
  5
6E2
  8
TEAM-BODY
 10
-114.141426
 20
-691.116711
 30
294.130664
 70
    32
  0
VERTEX
  5
6E3
  8
TEAM-BODY
 10
-57.058399
 20
-694.055788
 30
292.401686
 70
    32
  0
VERTEX
  5
6E4
  8
TEAM-BODY
 10
0.306782
 20
-693.46139
 30
290.672708
 70
    32
  0
SEQEND
  5
6E5
  8
TEAM-BODY
  0
POLYLINE
  5
6E6
  8
TEAM-BODY
 66
     1
 10
0.0
 20
0.0
 30
0.0
 70
     8
  0
VERTEX
  5
6E7
  8
TEAM-BODY
 10
0.306782
 20
-693.46139
 30
290.672708
 70
    32
  0
VERTEX
  5
6E8
  8
TEAM-BODY
 10
57.711306
 20
-694.052379
 30
292.401686
 70
    32
  0
VERTEX
  5
6E9
  8
TEAM-BODY
 10
114.835453
 20
-691.097884
 30
294.130664
 70
    32
  0
VERTEX
  5
6EA
  8
TEAM-BODY
 10
171.439716
 20
-684.093385
 30
295.859642
 70
    32
  0
VERTEX
  5
6EB
  8
TEAM-BODY
 10
227.321564
 20
-673.545403
 30
297.58862
 70
    32
  0
VERTEX
  5
6EC
  8
TEAM-BODY
 10
282.184607
 20
-659.355307
 30
299.317598
 70
    32
  0
VERTEX
  5
6ED
  8
TEAM-BODY
 10
335.736341
 20
-641.336545
 30
301.046576
 70
    32
  0
VERTEX
  5
6EE
  8
TEAM-BODY
 10
387.742166
 20
-619.680689
 30
302.775554
 70
    32
  0
VERTEX
  5
6EF
  8
TEAM-BODY
 10
437.80551
 20
-594.315861
 30
304.504531
 70
    32
  0
VERTEX
  5
6F0
  8
TEAM-BODY
 10
485.248555
 20
-564.726822
 30
306.233509
 70
    32
  0
VERTEX
  5
6F1
  8
TEAM-BODY
 10
529.171543
 20
-530.520313
 30
307.962487
 70
    32
  0
VERTEX
  5
6F2
  8
TEAM-BODY
 10
569.33959
 20
-492.261695
 30
309.691465
 70
    32
  0
VERTEX
  5
6F3
  8
TEAM-BODY
 10
606.015598
 20
-451.052122
 30
311.420443
 70
    32
  0
VERTEX
  5
6F4
  8
TEAM-BODY
 10
637.748205
 20
-406.187757
 30
313.149421
 70
    32
  0
VERTEX
  5
6F5
  8
TEAM-BODY
 10
650.565887
 20
-381.950254
 30
314.01391
 70
    32
  0
VERTEX
  5
6F6
  8
TEAM-BODY
 10
660.626307
 20
-356.397237
 30
314.878399
 70
    32
  0
VERTEX
  5
6F7
  8
TEAM-BODY
 10
667.831323
 20
-329.876142
 30
315.742887
 70
    32
  0
VERTEX
  5
6F8
  8
TEAM-BODY
 10
672.15515
 20
-302.802089
 30
316.607376
 70
    32
  0
VERTEX
  5
6F9
  8
TEAM-BODY
 10
673.559951
 20
-275.536674
 30
317.471865
 70
    32
  0
VERTEX
  5
6FA
  8
TEAM-BODY
 10
672.001965
 20
-248.3938
 30
318.336354
 70
    32
  0
VERTEX
  5
6FB
  8
TEAM-BODY
 10
667.518339
 20
-221.661703
 30
319.200843
 70
    32
  0
VERTEX
  5
6FC
  8
TEAM-BODY
 10
660.203946
 20
-195.653677
 30
320.065332
 70
    32
  0
VERTEX
  5
6FD
  8
TEAM-BODY
 10
650.110246
 20
-170.804366
 30
320.929821
 70
    32
  0
VERTEX
  5
6FE
  8
TEAM-BODY
 10
637.650037
 20
-147.146597
 30
321.79431
 70
    32
  0
VERTEX
  5
6FF
  8
TEAM-BODY
 10
608.603466
 20
-101.643074
 30
323.523288
 70
    32
  0
VERTEX
  5
700
  8
TEAM-BODY
 10
575.327358
 20
-58.169021
 30
325.252266
 70
    32
  0
VERTEX
  5
701
  8
TEAM-BODY
 10
538.428525
 20
-17.044092
 30
326.981244
 70
    32
  0
VERTEX
  5
702
  8
TEAM-BODY
 10
498.496746
 20
21.543323
 30
328.710221
 70
    32
  0
VERTEX
  5
703
  8
TEAM-BODY
 10
456.069459
 20
57.527656
 30
330.439199
 70
    32
  0
VERTEX
  5
704
  8
TEAM-BODY
 10
411.60996
 20
90.928429
 30
332.168177
 70
    32
  0
VERTEX
  5
705
  8
TEAM-BODY
 10
365.518946
 20
121.797624
 30
333.897155
 70
    32
  0
VERTEX
  5
706
  8
TEAM-BODY
 10
318.116818
 20
150.188532
 30
335.626133
 70
    32
  0
VERTEX
  5
707
  8
TEAM-BODY
 10
269.297037
 20
175.784853
 30
337.355111
 70
    32
  0
VERTEX
  5
708
  8
TEAM-BODY
 10
219.173788
 20
198.477078
 30
339.084089
 70
    32
  0
VERTEX
  5
709
  8
TEAM-BODY
 10
167.290436
 20
217.707908
 30
340.813066
 70
    32
  0
VERTEX
  5
70A
  8
TEAM-BODY
 10
140.33576
 20
225.092958
 30
341.677555
 70
    32
  0
VERTEX
  5
70B
  8
TEAM-BODY
 10
112.57928
 20
230.415838
 30
342.542044
 70
    32
  0
VERTEX
  5
70C
  8
TEAM-BODY
 10
55.480057
 20
235.297588
 30
344.271022
 70
    32
  0
VERTEX
  5
70D
  8
TEAM-BODY
 10
-2.056468
 20
234.416564
 30
346.0
 70
    32
  0
SEQEND
  5
70E
  8
TEAM-BODY
  0
POLYLINE
  5
70F
  8
TEAM-BODY
 66
     1
 10
0.0
 20
0.0
 30
0.0
 70
     8
  0
VERTEX
  5
710
  8
TEAM-BODY
 10
-2.056468
 20
234.416564
 30
346.0
 70
    32
  0
VERTEX
  5
711
  8
TEAM-BODY
 10
46.121821
 20
235.752047
 30
345.99999
 70
    32
  0
VERTEX
  5
712
  8
TEAM-BODY
 10
93.979895
 20
233.389345
 30
346.0
 70
    32
  0
VERTEX
  5
713
  8
TEAM-BODY
 10
141.852055
 20
225.62225
 30
346.0
 70
    32
  0
VERTEX
  5
714
  8
TEAM-BODY
 10
187.300435
 20
212.068411
 30
346.0
 70
    32
  0
VERTEX
  5
715
  8
TEAM-BODY
 10
232.852243
 20
193.811478
 30
346.000004
 70
    32
  0
VERTEX
  5
716
  8
TEAM-BODY
 10
277.119872
 20
173.154714
 30
346.000008
 70
    32
  0
VERTEX
  5
717
  8
TEAM-BODY
 10
320.076307
 20
150.249871
 30
346.000005
 70
    32
  0
VERTEX
  5
718
  8
TEAM-BODY
 10
361.715256
 20
125.286404
 30
346.0
 70
    32
  0
SEQEND
  5
719
  8
TEAM-BODY
  0
POLYLINE
  5
71A
  8
TEAM-BODY
 66
     1
 10
0.0
 20
0.0
 30
346.0
 70
   128
  0
VERTEX
  5
14C4
  8
TEAM-BODY
 10
363.659008
 20
269.643503
 30
346.0
  0
VERTEX
  5
14C5
  8
TEAM-BODY
 10
285.638931
 20
346.189544
 30
346.0
  0
VERTEX
  5
14C6
  8
TEAM-BODY
 10
245.710782
 20
383.506155
 30
346.0
  0
VERTEX
  5
14C7
  8
TEAM-BODY
 10
204.328764
 20
419.23166
 30
346.0
  0
VERTEX
  5
14C8
  8
TEAM-BODY
 10
182.614907
 20
435.873431
 30
346.0
  0
VERTEX
  5
14C9
  8
TEAM-BODY
 10
159.547347
 20
450.527314
 30
346.0
  0
VERTEX
  5
14CA
  8
TEAM-BODY
 10
134.824696
 20
462.227218
 30
346.0
  0
VERTEX
  5
14CB
  8
TEAM-BODY
 10
108.731628
 20
470.370941
 30
346.0
  0
VERTEX
  5
14CC
  8
TEAM-BODY
 10
81.817518
 20
475.428522
 30
346.0
  0
VERTEX
  5
14CD
  8
TEAM-BODY
 10
54.623437
 20
478.232391
 30
346.0
  0
VERTEX
  5
14CE
  8
TEAM-BODY
 10
0.0
 20
479.73889
 30
346.0
  0
SEQEND
  5
14CF
  8
TEAM-BODY
  0
POLYLINE
  5
71B
  8
TEAM-NET1
 66
     1
 10
0.0
 20
0.0
 30
0.0
 70
    16
 71
    11
 72
     7
  0
VERTEX
  5
71C
  8
TEAM-NET1
 10
0.0
 20
479.73889
 30
346.0
 70
    64
  0
VERTEX
  5
71D
  8
TEAM-NET1
 10
72.80302
 20
476.575333
 30
346.0
 70
    64
  0
VERTEX
  5
71E
  8
TEAM-NET1
 10
143.191736
 20
458.724034
 30
346.0
 70
    64
  0
VERTEX
  5
71F
  8
TEAM-NET1
 10
204.255175
 20
419.291521
 30
346.0
 70
    64
  0
VERTEX
  5
720
  8
TEAM-NET1
 10
259.062431
 20
371.226984
 30
346.0
 70
    64
  0
VERTEX
  5
721
  8
TEAM-NET1
 10
311.999752
 20
321.091959
 30
346.0
 70
    64
  0
VERTEX
  5
722
  8
TEAM-NET1
 10
363.659008
 20
269.643503
 30
346.0
 70
    64
  0
VERTEX
  5
723
  8
TEAM-NET1
 10
-0.205647
 20
455.206657
 30
346.0
 70
    64
  0
VERTEX
  5
724
  8
TEAM-NET1
 10
73.379269
 20
452.975138
 30
346.0
 70
    64
  0
VERTEX
  5
725
  8
TEAM-NET1
 10
146.12755
 20
437.474263
 30
346.0
 70
    64
  0
VERTEX
  5
726
  8
TEAM-NET1
 10
210.515378
 20
401.310337
 30
346.0
 70
    64
  0
VERTEX
  5
727
  8
TEAM-NET1
 10
268.752071
 20
356.547827
 30
346.0
 70
    64
  0
VERTEX
  5
728
  8
TEAM-NET1
 10
324.358291
 20
309.046169
 30
346.0
 70
    64
  0
VERTEX
  5
729
  8
TEAM-NET1
 10
377.141916
 20
258.935764
 30
346.0
 70
    64
  0
VERTEX
  5
72A
  8
TEAM-NET1
 10
-0.411294
 20
430.674424
 30
346.0
 70
    64
  0
VERTEX
  5
72B
  8
TEAM-NET1
 10
73.377355
 20
429.032241
 30
346.0
 70
    64
  0
VERTEX
  5
72C
  8
TEAM-NET1
 10
147.733781
 20
415.059883
 30
346.0
 70
    64
  0
VERTEX
  5
72D
  8
TEAM-NET1
 10
214.909643
 20
381.461268
 30
346.0
 70
    64
  0
VERTEX
  5
72E
  8
TEAM-NET1
 10
276.219505
 20
339.354834
 30
346.0
 70
    64
  0
VERTEX
  5
72F
  8
TEAM-NET1
 10
334.27349
 20
294.149681
 30
346.0
 70
    64
  0
VERTEX
  5
730
  8
TEAM-NET1
 10
388.190418
 20
245.730647
 30
346.0
 70
    64
  0
VERTEX
  5
731
  8
TEAM-NET1
 10
-0.61694
 20
406.142192
 30
346.0
 70
    64
  0
VERTEX
  5
732
  8
TEAM-NET1
 10
72.863157
 20
404.826203
 30
346.0
 70
    64
  0
VERTEX
  5
733
  8
TEAM-NET1
 10
148.06751
 20
391.750647
 30
346.0
 70
    64
  0
VERTEX
  5
734
  8
TEAM-NET1
 10
217.373492
 20
360.170019
 30
346.0
 70
    64
  0
VERTEX
  5
735
  8
TEAM-NET1
 10
281.233673
 20
320.215328
 30
346.0
 70
    64
  0
VERTEX
  5
736
  8
TEAM-NET1
 10
341.37292
 20
277.03875
 30
346.0
 70
    64
  0
VERTEX
  5
737
  8
TEAM-NET1
 10
396.351188
 20
230.569964
 30
346.0
 70
    64
  0
VERTEX
  5
738
  8
TEAM-NET1
 10
-0.822587
 20
381.609959
 30
346.0
 70
    64
  0
VERTEX
  5
739
  8
TEAM-NET1
 10
71.911332
 20
380.44253
 30
346.0
 70
    64
  0
VERTEX
  5
73A
  8
TEAM-NET1
 10
147.216539
 20
367.837114
 30
346.0
 70
    64
  0
VERTEX
  5
73B
  8
TEAM-NET1
 10
217.901688
 20
337.902412
 30
346.0
 70
    64
  0
VERTEX
  5
73C
  8
TEAM-NET1
 10
283.65128
 20
299.756068
 30
346.0
 70
    64
  0
VERTEX
  5
73D
  8
TEAM-NET1
 10
345.393858
 20
258.423925
 30
346.0
 70
    64
  0
VERTEX
  5
73E
  8
TEAM-NET1
 10
401.289389
 20
214.075763
 30
346.0
 70
    64
  0
VERTEX
  5
73F
  8
TEAM-NET1
 10
-1.028234
 20
357.077727
 30
346.0
 70
    64
  0
VERTEX
  5
740
  8
TEAM-NET1
 10
70.60633
 20
355.970781
 30
346.0
 70
    64
  0
VERTEX
  5
741
  8
TEAM-NET1
 10
145.302945
 20
343.624026
 30
346.0
 70
    64
  0
VERTEX
  5
742
  8
TEAM-NET1
 10
216.555108
 20
315.151629
 30
346.0
 70
    64
  0
VERTEX
  5
743
  8
TEAM-NET1
 10
283.426976
 20
278.644342
 30
346.0
 70
    64
  0
VERTEX
  5
744
  8
TEAM-NET1
 10
346.196012
 20
239.066416
 30
346.0
 70
    64
  0
VERTEX
  5
745
  8
TEAM-NET1
 10
402.802403
 20
196.924808
 30
346.0
 70
    64
  0
VERTEX
  5
746
  8
TEAM-NET1
 10
-1.233881
 20
332.545494
 30
346.0
 70
    64
  0
VERTEX
  5
747
  8
TEAM-NET1
 10
69.043013
 20
331.502509
 30
346.0
 70
    64
  0
VERTEX
  5
748
  8
TEAM-NET1
 10
142.485246
 20
319.423111
 30
346.0
 70
    64
  0
VERTEX
  5
749
  8
TEAM-NET1
 10
213.464895
 20
292.424323
 30
346.0
 70
    64
  0
VERTEX
  5
74A
  8
TEAM-NET1
 10
280.619513
 20
257.567397
 30
346.0
 70
    64
  0
VERTEX
  5
74B
  8
TEAM-NET1
 10
343.769216
 20
219.752385
 30
346.0
 70
    64
  0
VERTEX
  5
74C
  8
TEAM-NET1
 10
400.828151
 20
179.820808
 30
346.0
 70
    64
  0
VERTEX
  5
74D
  8
TEAM-NET1
 10
-1.439528
 20
308.013262
 30
346.0
 70
    64
  0
VERTEX
  5
74E
  8
TEAM-NET1
 10
67.326838
 20
307.129128
 30
346.0
 70
    64
  0
VERTEX
  5
74F
  8
TEAM-NET1
 10
138.959052
 20
295.5456
 30
346.0
 70
    64
  0
VERTEX
  5
750
  8
TEAM-NET1
 10
208.833734
 20
270.226187
 30
346.0
 70
    64
  0
VERTEX
  5
751
  8
TEAM-NET1
 10
275.393628
 20
237.211056
 30
346.0
 70
    64
  0
VERTEX
  5
752
  8
TEAM-NET1
 10
338.235789
 20
201.266208
 30
346.0
 70
    64
  0
VERTEX
  5
753
  8
TEAM-NET1
 10
395.447637
 20
163.465547
 30
346.0
 70
    64
  0
VERTEX
  5
754
  8
TEAM-NET1
 10
-1.645174
 20
283.481029
 30
346.0
 70
    64
  0
VERTEX
  5
755
  8
TEAM-NET1
 10
65.57362
 20
282.939774
 30
346.0
 70
    64
  0
VERTEX
  5
756
  8
TEAM-NET1
 10
134.956208
 20
272.294756
 30
346.0
 70
    64
  0
VERTEX
  5
757
  8
TEAM-NET1
 10
202.934192
 20
249.047549
 30
346.0
 70
    64
  0
VERTEX
  5
758
  8
TEAM-NET1
 10
268.017587
 20
218.238382
 30
346.0
 70
    64
  0
VERTEX
  5
759
  8
TEAM-NET1
 10
329.847458
 20
184.363818
 30
346.0
 70
    64
  0
VERTEX
  5
75A
  8
TEAM-NET1
 10
386.881626
 20
148.530088
 30
346.0
 70
    64
  0
VERTEX
  5
75B
  8
TEAM-NET1
 10
-1.850821
 20
258.948796
 30
346.0
 70
    64
  0
VERTEX
  5
75C
  8
TEAM-NET1
 10
63.908851
 20
259.019266
 30
346.0
 70
    64
  0
VERTEX
  5
75D
  8
TEAM-NET1
 10
130.742447
 20
249.958741
 30
346.0
 70
    64
  0
VERTEX
  5
75E
  8
TEAM-NET1
 10
196.104186
 20
229.349613
 30
346.0
 70
    64
  0
VERTEX
  5
75F
  8
TEAM-NET1
 10
258.85647
 20
201.26929
 30
346.0
 70
    64
  0
VERTEX
  5
760
  8
TEAM-NET1
 10
318.976969
 20
169.747207
 30
346.0
 70
    64
  0
VERTEX
  5
761
  8
TEAM-NET1
 10
375.481584
 20
135.627238
 30
346.0
 70
    64
  0
VERTEX
  5
762
  8
TEAM-NET1
 10
-2.056468
 20
234.416564
 30
346.0
 70
    64
  0
VERTEX
  5
763
  8
TEAM-NET1
 10
62.466638
 20
235.44625
 30
346.0
 70
    64
  0
VERTEX
  5
764
  8
TEAM-NET1
 10
126.613645
 20
228.804094
 30
346.0
 70
    64
  0
VERTEX
  5
765
  8
TEAM-NET1
 10
188.739772
 20
211.551883
 30
346.0
 70
    64
  0
VERTEX
  5
766
  8
TEAM-NET1
 10
248.361494
 20
186.861916
 30
346.0
 70
    64
  0
VERTEX
  5
767
  8
TEAM-NET1
 10
306.104738
 20
158.041145
 30
346.0
 70
    64
  0
VERTEX
  5
768
  8
TEAM-NET1
 10
361.71526
 20
125.286406
 30
346.0
 70
    64
  0
SEQEND
  5
769
  8
TEAM-NET1
  0
POLYLINE
  5
76A
  8
TEAM-BODY
 66
     1
 10
0.0
 20
0.0
 30
346.0
 70
   128
  0
VERTEX
  5
14D0
  8
TEAM-BODY
 10
0.0
 20
479.73889
 30
346.0
  0
VERTEX
  5
14D1
  8
TEAM-BODY
 10
-54.623437
 20
478.232391
 30
346.0
  0
VERTEX
  5
14D2
  8
TEAM-BODY
 10
-81.817518
 20
475.428522
 30
346.0
  0
VERTEX
  5
14D3
  8
TEAM-BODY
 10
-108.731628
 20
470.370941
 30
346.0
  0
VERTEX
  5
14D4
  8
TEAM-BODY
 10
-134.824696
 20
462.227218
 30
346.0
  0
VERTEX
  5
14D5
  8
TEAM-BODY
 10
-159.547347
 20
450.527314
 30
346.0
  0
VERTEX
  5
14D6
  8
TEAM-BODY
 10
-182.614907
 20
435.873431
 30
346.0
  0
VERTEX
  5
14D7
  8
TEAM-BODY
 10
-204.328764
 20
419.23166
 30
346.0
  0
VERTEX
  5
14D8
  8
TEAM-BODY
 10
-245.710782
 20
383.506155
 30
346.0
  0
VERTEX
  5
14D9
  8
TEAM-BODY
 10
-285.638931
 20
346.189544
 30
346.0
  0
VERTEX
  5
14DA
  8
TEAM-BODY
 10
-363.659008
 20
269.643503
 30
346.0
  0
SEQEND
  5
14DB
  8
TEAM-BODY
  0
POLYLINE
  5
76B
  8
TEAM-BODY
 66
     1
 10
0.0
 20
0.0
 30
0.0
 70
     8
  0
VERTEX
  5
76C
  8
TEAM-BODY
 10
-362.693222
 20
125.504318
 30
346.0
 70
    32
  0
VERTEX
  5
76D
  8
TEAM-BODY
 10
-321.66765
 20
150.220474
 30
346.000005
 70
    32
  0
VERTEX
  5
76E
  8
TEAM-BODY
 10
-279.32953
 20
172.910738
 30
346.000007
 70
    32
  0
VERTEX
  5
76F
  8
TEAM-BODY
 10
-235.7104
 20
193.414809
 30
346.000004
 70
    32
  0
VERTEX
  5
770
  8
TEAM-BODY
 10
-190.790928
 20
211.576022
 30
346.0
 70
    32
  0
VERTEX
  5
771
  8
TEAM-BODY
 10
-145.3428
 20
225.263464
 30
346.0
 70
    32
  0
VERTEX
  5
772
  8
TEAM-BODY
 10
-97.465122
 20
233.136029
 30
346.0
 70
    32
  0
VERTEX
  5
773
  8
TEAM-BODY
 10
-49.498836
 20
235.603803
 30
345.999986
 70
    32
  0
VERTEX
  5
774
  8
TEAM-BODY
 10
-2.056468
 20
234.416564
 30
346.0
 70
    32
  0
SEQEND
  5
775
  8
TEAM-BODY
  0
POLYLINE
  5
776
  8
TEAM-NET1
 66
     1
 10
0.0
 20
0.0
 30
0.0
 70
    16
 71
    11
 72
     7
  0
VERTEX
  5
777
  8
TEAM-NET1
 10
-2.056468
 20
234.416564
 30
346.0
 70
    64
  0
VERTEX
  5
778
  8
TEAM-NET1
 10
-66.059512
 20
235.256377
 30
346.0
 70
    64
  0
VERTEX
  5
779
  8
TEAM-NET1
 10
-129.676302
 20
228.559803
 30
346.0
 70
    64
  0
VERTEX
  5
77A
  8
TEAM-NET1
 10
-191.284455
 20
211.397702
 30
346.0
 70
    64
  0
VERTEX
  5
77B
  8
TEAM-NET1
 10
-250.376349
 20
186.797248
 30
346.0
 70
    64
  0
VERTEX
  5
77C
  8
TEAM-NET1
 10
-307.597546
 20
158.101577
 30
346.0
 70
    64
  0
VERTEX
  5
77D
  8
TEAM-NET1
 10
-362.693222
 20
125.504318
 30
346.0
 70
    64
  0
VERTEX
  5
77E
  8
TEAM-NET1
 10
-1.850821
 20
258.948796
 30
346.0
 70
    64
  0
VERTEX
  5
77F
  8
TEAM-NET1
 10
-67.119469
 20
258.842423
 30
346.0
 70
    64
  0
VERTEX
  5
780
  8
TEAM-NET1
 10
-133.473886
 20
249.748287
 30
346.0
 70
    64
  0
VERTEX
  5
781
  8
TEAM-NET1
 10
-198.379203
 20
229.251816
 30
346.0
 70
    64
  0
VERTEX
  5
782
  8
TEAM-NET1
 10
-260.663544
 20
201.283568
 30
346.0
 70
    64
  0
VERTEX
  5
783
  8
TEAM-NET1
 10
-320.312805
 20
169.902366
 30
346.0
 70
    64
  0
VERTEX
  5
784
  8
TEAM-NET1
 10
-376.331467
 20
135.943181
 30
346.0
 70
    64
  0
VERTEX
  5
785
  8
TEAM-NET1
 10
-1.645174
 20
283.481029
 30
346.0
 70
    64
  0
VERTEX
  5
786
  8
TEAM-NET1
 10
-68.415018
 20
282.783366
 30
346.0
 70
    64
  0
VERTEX
  5
787
  8
TEAM-NET1
 10
-137.365092
 20
272.123886
 30
346.0
 70
    64
  0
VERTEX
  5
788
  8
TEAM-NET1
 10
-204.934302
 20
249.002004
 30
346.0
 70
    64
  0
VERTEX
  5
789
  8
TEAM-NET1
 10
-269.5983
 20
218.317626
 30
346.0
 70
    64
  0
VERTEX
  5
78A
  8
TEAM-NET1
 10
-331.002979
 20
184.589448
 30
346.0
 70
    64
  0
VERTEX
  5
78B
  8
TEAM-NET1
 10
-387.592869
 20
148.910539
 30
346.0
 70
    64
  0
VERTEX
  5
78C
  8
TEAM-NET1
 10
-1.439528
 20
308.013262
 30
346.0
 70
    64
  0
VERTEX
  5
78D
  8
TEAM-NET1
 10
-69.809187
 20
306.998089
 30
346.0
 70
    64
  0
VERTEX
  5
78E
  8
TEAM-NET1
 10
-141.053264
 20
295.416451
 30
346.0
 70
    64
  0
VERTEX
  5
78F
  8
TEAM-NET1
 10
-210.557676
 20
270.225604
 30
346.0
 70
    64
  0
VERTEX
  5
790
  8
TEAM-NET1
 10
-276.738005
 20
237.33857
 30
346.0
 70
    64
  0
VERTEX
  5
791
  8
TEAM-NET1
 10
-339.198437
 20
201.536354
 30
346.0
 70
    64
  0
VERTEX
  5
792
  8
TEAM-NET1
 10
-396.017667
 20
163.876979
 30
346.0
 70
    64
  0
VERTEX
  5
793
  8
TEAM-NET1
 10
-1.233881
 20
332.545494
 30
346.0
 70
    64
  0
VERTEX
  5
794
  8
TEAM-NET1
 10
-71.173586
 20
331.399431
 30
346.0
 70
    64
  0
VERTEX
  5
795
  8
TEAM-NET1
 10
-144.271766
 20
319.334671
 30
346.0
 70
    64
  0
VERTEX
  5
796
  8
TEAM-NET1
 10
-214.915156
 20
292.459144
 30
346.0
 70
    64
  0
VERTEX
  5
797
  8
TEAM-NET1
 10
-281.725833
 20
257.725092
 30
346.0
 70
    64
  0
VERTEX
  5
798
  8
TEAM-NET1
 10
-344.536779
 20
220.041045
 30
346.0
 70
    64
  0
VERTEX
  5
799
  8
TEAM-NET1
 10
-401.261905
 20
180.231475
 30
346.0
 70
    64
  0
VERTEX
  5
79A
  8
TEAM-NET1
 10
-1.028234
 20
357.077727
 30
346.0
 70
    64
  0
VERTEX
  5
79B
  8
TEAM-NET1
 10
-72.389442
 20
355.896034
 30
346.0
 70
    64
  0
VERTEX
  5
79C
  8
TEAM-NET1
 10
-146.78763
 20
343.572546
 30
346.0
 70
    64
  0
VERTEX
  5
79D
  8
TEAM-NET1
 10
-217.737496
 20
315.210821
 30
346.0
 70
    64
  0
VERTEX
  5
79E
  8
TEAM-NET1
 10
-284.30114
 20
278.813908
 30
346.0
 70
    64
  0
VERTEX
  5
79F
  8
TEAM-NET1
 10
-346.775837
 20
239.349007
 30
346.0
 70
    64
  0
VERTEX
  5
7A0
  8
TEAM-NET1
 10
-403.111479
 20
197.306329
 30
346.0
 70
    64
  0
VERTEX
  5
7A1
  8
TEAM-NET1
 10
-0.822587
 20
381.609959
 30
346.0
 70
    64
  0
VERTEX
  5
7A2
  8
TEAM-NET1
 10
-73.348248
 20
380.394359
 30
346.0
 70
    64
  0
VERTEX
  5
7A3
  8
TEAM-NET1
 10
-148.403819
 20
367.816449
 30
346.0
 70
    64
  0
VERTEX
  5
7A4
  8
TEAM-NET1
 10
-218.824748
 20
337.974124
 30
346.0
 70
    64
  0
VERTEX
  5
7A5
  8
TEAM-NET1
 10
-284.305947
 20
299.919946
 30
346.0
 70
    64
  0
VERTEX
  5
7A6
  8
TEAM-NET1
 10
-345.801769
 20
258.678499
 30
346.0
 70
    64
  0
VERTEX
  5
7A7
  8
TEAM-NET1
 10
-401.490876
 20
214.404434
 30
346.0
 70
    64
  0
VERTEX
  5
7A8
  8
TEAM-NET1
 10
-0.61694
 20
406.142192
 30
346.0
 70
    64
  0
VERTEX
  5
7A9
  8
TEAM-NET1
 10
-73.951991
 20
404.800798
 30
346.0
 70
    64
  0
VERTEX
  5
7AA
  8
TEAM-NET1
 10
-148.960026
 20
391.752508
 30
346.0
 70
    64
  0
VERTEX
  5
7AB
  8
TEAM-NET1
 10
-218.047802
 20
360.242067
 30
346.0
 70
    64
  0
VERTEX
  5
7AC
  8
TEAM-NET1
 10
-281.687217
 20
320.357435
 30
346.0
 70
    64
  0
VERTEX
  5
7AD
  8
TEAM-NET1
 10
-341.631915
 20
277.246898
 30
346.0
 70
    64
  0
VERTEX
  5
7AE
  8
TEAM-NET1
 10
-396.466262
 20
230.827735
 30
346.0
 70
    64
  0
VERTEX
  5
7AF
  8
TEAM-NET1
 10
-0.411294
 20
430.674424
 30
346.0
 70
    64
  0
VERTEX
  5
7B0
  8
TEAM-NET1
 10
-74.112954
 20
429.023784
 30
346.0
 70
    64
  0
VERTEX
  5
7B1
  8
TEAM-NET1
 10
-148.331975
 20
415.073992
 30
346.0
 70
    64
  0
VERTEX
  5
7B2
  8
TEAM-NET1
 10
-215.347033
 20
381.521442
 30
346.0
 70
    64
  0
VERTEX
  5
7B3
  8
TEAM-NET1
 10
-276.494859
 20
339.461008
 30
346.0
 70
    64
  0
VERTEX
  5
7B4
  8
TEAM-NET1
 10
-334.412293
 20
294.297091
 30
346.0
 70
    64
  0
VERTEX
  5
7B5
  8
TEAM-NET1
 10
-388.242773
 20
245.905725
 30
346.0
 70
    64
  0
VERTEX
  5
7B6
  8
TEAM-NET1
 10
-0.205647
 20
455.206657
 30
346.0
 70
    64
  0
VERTEX
  5
7B7
  8
TEAM-NET1
 10
-73.753093
 20
452.975819
 30
346.0
 70
    64
  0
VERTEX
  5
7B8
  8
TEAM-NET1
 10
-146.429248
 20
437.488413
 30
346.0
 70
    64
  0
VERTEX
  5
7B9
  8
TEAM-NET1
 10
-210.728116
 20
401.3465
 30
346.0
 70
    64
  0
VERTEX
  5
7BA
  8
TEAM-NET1
 10
-268.875518
 20
356.605985
 30
346.0
 70
    64
  0
VERTEX
  5
7BB
  8
TEAM-NET1
 10
-324.409846
 20
309.122821
 30
346.0
 70
    64
  0
VERTEX
  5
7BC
  8
TEAM-NET1
 10
-377.156145
 20
259.022823
 30
346.0
 70
    64
  0
VERTEX
  5
7BD
  8
TEAM-NET1
 10
0.0
 20
479.73889
 30
346.0
 70
    64
  0
VERTEX
  5
7BE
  8
TEAM-NET1
 10
-72.803022
 20
476.575333
 30
346.0
 70
    64
  0
VERTEX
  5
7BF
  8
TEAM-NET1
 10
-143.191733
 20
458.724035
 30
346.0
 70
    64
  0
VERTEX
  5
7C0
  8
TEAM-NET1
 10
-204.255174
 20
419.291522
 30
346.0
 70
    64
  0
VERTEX
  5
7C1
  8
TEAM-NET1
 10
-259.06243
 20
371.226984
 30
346.0
 70
    64
  0
VERTEX
  5
7C2
  8
TEAM-NET1
 10
-311.999752
 20
321.091959
 30
346.0
 70
    64
  0
VERTEX
  5
7C3
  8
TEAM-NET1
 10
-363.659008
 20
269.643503
 30
346.0
 70
    64
  0
SEQEND
  5
7C4
  8
TEAM-NET1
  0
ARC
  5
7C5
  8
TEAM-BODY
 10
-318.113386
 20
197.875847
 30
346.0
 40
85.0
 50
122.400275
 51
238.36752
  0
ARC
  5
7C6
  8
TEAM-BODY
 10
317.810107
 20
198.069217
 30
346.0
 40
85.0
 50
301.099858
 51
57.357276
  0
ARC
  5
7C7
  8
TEAM-NET1
 10
-318.113386
 20
197.875847
 30
346.0
 40
85.0
 50
122.400275
 51
238.36752
1001
ACAD
1000
R13OBJECT
1002
{
1005
2D3
1002
}
  0
ARC
  5
7C8
  8
TEAM-NET1
 10
317.810107
 20
198.069217
 30
346.0
 40
85.0
 50
301.099858
 51
57.357276
1001
ACAD
1000
R13OBJECT
1002
{
1005
41F
1002
}
  0
LINE
  5
7C9
  8
TEAM-BODY
 10
0.0438
 20
-721.551493
 30
545.999793
 11
-0.011819
 21
-727.492388
 31
600.0
  0
POLYLINE
  5
7CA
  8
TEAM-NET1
 66
     1
 10
0.0
 20
0.0
 30
0.0
 70
    16
 71
    16
 72
     7
  0
VERTEX
  5
7CB
  8
TEAM-NET1
 10
-25.852517
 20
-718.393585
 30
519.991684
 70
    64
  0
VERTEX
  5
7CC
  8
TEAM-NET1
 10
-24.976471
 20
-719.092991
 30
526.693095
 70
    64
  0
VERTEX
  5
7CD
  8
TEAM-NET1
 10
-22.402098
 20
-719.77989
 30
532.943402
 70
    64
  0
VERTEX
  5
7CE
  8
TEAM-NET1
 10
-18.299457
 20
-720.411441
 30
538.322404
 70
    64
  0
VERTEX
  5
7CF
  8
TEAM-NET1
 10
-12.941022
 20
-720.943636
 30
542.465592
 70
    64
  0
VERTEX
  5
7D0
  8
TEAM-NET1
 10
-6.68499
 20
-721.33509
 30
545.086434
 70
    64
  0
VERTEX
  5
7D1
  8
TEAM-NET1
 10
0.0438
 20
-721.551493
 30
545.999793
 70
    64
  0
VERTEX
  5
7D2
  8
TEAM-NET1
 10
-35.609593
 20
-717.930195
 30
525.325571
 70
    64
  0
VERTEX
  5
7D3
  8
TEAM-NET1
 10
-33.797949
 20
-718.734354
 30
531.837712
 70
    64
  0
VERTEX
  5
7D4
  8
TEAM-NET1
 10
-29.431145
 20
-719.591254
 30
537.748661
 70
    64
  0
VERTEX
  5
7D5
  8
TEAM-NET1
 10
-23.115636
 20
-720.418527
 30
542.721489
 70
    64
  0
VERTEX
  5
7D6
  8
TEAM-NET1
 10
-15.559364
 20
-721.136283
 30
546.474248
 70
    64
  0
VERTEX
  5
7D7
  8
TEAM-NET1
 10
-7.554786
 20
-721.668852
 30
548.801974
 70
    64
  0
VERTEX
  5
7D8
  8
TEAM-NET1
 10
0.040092
 20
-721.947553
 30
549.599807
 70
    64
  0
VERTEX
  5
7D9
  8
TEAM-NET1
 10
-45.366669
 20
-717.466804
 30
530.659459
 70
    64
  0
VERTEX
  5
7DA
  8
TEAM-NET1
 10
-42.232826
 20
-718.450255
 30
536.871976
 70
    64
  0
VERTEX
  5
7DB
  8
TEAM-NET1
 10
-36.098532
 20
-719.496824
 30
542.410427
 70
    64
  0
VERTEX
  5
7DC
  8
TEAM-NET1
 10
-27.815335
 20
-720.499532
 30
546.997469
 70
    64
  0
VERTEX
  5
7DD
  8
TEAM-NET1
 10
-18.333677
 20
-721.364132
 30
550.408749
 70
    64
  0
VERTEX
  5
7DE
  8
TEAM-NET1
 10
-8.685095
 20
-722.005091
 30
552.494099
 70
    64
  0
VERTEX
  5
7DF
  8
TEAM-NET1
 10
0.036384
 20
-722.343613
 30
553.199821
 70
    64
  0
VERTEX
  5
7E0
  8
TEAM-NET1
 10
-55.123745
 20
-717.003414
 30
535.993347
 70
    64
  0
VERTEX
  5
7E1
  8
TEAM-NET1
 10
-50.34058
 20
-718.229225
 30
541.812865
 70
    64
  0
VERTEX
  5
7E2
  8
TEAM-NET1
 10
-42.459898
 20
-719.482107
 30
546.950774
 70
    64
  0
VERTEX
  5
7E3
  8
TEAM-NET1
 10
-32.416475
 20
-720.643085
 30
551.169283
 70
    64
  0
VERTEX
  5
7E4
  8
TEAM-NET1
 10
-21.239965
 20
-721.621769
 30
554.280503
 70
    64
  0
VERTEX
  5
7E5
  8
TEAM-NET1
 10
-10.035838
 20
-722.343426
 30
556.166411
 70
    64
  0
VERTEX
  5
7E6
  8
TEAM-NET1
 10
0.032676
 20
-722.739672
 30
556.799835
 70
    64
  0
VERTEX
  5
7E7
  8
TEAM-NET1
 10
-64.88082
 20
-716.540023
 30
541.327235
 70
    64
  0
VERTEX
  5
7E8
  8
TEAM-NET1
 10
-58.180686
 20
-718.059797
 30
546.677355
 70
    64
  0
VERTEX
  5
7E9
  8
TEAM-NET1
 10
-48.570883
 20
-719.532609
 30
551.391779
 70
    64
  0
VERTEX
  5
7EA
  8
TEAM-NET1
 10
-36.936976
 20
-720.837813
 30
555.25587
 70
    64
  0
VERTEX
  5
7EB
  8
TEAM-NET1
 10
-24.254233
 20
-721.903778
 30
558.100919
 70
    64
  0
VERTEX
  5
7EC
  8
TEAM-NET1
 10
-11.566936
 20
-722.683476
 30
559.822512
 70
    64
  0
VERTEX
  5
7ED
  8
TEAM-NET1
 10
0.028968
 20
-723.135732
 30
560.399848
 70
    64
  0
VERTEX
  5
7EE
  8
TEAM-NET1
 10
-74.637896
 20
-716.076633
 30
546.661122
 70
    64
  0
VERTEX
  5
7EF
  8
TEAM-NET1
 10
-65.812624
 20
-717.930505
 30
551.482425
 70
    64
  0
VERTEX
  5
7F0
  8
TEAM-NET1
 10
-54.487128
 20
-719.633837
 30
555.755518
 70
    64
  0
VERTEX
  5
7F1
  8
TEAM-NET1
 10
-41.394757
 20
-721.072345
 30
559.27617
 70
    64
  0
VERTEX
  5
7F2
  8
TEAM-NET1
 10
-27.352484
 20
-722.204743
 30
561.881405
 70
    64
  0
VERTEX
  5
7F3
  8
TEAM-NET1
 10
-13.238311
 20
-723.02486
 30
563.466005
 70
    64
  0
VERTEX
  5
7F4
  8
TEAM-NET1
 10
0.02526
 20
-723.531792
 30
563.999862
 70
    64
  0
VERTEX
  5
7F5
  8
TEAM-NET1
 10
-84.394972
 20
-715.613242
 30
551.99501
 70
    64
  0
VERTEX
  5
7F6
  8
TEAM-NET1
 10
-73.295868
 20
-717.829881
 30
556.245052
 70
    64
  0
VERTEX
  5
7F7
  8
TEAM-NET1
 10
-60.264272
 20
-719.771299
 30
560.064067
 70
    64
  0
VERTEX
  5
7F8
  8
TEAM-NET1
 10
-45.807738
 20
-721.335307
 30
563.249122
 70
    64
  0
VERTEX
  5
7F9
  8
TEAM-NET1
 10
-30.510725
 20
-722.519247
 30
565.63337
 70
    64
  0
VERTEX
  5
7FA
  8
TEAM-NET1
 10
-15.009883
 20
-723.367196
 30
567.100492
 70
    64
  0
VERTEX
  5
7FB
  8
TEAM-NET1
 10
0.021552
 20
-723.927851
 30
567.599876
 70
    64
  0
VERTEX
  5
7FC
  8
TEAM-NET1
 10
-94.152048
 20
-715.149852
 30
557.328898
 70
    64
  0
VERTEX
  5
7FD
  8
TEAM-NET1
 10
-80.689898
 20
-717.746458
 30
560.982212
 70
    64
  0
VERTEX
  5
7FE
  8
TEAM-NET1
 10
-65.957957
 20
-719.9305
 30
564.339503
 70
    64
  0
VERTEX
  5
7FF
  8
TEAM-NET1
 10
-50.193839
 20
-721.615328
 30
567.193665
 70
    64
  0
VERTEX
  5
800
  8
TEAM-NET1
 10
-33.704958
 20
-722.841875
 30
569.368222
 70
    64
  0
VERTEX
  5
801
  8
TEAM-NET1
 10
-16.841573
 20
-723.710104
 30
570.729576
 70
    64
  0
VERTEX
  5
802
  8
TEAM-NET1
 10
0.017844
 20
-724.323911
 30
571.19989
 70
    64
  0
VERTEX
  5
803
  8
TEAM-NET1
 10
-103.909123
 20
-714.686462
 30
562.662786
 70
    64
  0
VERTEX
  5
804
  8
TEAM-NET1
 10
-88.054188
 20
-717.668768
 30
565.710883
 70
    64
  0
VERTEX
  5
805
  8
TEAM-NET1
 10
-71.623821
 20
-720.096949
 30
568.6039
 70
    64
  0
VERTEX
  5
806
  8
TEAM-NET1
 10
-54.570981
 20
-721.901034
 30
571.128739
 70
    64
  0
VERTEX
  5
807
  8
TEAM-NET1
 10
-36.911189
 20
-723.167211
 30
573.09737
 70
    64
  0
VERTEX
  5
808
  8
TEAM-NET1
 10
-18.693303
 20
-724.053203
 30
574.356858
 70
    64
  0
VERTEX
  5
809
  8
TEAM-NET1
 10
0.014136
 20
-724.71997
 30
574.799904
 70
    64
  0
VERTEX
  5
80A
  8
TEAM-NET1
 10
-113.666199
 20
-714.223071
 30
567.996673
 70
    64
  0
VERTEX
  5
80B
  8
TEAM-NET1
 10
-95.448217
 20
-717.585345
 30
570.448044
 70
    64
  0
VERTEX
  5
80C
  8
TEAM-NET1
 10
-77.317505
 20
-720.25615
 30
572.879335
 70
    64
  0
VERTEX
  5
80D
  8
TEAM-NET1
 10
-58.957082
 20
-722.181055
 30
575.073282
 70
    64
  0
VERTEX
  5
80E
  8
TEAM-NET1
 10
-40.105423
 20
-723.489839
 30
576.832222
 70
    64
  0
VERTEX
  5
80F
  8
TEAM-NET1
 10
-20.524994
 20
-724.396111
 30
577.985942
 70
    64
  0
VERTEX
  5
810
  8
TEAM-NET1
 10
0.010428
 20
-725.11603
 30
578.399917
 70
    64
  0
VERTEX
  5
811
  8
TEAM-NET1
 10
-123.423275
 20
-713.759681
 30
573.330561
 70
    64
  0
VERTEX
  5
812
  8
TEAM-NET1
 10
-102.931462
 20
-717.484721
 30
575.21067
 70
    64
  0
VERTEX
  5
813
  8
TEAM-NET1
 10
-83.094649
 20
-720.393612
 30
577.187884
 70
    64
  0
VERTEX
  5
814
  8
TEAM-NET1
 10
-63.370063
 20
-722.444017
 30
579.046233
 70
    64
  0
VERTEX
  5
815
  8
TEAM-NET1
 10
-43.263663
 20
-723.804343
 30
580.584187
 70
    64
  0
VERTEX
  5
816
  8
TEAM-NET1
 10
-22.296565
 20
-724.738447
 30
581.620429
 70
    64
  0
VERTEX
  5
817
  8
TEAM-NET1
 10
0.00672
 20
-725.51209
 30
581.999931
 70
    64
  0
VERTEX
  5
818
  8
TEAM-NET1
 10
-133.18035
 20
-713.29629
 30
578.664449
 70
    64
  0
VERTEX
  5
819
  8
TEAM-NET1
 10
-110.563399
 20
-717.355428
 30
580.01574
 70
    64
  0
VERTEX
  5
81A
  8
TEAM-NET1
 10
-89.010894
 20
-720.49484
 30
581.551623
 70
    64
  0
VERTEX
  5
81B
  8
TEAM-NET1
 10
-67.827844
 20
-722.678549
 30
583.066533
 70
    64
  0
VERTEX
  5
81C
  8
TEAM-NET1
 10
-46.361914
 20
-724.105307
 30
584.364673
 70
    64
  0
VERTEX
  5
81D
  8
TEAM-NET1
 10
-23.96794
 20
-725.079831
 30
585.263921
 70
    64
  0
VERTEX
  5
81E
  8
TEAM-NET1
 10
0.003012
 20
-725.908149
 30
585.599945
 70
    64
  0
VERTEX
  5
81F
  8
TEAM-NET1
 10
-142.937426
 20
-712.8329
 30
583.998337
 70
    64
  0
VERTEX
  5
820
  8
TEAM-NET1
 10
-118.403506
 20
-717.186001
 30
584.88023
 70
    64
  0
VERTEX
  5
821
  8
TEAM-NET1
 10
-95.121879
 20
-720.545343
 30
585.992628
 70
    64
  0
VERTEX
  5
822
  8
TEAM-NET1
 10
-72.348345
 20
-722.873277
 30
587.153121
 70
    64
  0
VERTEX
  5
823
  8
TEAM-NET1
 10
-49.376182
 20
-724.387316
 30
588.185089
 70
    64
  0
VERTEX
  5
824
  8
TEAM-NET1
 10
-25.499038
 20
-725.419881
 30
588.920023
 70
    64
  0
VERTEX
  5
825
  8
TEAM-NET1
 10
-0.000695
 20
-726.304209
 30
589.199959
 70
    64
  0
VERTEX
  5
826
  8
TEAM-NET1
 10
-152.694502
 20
-712.369509
 30
589.332224
 70
    64
  0
VERTEX
  5
827
  8
TEAM-NET1
 10
-126.51126
 20
-716.964971
 30
589.821119
 70
    64
  0
VERTEX
  5
828
  8
TEAM-NET1
 10
-101.483245
 20
-720.530625
 30
590.532976
 70
    64
  0
VERTEX
  5
829
  8
TEAM-NET1
 10
-76.949485
 20
-723.01683
 30
591.324935
 70
    64
  0
VERTEX
  5
82A
  8
TEAM-NET1
 10
-52.28247
 20
-724.644953
 30
592.056843
 70
    64
  0
VERTEX
  5
82B
  8
TEAM-NET1
 10
-26.849782
 20
-725.758216
 30
592.592335
 70
    64
  0
VERTEX
  5
82C
  8
TEAM-NET1
 10
-0.004403
 20
-726.700269
 30
592.799972
 70
    64
  0
VERTEX
  5
82D
  8
TEAM-NET1
 10
-162.451578
 20
-711.906119
 30
594.666112
 70
    64
  0
VERTEX
  5
82E
  8
TEAM-NET1
 10
-134.946137
 20
-716.680871
 30
594.855383
 70
    64
  0
VERTEX
  5
82F
  8
TEAM-NET1
 10
-108.150632
 20
-720.436195
 30
595.194741
 70
    64
  0
VERTEX
  5
830
  8
TEAM-NET1
 10
-81.649184
 20
-723.097835
 30
595.600915
 70
    64
  0
VERTEX
  5
831
  8
TEAM-NET1
 10
-55.056783
 20
-724.872803
 30
595.991344
 70
    64
  0
VERTEX
  5
832
  8
TEAM-NET1
 10
-27.98009
 20
-726.094455
 30
596.28446
 70
    64
  0
VERTEX
  5
833
  8
TEAM-NET1
 10
-0.008111
 20
-727.096328
 30
596.399986
 70
    64
  0
VERTEX
  5
834
  8
TEAM-NET1
 10
-172.208653
 20
-711.442728
 30
600.0
 70
    64
  0
VERTEX
  5
835
  8
TEAM-NET1
 10
-143.767615
 20
-716.322235
 30
600.0
 70
    64
  0
VERTEX
  5
836
  8
TEAM-NET1
 10
-115.17968
 20
-720.247559
 30
600.0
 70
    64
  0
VERTEX
  5
837
  8
TEAM-NET1
 10
-86.465363
 20
-723.104921
 30
600.0
 70
    64
  0
VERTEX
  5
838
  8
TEAM-NET1
 10
-57.675125
 20
-725.065449
 30
600.0
 70
    64
  0
VERTEX
  5
839
  8
TEAM-NET1
 10
-28.849886
 20
-726.428217
 30
600.0
 70
    64
  0
VERTEX
  5
83A
  8
TEAM-NET1
 10
-0.011819
 20
-727.492388
 30
600.0
 70
    64
  0
SEQEND
  5
83B
  8
TEAM-NET1
  0
POLYLINE
  5
83C
  8
TEAM-NET1
 66
     1
 10
0.0
 20
0.0
 30
0.0
 70
    16
 71
    16
 72
     7
  0
VERTEX
  5
83D
  8
TEAM-NET1
 10
25.829019
 20
-718.393985
 30
519.991684
 70
    64
  0
VERTEX
  5
83E
  8
TEAM-NET1
 10
24.952962
 20
-719.093377
 30
526.693095
 70
    64
  0
VERTEX
  5
83F
  8
TEAM-NET1
 10
22.378578
 20
-719.780236
 30
532.943402
 70
    64
  0
VERTEX
  5
840
  8
TEAM-NET1
 10
18.275928
 20
-720.411724
 30
538.322404
 70
    64
  0
VERTEX
  5
841
  8
TEAM-NET1
 10
12.917485
 20
-720.943836
 30
542.465592
 70
    64
  0
VERTEX
  5
842
  8
TEAM-NET1
 10
6.661447
 20
-721.335193
 30
545.086434
 70
    64
  0
VERTEX
  5
843
  8
TEAM-NET1
 10
-0.067347
 20
-721.551492
 30
545.999793
 70
    64
  0
VERTEX
  5
844
  8
TEAM-NET1
 10
35.586102
 20
-717.930745
 30
525.325571
 70
    64
  0
VERTEX
  5
845
  8
TEAM-NET1
 10
33.774445
 20
-718.734876
 30
531.837712
 70
    64
  0
VERTEX
  5
846
  8
TEAM-NET1
 10
29.407629
 20
-719.591708
 30
537.748661
 70
    64
  0
VERTEX
  5
847
  8
TEAM-NET1
 10
23.092106
 20
-720.418884
 30
542.721489
 70
    64
  0
VERTEX
  5
848
  8
TEAM-NET1
 10
15.535824
 20
-721.136523
 30
546.474248
 70
    64
  0
VERTEX
  5
849
  8
TEAM-NET1
 10
7.531237
 20
-721.668968
 30
548.801974
 70
    64
  0
VERTEX
  5
84A
  8
TEAM-NET1
 10
-0.063645
 20
-721.947552
 30
549.599807
 70
    64
  0
VERTEX
  5
84B
  8
TEAM-NET1
 10
45.343185
 20
-717.467505
 30
530.659459
 70
    64
  0
VERTEX
  5
84C
  8
TEAM-NET1
 10
42.209327
 20
-718.450907
 30
536.871976
 70
    64
  0
VERTEX
  5
84D
  8
TEAM-NET1
 10
36.075017
 20
-719.497381
 30
542.410427
 70
    64
  0
VERTEX
  5
84E
  8
TEAM-NET1
 10
27.791805
 20
-720.499962
 30
546.997469
 70
    64
  0
VERTEX
  5
84F
  8
TEAM-NET1
 10
18.310134
 20
-721.364415
 30
550.408749
 70
    64
  0
VERTEX
  5
850
  8
TEAM-NET1
 10
8.661541
 20
-722.005225
 30
552.494099
 70
    64
  0
VERTEX
  5
851
  8
TEAM-NET1
 10
-0.059943
 20
-722.343612
 30
553.199821
 70
    64
  0
VERTEX
  5
852
  8
TEAM-NET1
 10
55.100268
 20
-717.004265
 30
535.993347
 70
    64
  0
VERTEX
  5
853
  8
TEAM-NET1
 10
50.317084
 20
-718.230002
 30
541.812865
 70
    64
  0
VERTEX
  5
854
  8
TEAM-NET1
 10
42.436383
 20
-719.482762
 30
546.950774
 70
    64
  0
VERTEX
  5
855
  8
TEAM-NET1
 10
32.392943
 20
-720.643586
 30
551.169283
 70
    64
  0
VERTEX
  5
856
  8
TEAM-NET1
 10
21.216418
 20
-721.622097
 30
554.280503
 70
    64
  0
VERTEX
  5
857
  8
TEAM-NET1
 10
10.012279
 20
-722.343581
 30
556.166411
 70
    64
  0
VERTEX
  5
858
  8
TEAM-NET1
 10
-0.056241
 20
-722.739672
 30
556.799835
 70
    64
  0
VERTEX
  5
859
  8
TEAM-NET1
 10
64.857351
 20
-716.541026
 30
541.327235
 70
    64
  0
VERTEX
  5
85A
  8
TEAM-NET1
 10
58.157194
 20
-718.060696
 30
546.677355
 70
    64
  0
VERTEX
  5
85B
  8
TEAM-NET1
 10
48.547368
 20
-719.533359
 30
551.391779
 70
    64
  0
VERTEX
  5
85C
  8
TEAM-NET1
 10
36.91344
 20
-720.838384
 30
555.25587
 70
    64
  0
VERTEX
  5
85D
  8
TEAM-NET1
 10
24.230681
 20
-721.904153
 30
558.100919
 70
    64
  0
VERTEX
  5
85E
  8
TEAM-NET1
 10
11.543372
 20
-722.683655
 30
559.822512
 70
    64
  0
VERTEX
  5
85F
  8
TEAM-NET1
 10
-0.052539
 20
-723.135731
 30
560.399848
 70
    64
  0
VERTEX
  5
860
  8
TEAM-NET1
 10
74.614434
 20
-716.077786
 30
546.661122
 70
    64
  0
VERTEX
  5
861
  8
TEAM-NET1
 10
65.789133
 20
-717.931522
 30
551.482425
 70
    64
  0
VERTEX
  5
862
  8
TEAM-NET1
 10
54.463611
 20
-719.634679
 30
555.755518
 70
    64
  0
VERTEX
  5
863
  8
TEAM-NET1
 10
41.371217
 20
-721.072984
 30
559.27617
 70
    64
  0
VERTEX
  5
864
  8
TEAM-NET1
 10
27.328928
 20
-722.205165
 30
561.881405
 70
    64
  0
VERTEX
  5
865
  8
TEAM-NET1
 10
13.214741
 20
-723.025064
 30
563.466005
 70
    64
  0
VERTEX
  5
866
  8
TEAM-NET1
 10
-0.048838
 20
-723.531791
 30
563.999862
 70
    64
  0
VERTEX
  5
867
  8
TEAM-NET1
 10
84.371517
 20
-715.614546
 30
551.99501
 70
    64
  0
VERTEX
  5
868
  8
TEAM-NET1
 10
73.272379
 20
-717.831013
 30
556.245052
 70
    64
  0
VERTEX
  5
869
  8
TEAM-NET1
 10
60.240753
 20
-719.77223
 30
560.064067
 70
    64
  0
VERTEX
  5
86A
  8
TEAM-NET1
 10
45.784195
 20
-721.336015
 30
563.249122
 70
    64
  0
VERTEX
  5
86B
  8
TEAM-NET1
 10
30.487163
 20
-722.519718
 30
565.63337
 70
    64
  0
VERTEX
  5
86C
  8
TEAM-NET1
 10
14.986308
 20
-723.367428
 30
567.100492
 70
    64
  0
VERTEX
  5
86D
  8
TEAM-NET1
 10
-0.045136
 20
-723.927851
 30
567.599876
 70
    64
  0
VERTEX
  5
86E
  8
TEAM-NET1
 10
94.1286
 20
-715.151306
 30
557.328898
 70
    64
  0
VERTEX
  5
86F
  8
TEAM-NET1
 10
80.66641
 20
-717.747704
 30
560.982212
 70
    64
  0
VERTEX
  5
870
  8
TEAM-NET1
 10
65.934435
 20
-719.931519
 30
564.339503
 70
    64
  0
VERTEX
  5
871
  8
TEAM-NET1
 10
50.170292
 20
-721.616103
 30
567.193665
 70
    64
  0
VERTEX
  5
872
  8
TEAM-NET1
 10
33.681391
 20
-722.842395
 30
569.368222
 70
    64
  0
VERTEX
  5
873
  8
TEAM-NET1
 10
16.817993
 20
-723.710364
 30
570.729576
 70
    64
  0
VERTEX
  5
874
  8
TEAM-NET1
 10
-0.041434
 20
-724.32391
 30
571.19989
 70
    64
  0
VERTEX
  5
875
  8
TEAM-NET1
 10
103.885683
 20
-714.688067
 30
562.662786
 70
    64
  0
VERTEX
  5
876
  8
TEAM-NET1
 10
88.030701
 20
-717.670128
 30
565.710883
 70
    64
  0
VERTEX
  5
877
  8
TEAM-NET1
 10
71.600296
 20
-720.098055
 30
568.6039
 70
    64
  0
VERTEX
  5
878
  8
TEAM-NET1
 10
54.547429
 20
-721.901877
 30
571.128739
 70
    64
  0
VERTEX
  5
879
  8
TEAM-NET1
 10
36.887617
 20
-723.167781
 30
573.09737
 70
    64
  0
VERTEX
  5
87A
  8
TEAM-NET1
 10
18.669718
 20
-724.053491
 30
574.356858
 70
    64
  0
VERTEX
  5
87B
  8
TEAM-NET1
 10
-0.037732
 20
-724.71997
 30
574.799904
 70
    64
  0
VERTEX
  5
87C
  8
TEAM-NET1
 10
113.642765
 20
-714.224827
 30
567.996673
 70
    64
  0
VERTEX
  5
87D
  8
TEAM-NET1
 10
95.424732
 20
-717.586819
 30
570.448044
 70
    64
  0
VERTEX
  5
87E
  8
TEAM-NET1
 10
77.293978
 20
-720.257344
 30
572.879335
 70
    64
  0
VERTEX
  5
87F
  8
TEAM-NET1
 10
58.933526
 20
-722.181966
 30
575.073282
 70
    64
  0
VERTEX
  5
880
  8
TEAM-NET1
 10
40.081846
 20
-723.490458
 30
576.832222
 70
    64
  0
VERTEX
  5
881
  8
TEAM-NET1
 10
20.501403
 20
-724.396428
 30
577.985942
 70
    64
  0
VERTEX
  5
882
  8
TEAM-NET1
 10
-0.03403
 20
-725.11603
 30
578.399917
 70
    64
  0
VERTEX
  5
883
  8
TEAM-NET1
 10
123.399848
 20
-713.761587
 30
573.330561
 70
    64
  0
VERTEX
  5
884
  8
TEAM-NET1
 10
102.907978
 20
-717.486311
 30
575.21067
 70
    64
  0
VERTEX
  5
885
  8
TEAM-NET1
 10
83.07112
 20
-720.394895
 30
577.187884
 70
    64
  0
VERTEX
  5
886
  8
TEAM-NET1
 10
63.346503
 20
-722.444996
 30
579.046233
 70
    64
  0
VERTEX
  5
887
  8
TEAM-NET1
 10
43.240081
 20
-723.805011
 30
580.584187
 70
    64
  0
VERTEX
  5
888
  8
TEAM-NET1
 10
22.272969
 20
-724.738791
 30
581.620429
 70
    64
  0
VERTEX
  5
889
  8
TEAM-NET1
 10
-0.030328
 20
-725.512089
 30
581.999931
 70
    64
  0
VERTEX
  5
88A
  8
TEAM-NET1
 10
133.156931
 20
-713.298348
 30
578.664449
 70
    64
  0
VERTEX
  5
88B
  8
TEAM-NET1
 10
110.539918
 20
-717.357137
 30
580.01574
 70
    64
  0
VERTEX
  5
88C
  8
TEAM-NET1
 10
88.987364
 20
-720.496215
 30
581.551623
 70
    64
  0
VERTEX
  5
88D
  8
TEAM-NET1
 10
67.80428
 20
-722.679596
 30
583.066533
 70
    64
  0
VERTEX
  5
88E
  8
TEAM-NET1
 10
46.338328
 20
-724.106023
 30
584.364673
 70
    64
  0
VERTEX
  5
88F
  8
TEAM-NET1
 10
23.944339
 20
-725.080201
 30
585.263921
 70
    64
  0
VERTEX
  5
890
  8
TEAM-NET1
 10
-0.026627
 20
-725.908149
 30
585.599945
 70
    64
  0
VERTEX
  5
891
  8
TEAM-NET1
 10
142.914014
 20
-712.835108
 30
583.998337
 70
    64
  0
VERTEX
  5
892
  8
TEAM-NET1
 10
118.380027
 20
-717.18783
 30
584.88023
 70
    64
  0
VERTEX
  5
893
  8
TEAM-NET1
 10
95.098348
 20
-720.546812
 30
585.992628
 70
    64
  0
VERTEX
  5
894
  8
TEAM-NET1
 10
72.324778
 20
-722.874395
 30
587.153121
 70
    64
  0
VERTEX
  5
895
  8
TEAM-NET1
 10
49.352591
 20
-724.388079
 30
588.185089
 70
    64
  0
VERTEX
  5
896
  8
TEAM-NET1
 10
25.475432
 20
-725.420275
 30
588.920023
 70
    64
  0
VERTEX
  5
897
  8
TEAM-NET1
 10
-0.022925
 20
-726.304209
 30
589.199959
 70
    64
  0
VERTEX
  5
898
  8
TEAM-NET1
 10
152.671097
 20
-712.371868
 30
589.332224
 70
    64
  0
VERTEX
  5
899
  8
TEAM-NET1
 10
126.487784
 20
-716.966926
 30
589.821119
 70
    64
  0
VERTEX
  5
89A
  8
TEAM-NET1
 10
101.459714
 20
-720.532193
 30
590.532976
 70
    64
  0
VERTEX
  5
89B
  8
TEAM-NET1
 10
76.925916
 20
-723.018019
 30
591.324935
 70
    64
  0
VERTEX
  5
89C
  8
TEAM-NET1
 10
52.258875
 20
-724.645761
 30
592.056843
 70
    64
  0
VERTEX
  5
89D
  8
TEAM-NET1
 10
26.82617
 20
-725.758631
 30
592.592335
 70
    64
  0
VERTEX
  5
89E
  8
TEAM-NET1
 10
-0.019223
 20
-726.700269
 30
592.799972
 70
    64
  0
VERTEX
  5
89F
  8
TEAM-NET1
 10
162.42818
 20
-711.908628
 30
594.666112
 70
    64
  0
VERTEX
  5
8A0
  8
TEAM-NET1
 10
134.922666
 20
-716.682956
 30
594.855383
 70
    64
  0
VERTEX
  5
8A1
  8
TEAM-NET1
 10
108.127102
 20
-720.437866
 30
595.194741
 70
    64
  0
VERTEX
  5
8A2
  8
TEAM-NET1
 10
81.625614
 20
-723.099097
 30
595.600915
 70
    64
  0
VERTEX
  5
8A3
  8
TEAM-NET1
 10
55.033185
 20
-724.873653
 30
595.991344
 70
    64
  0
VERTEX
  5
8A4
  8
TEAM-NET1
 10
27.956474
 20
-726.094887
 30
596.28446
 70
    64
  0
VERTEX
  5
8A5
  8
TEAM-NET1
 10
-0.015521
 20
-727.096328
 30
596.399986
 70
    64
  0
VERTEX
  5
8A6
  8
TEAM-NET1
 10
172.185263
 20
-711.445389
 30
600.0
 70
    64
  0
VERTEX
  5
8A7
  8
TEAM-NET1
 10
143.744149
 20
-716.324456
 30
600.0
 70
    64
  0
VERTEX
  5
8A8
  8
TEAM-NET1
 10
115.156153
 20
-720.249339
 30
600.0
 70
    64
  0
VERTEX
  5
8A9
  8
TEAM-NET1
 10
86.441793
 20
-723.106256
 30
600.0
 70
    64
  0
VERTEX
  5
8AA
  8
TEAM-NET1
 10
57.651524
 20
-725.06634
 30
600.0
 70
    64
  0
VERTEX
  5
8AB
  8
TEAM-NET1
 10
28.826264
 20
-726.428663
 30
600.0
 70
    64
  0
VERTEX
  5
8AC
  8
TEAM-NET1
 10
-0.011819
 20
-727.492388
 30
600.0
 70
    64
  0
SEQEND
  5
8AD
  8
TEAM-NET1
  0
POLYLINE
  5
8AE
  8
TEAM-NET1
 66
     1
 10
0.0
 20
0.0
 30
0.0
 70
    16
 71
    11
 72
     7
  0
VERTEX
  5
8AF
  8
TEAM-NET1
 10
-393.874325
 20
159.336517
 30
495.885675
 70
    64
  0
VERTEX
  5
8B0
  8
TEAM-NET1
 10
-399.196003
 20
172.368872
 30
518.112007
 70
    64
  0
VERTEX
  5
8B1
  8
TEAM-NET1
 10
-402.616195
 20
188.69749
 30
538.431821
 70
    64
  0
VERTEX
  5
8B2
  8
TEAM-NET1
 10
-402.448264
 20
208.488504
 30
555.683725
 70
    64
  0
VERTEX
  5
8B3
  8
TEAM-NET1
 10
-396.510128
 20
230.723315
 30
568.214446
 70
    64
  0
VERTEX
  5
8B4
  8
TEAM-NET1
 10
-383.331819
 20
252.387913
 30
574.6826
 70
    64
  0
VERTEX
  5
8B5
  8
TEAM-NET1
 10
-363.659008
 20
269.643503
 30
574.943424
 70
    64
  0
VERTEX
  5
8B6
  8
TEAM-NET1
 10
-409.995589
 20
157.700879
 30
506.297108
 70
    64
  0
VERTEX
  5
8B7
  8
TEAM-NET1
 10
-413.736162
 20
171.367572
 30
527.479461
 70
    64
  0
VERTEX
  5
8B8
  8
TEAM-NET1
 10
-414.595932
 20
188.62613
 30
546.176216
 70
    64
  0
VERTEX
  5
8B9
  8
TEAM-NET1
 10
-411.451908
 20
209.444227
 30
561.574733
 70
    64
  0
VERTEX
  5
8BA
  8
TEAM-NET1
 10
-402.699526
 20
232.637978
 30
572.384259
 70
    64
  0
VERTEX
  5
8BB
  8
TEAM-NET1
 10
-387.426396
 20
255.083956
 30
577.617202
 70
    64
  0
VERTEX
  5
8BC
  8
TEAM-NET1
 10
-366.873732
 20
272.857041
 30
577.449082
 70
    64
  0
VERTEX
  5
8BD
  8
TEAM-NET1
 10
-426.116852
 20
156.065241
 30
516.70854
 70
    64
  0
VERTEX
  5
8BE
  8
TEAM-NET1
 10
-427.204781
 20
170.837938
 30
536.061145
 70
    64
  0
VERTEX
  5
8BF
  8
TEAM-NET1
 10
-425.212148
 20
189.081199
 30
552.862227
 70
    64
  0
VERTEX
  5
8C0
  8
TEAM-NET1
 10
-419.316665
 20
210.685847
 30
566.492821
 70
    64
  0
VERTEX
  5
8C1
  8
TEAM-NET1
 10
-408.252123
 20
234.481187
 30
575.893234
 70
    64
  0
VERTEX
  5
8C2
  8
TEAM-NET1
 10
-391.390367
 20
257.50863
 30
580.283229
 70
    64
  0
VERTEX
  5
8C3
  8
TEAM-NET1
 10
-370.088456
 20
276.07058
 30
579.954739
 70
    64
  0
VERTEX
  5
8C4
  8
TEAM-NET1
 10
-442.238116
 20
154.429603
 30
527.119973
 70
    64
  0
VERTEX
  5
8C5
  8
TEAM-NET1
 10
-439.869745
 20
170.662054
 30
544.053502
 70
    64
  0
VERTEX
  5
8C6
  8
TEAM-NET1
 10
-434.805724
 20
189.931089
 30
558.754449
 70
    64
  0
VERTEX
  5
8C7
  8
TEAM-NET1
 10
-426.327258
 20
212.14189
 30
570.681218
 70
    64
  0
VERTEX
  5
8C8
  8
TEAM-NET1
 10
-413.327121
 20
236.270805
 30
578.90658
 70
    64
  0
VERTEX
  5
8C9
  8
TEAM-NET1
 10
-395.256383
 20
259.729779
 30
582.747826
 70
    64
  0
VERTEX
  5
8CA
  8
TEAM-NET1
 10
-373.30318
 20
279.284118
 30
582.460397
 70
    64
  0
VERTEX
  5
8CB
  8
TEAM-NET1
 10
-458.35938
 20
152.793964
 30
537.531405
 70
    64
  0
VERTEX
  5
8CC
  8
TEAM-NET1
 10
-451.998939
 20
170.722004
 30
551.652974
 70
    64
  0
VERTEX
  5
8CD
  8
TEAM-NET1
 10
-443.71754
 20
191.044195
 30
564.117478
 70
    64
  0
VERTEX
  5
8CE
  8
TEAM-NET1
 10
-432.768408
 20
213.740882
 30
574.383155
 70
    64
  0
VERTEX
  5
8CF
  8
TEAM-NET1
 10
-418.083718
 20
238.024697
 30
581.589506
 70
    64
  0
VERTEX
  5
8D0
  8
TEAM-NET1
 10
-399.057096
 20
261.815243
 30
585.078135
 70
    64
  0
VERTEX
  5
8D1
  8
TEAM-NET1
 10
-376.517904
 20
282.497657
 30
584.966054
 70
    64
  0
VERTEX
  5
8D2
  8
TEAM-NET1
 10
-474.480644
 20
151.158326
 30
547.942838
 70
    64
  0
VERTEX
  5
8D3
  8
TEAM-NET1
 10
-463.860249
 20
170.89987
 30
559.056004
 70
    64
  0
VERTEX
  5
8D4
  8
TEAM-NET1
 10
-452.288475
 20
192.288908
 30
569.21591
 70
    64
  0
VERTEX
  5
8D5
  8
TEAM-NET1
 10
-438.924836
 20
215.411347
 30
577.841862
 70
    64
  0
VERTEX
  5
8D6
  8
TEAM-NET1
 10
-422.681115
 20
239.760725
 30
584.107223
 70
    64
  0
VERTEX
  5
8D7
  8
TEAM-NET1
 10
-402.825157
 20
263.832866
 30
587.3413
 70
    64
  0
VERTEX
  5
8D8
  8
TEAM-NET1
 10
-379.732628
 20
285.711195
 30
587.471712
 70
    64
  0
VERTEX
  5
8D9
  8
TEAM-NET1
 10
-490.601908
 20
149.522688
 30
558.35427
 70
    64
  0
VERTEX
  5
8DA
  8
TEAM-NET1
 10
-475.721558
 20
171.077736
 30
566.459033
 70
    64
  0
VERTEX
  5
8DB
  8
TEAM-NET1
 10
-460.859411
 20
193.53362
 30
574.314343
 70
    64
  0
VERTEX
  5
8DC
  8
TEAM-NET1
 10
-445.081264
 20
217.081813
 30
581.300569
 70
    64
  0
VERTEX
  5
8DD
  8
TEAM-NET1
 10
-427.278513
 20
241.496753
 30
586.624939
 70
    64
  0
VERTEX
  5
8DE
  8
TEAM-NET1
 10
-406.593219
 20
265.850488
 30
589.604465
 70
    64
  0
VERTEX
  5
8DF
  8
TEAM-NET1
 10
-382.947353
 20
288.924733
 30
589.97737
 70
    64
  0
VERTEX
  5
8E0
  8
TEAM-NET1
 10
-506.723171
 20
147.88705
 30
568.765703
 70
    64
  0
VERTEX
  5
8E1
  8
TEAM-NET1
 10
-487.850752
 20
171.137686
 30
574.058505
 70
    64
  0
VERTEX
  5
8E2
  8
TEAM-NET1
 10
-469.771227
 20
194.646726
 30
579.677372
 70
    64
  0
VERTEX
  5
8E3
  8
TEAM-NET1
 10
-451.522414
 20
218.680804
 30
585.002507
 70
    64
  0
VERTEX
  5
8E4
  8
TEAM-NET1
 10
-432.03511
 20
243.250644
 30
589.307866
 70
    64
  0
VERTEX
  5
8E5
  8
TEAM-NET1
 10
-410.393932
 20
267.935953
 30
591.934774
 70
    64
  0
VERTEX
  5
8E6
  8
TEAM-NET1
 10
-386.162077
 20
292.138272
 30
592.483027
 70
    64
  0
VERTEX
  5
8E7
  8
TEAM-NET1
 10
-522.844435
 20
146.251411
 30
579.177135
 70
    64
  0
VERTEX
  5
8E8
  8
TEAM-NET1
 10
-500.515716
 20
170.961802
 30
582.050862
 70
    64
  0
VERTEX
  5
8E9
  8
TEAM-NET1
 10
-479.364803
 20
195.496616
 30
585.569594
 70
    64
  0
VERTEX
  5
8EA
  8
TEAM-NET1
 10
-458.533007
 20
220.136847
 30
589.190904
 70
    64
  0
VERTEX
  5
8EB
  8
TEAM-NET1
 10
-437.110108
 20
245.040263
 30
592.321212
 70
    64
  0
VERTEX
  5
8EC
  8
TEAM-NET1
 10
-414.259948
 20
270.157102
 30
594.399371
 70
    64
  0
VERTEX
  5
8ED
  8
TEAM-NET1
 10
-389.376801
 20
295.35181
 30
594.988685
 70
    64
  0
VERTEX
  5
8EE
  8
TEAM-NET1
 10
-538.965699
 20
144.615773
 30
589.588568
 70
    64
  0
VERTEX
  5
8EF
  8
TEAM-NET1
 10
-513.984335
 20
170.432168
 30
590.632546
 70
    64
  0
VERTEX
  5
8F0
  8
TEAM-NET1
 10
-489.981019
 20
195.951685
 30
592.255604
 70
    64
  0
VERTEX
  5
8F1
  8
TEAM-NET1
 10
-466.397764
 20
221.378467
 30
594.108992
 70
    64
  0
VERTEX
  5
8F2
  8
TEAM-NET1
 10
-442.662705
 20
246.883472
 30
595.830186
 70
    64
  0
VERTEX
  5
8F3
  8
TEAM-NET1
 10
-418.223919
 20
272.581776
 30
597.065398
 70
    64
  0
VERTEX
  5
8F4
  8
TEAM-NET1
 10
-392.591525
 20
298.565349
 30
597.494342
 70
    64
  0
VERTEX
  5
8F5
  8
TEAM-NET1
 10
-555.086963
 20
142.980135
 30
600.0
 70
    64
  0
VERTEX
  5
8F6
  8
TEAM-NET1
 10
-528.524494
 20
169.430867
 30
600.0
 70
    64
  0
VERTEX
  5
8F7
  8
TEAM-NET1
 10
-501.960756
 20
195.880325
 30
600.0
 70
    64
  0
VERTEX
  5
8F8
  8
TEAM-NET1
 10
-475.401408
 20
222.33419
 30
600.0
 70
    64
  0
VERTEX
  5
8F9
  8
TEAM-NET1
 10
-448.852102
 20
248.798135
 30
600.0
 70
    64
  0
VERTEX
  5
8FA
  8
TEAM-NET1
 10
-422.318496
 20
275.277818
 30
600.0
 70
    64
  0
VERTEX
  5
8FB
  8
TEAM-NET1
 10
-395.806249
 20
301.778887
 30
600.0
 70
    64
  0
SEQEND
  5
8FC
  8
TEAM-NET1
  0
POLYLINE
  5
8FD
  8
TEAM-NET1
 66
     1
 10
0.0
 20
0.0
 30
0.0
 70
    16
 71
    11
 72
     7
  0
VERTEX
  5
8FE
  8
TEAM-NET1
 10
393.864388
 20
159.330432
 30
495.885675
 70
    64
  0
VERTEX
  5
8FF
  8
TEAM-NET1
 10
399.186267
 20
172.362705
 30
518.112007
 70
    64
  0
VERTEX
  5
900
  8
TEAM-NET1
 10
402.606712
 20
188.69127
 30
538.431821
 70
    64
  0
VERTEX
  5
901
  8
TEAM-NET1
 10
402.439087
 20
208.482286
 30
555.683725
 70
    64
  0
VERTEX
  5
902
  8
TEAM-NET1
 10
396.501294
 20
230.717189
 30
568.214446
 70
    64
  0
VERTEX
  5
903
  8
TEAM-NET1
 10
383.32332
 20
252.381991
 30
574.6826
 70
    64
  0
VERTEX
  5
904
  8
TEAM-NET1
 10
363.650775
 20
269.637884
 30
574.943424
 70
    64
  0
VERTEX
  5
905
  8
TEAM-NET1
 10
409.985626
 20
157.694545
 30
506.297108
 70
    64
  0
VERTEX
  5
906
  8
TEAM-NET1
 10
413.726411
 20
171.361179
 30
527.479461
 70
    64
  0
VERTEX
  5
907
  8
TEAM-NET1
 10
414.586447
 20
188.619724
 30
546.176216
 70
    64
  0
VERTEX
  5
908
  8
TEAM-NET1
 10
411.442745
 20
209.43787
 30
561.574733
 70
    64
  0
VERTEX
  5
909
  8
TEAM-NET1
 10
402.690721
 20
232.631756
 30
572.384259
 70
    64
  0
VERTEX
  5
90A
  8
TEAM-NET1
 10
387.417939
 20
255.07797
 30
577.617202
 70
    64
  0
VERTEX
  5
90B
  8
TEAM-NET1
 10
366.865549
 20
272.851373
 30
577.449082
 70
    64
  0
VERTEX
  5
90C
  8
TEAM-NET1
 10
426.106865
 20
156.058657
 30
516.70854
 70
    64
  0
VERTEX
  5
90D
  8
TEAM-NET1
 10
427.195022
 20
170.831337
 30
536.061145
 70
    64
  0
VERTEX
  5
90E
  8
TEAM-NET1
 10
425.202671
 20
189.074629
 30
552.862227
 70
    64
  0
VERTEX
  5
90F
  8
TEAM-NET1
 10
419.307522
 20
210.679369
 30
566.492821
 70
    64
  0
VERTEX
  5
910
  8
TEAM-NET1
 10
408.243347
 20
234.47488
 30
575.893234
 70
    64
  0
VERTEX
  5
911
  8
TEAM-NET1
 10
391.381947
 20
257.502583
 30
580.283229
 70
    64
  0
VERTEX
  5
912
  8
TEAM-NET1
 10
370.080323
 20
276.064862
 30
579.954739
 70
    64
  0
VERTEX
  5
913
  8
TEAM-NET1
 10
442.228103
 20
154.42277
 30
527.119973
 70
    64
  0
VERTEX
  5
914
  8
TEAM-NET1
 10
439.859983
 20
170.655258
 30
544.053502
 70
    64
  0
VERTEX
  5
915
  8
TEAM-NET1
 10
434.79626
 20
189.924372
 30
558.754449
 70
    64
  0
VERTEX
  5
916
  8
TEAM-NET1
 10
426.318137
 20
212.135304
 30
570.681218
 70
    64
  0
VERTEX
  5
917
  8
TEAM-NET1
 10
413.318372
 20
236.26442
 30
578.90658
 70
    64
  0
VERTEX
  5
918
  8
TEAM-NET1
 10
395.247997
 20
259.723672
 30
582.747826
 70
    64
  0
VERTEX
  5
919
  8
TEAM-NET1
 10
373.295096
 20
279.278351
 30
582.460397
 70
    64
  0
VERTEX
  5
91A
  8
TEAM-NET1
 10
458.349342
 20
152.786883
 30
537.531405
 70
    64
  0
VERTEX
  5
91B
  8
TEAM-NET1
 10
451.989178
 20
170.71502
 30
551.652974
 70
    64
  0
VERTEX
  5
91C
  8
TEAM-NET1
 10
443.708093
 20
191.037339
 30
564.117478
 70
    64
  0
VERTEX
  5
91D
  8
TEAM-NET1
 10
432.759311
 20
213.734195
 30
574.383155
 70
    64
  0
VERTEX
  5
91E
  8
TEAM-NET1
 10
418.074997
 20
238.018237
 30
581.589506
 70
    64
  0
VERTEX
  5
91F
  8
TEAM-NET1
 10
399.048742
 20
261.809078
 30
585.078135
 70
    64
  0
VERTEX
  5
920
  8
TEAM-NET1
 10
376.50987
 20
282.491839
 30
584.966054
 70
    64
  0
VERTEX
  5
921
  8
TEAM-NET1
 10
474.470581
 20
151.150995
 30
547.942838
 70
    64
  0
VERTEX
  5
922
  8
TEAM-NET1
 10
463.85049
 20
170.892703
 30
559.056004
 70
    64
  0
VERTEX
  5
923
  8
TEAM-NET1
 10
452.279048
 20
192.28192
 30
569.21591
 70
    64
  0
VERTEX
  5
924
  8
TEAM-NET1
 10
438.915765
 20
215.404566
 30
577.841862
 70
    64
  0
VERTEX
  5
925
  8
TEAM-NET1
 10
422.672421
 20
239.754194
 30
584.107223
 70
    64
  0
VERTEX
  5
926
  8
TEAM-NET1
 10
402.816835
 20
263.826642
 30
587.3413
 70
    64
  0
VERTEX
  5
927
  8
TEAM-NET1
 10
379.724644
 20
285.705328
 30
587.471712
 70
    64
  0
VERTEX
  5
928
  8
TEAM-NET1
 10
490.591819
 20
149.515108
 30
558.35427
 70
    64
  0
VERTEX
  5
929
  8
TEAM-NET1
 10
475.711802
 20
171.070386
 30
566.459033
 70
    64
  0
VERTEX
  5
92A
  8
TEAM-NET1
 10
460.850002
 20
193.5265
 30
574.314343
 70
    64
  0
VERTEX
  5
92B
  8
TEAM-NET1
 10
445.072219
 20
217.074936
 30
581.300569
 70
    64
  0
VERTEX
  5
92C
  8
TEAM-NET1
 10
427.269845
 20
241.490151
 30
586.624939
 70
    64
  0
VERTEX
  5
92D
  8
TEAM-NET1
 10
406.584927
 20
265.844207
 30
589.604465
 70
    64
  0
VERTEX
  5
92E
  8
TEAM-NET1
 10
382.939418
 20
288.918817
 30
589.97737
 70
    64
  0
VERTEX
  5
92F
  8
TEAM-NET1
 10
506.713058
 20
147.879221
 30
568.765703
 70
    64
  0
VERTEX
  5
930
  8
TEAM-NET1
 10
487.840997
 20
171.130149
 30
574.058505
 70
    64
  0
VERTEX
  5
931
  8
TEAM-NET1
 10
469.761835
 20
194.639468
 30
579.677372
 70
    64
  0
VERTEX
  5
932
  8
TEAM-NET1
 10
451.513394
 20
218.673828
 30
585.002507
 70
    64
  0
VERTEX
  5
933
  8
TEAM-NET1
 10
432.02647
 20
243.243969
 30
589.307866
 70
    64
  0
VERTEX
  5
934
  8
TEAM-NET1
 10
410.385673
 20
267.929612
 30
591.934774
 70
    64
  0
VERTEX
  5
935
  8
TEAM-NET1
 10
386.154191
 20
292.132306
 30
592.483027
 70
    64
  0
VERTEX
  5
936
  8
TEAM-NET1
 10
522.834296
 20
146.243333
 30
579.177135
 70
    64
  0
VERTEX
  5
937
  8
TEAM-NET1
 10
500.505959
 20
170.954069
 30
582.050862
 70
    64
  0
VERTEX
  5
938
  8
TEAM-NET1
 10
479.355424
 20
195.48921
 30
585.569594
 70
    64
  0
VERTEX
  5
939
  8
TEAM-NET1
 10
458.524009
 20
220.129762
 30
589.190904
 70
    64
  0
VERTEX
  5
93A
  8
TEAM-NET1
 10
437.101495
 20
245.033509
 30
592.321212
 70
    64
  0
VERTEX
  5
93B
  8
TEAM-NET1
 10
414.251723
 20
270.150701
 30
594.399371
 70
    64
  0
VERTEX
  5
93C
  8
TEAM-NET1
 10
389.368965
 20
295.345795
 30
594.988685
 70
    64
  0
VERTEX
  5
93D
  8
TEAM-NET1
 10
538.955535
 20
144.607446
 30
589.588568
 70
    64
  0
VERTEX
  5
93E
  8
TEAM-NET1
 10
513.97457
 20
170.424227
 30
590.632546
 70
    64
  0
VERTEX
  5
93F
  8
TEAM-NET1
 10
489.971648
 20
195.944115
 30
592.255604
 70
    64
  0
VERTEX
  5
940
  8
TEAM-NET1
 10
466.388786
 20
221.371261
 30
594.108992
 70
    64
  0
VERTEX
  5
941
  8
TEAM-NET1
 10
442.654121
 20
246.876632
 30
595.830186
 70
    64
  0
VERTEX
  5
942
  8
TEAM-NET1
 10
418.215731
 20
272.575314
 30
597.065398
 70
    64
  0
VERTEX
  5
943
  8
TEAM-NET1
 10
392.583739
 20
298.559283
 30
597.494342
 70
    64
  0
VERTEX
  5
944
  8
TEAM-NET1
 10
555.076773
 20
142.971559
 30
600.0
 70
    64
  0
VERTEX
  5
945
  8
TEAM-NET1
 10
528.514713
 20
169.422702
 30
600.0
 70
    64
  0
VERTEX
  5
946
  8
TEAM-NET1
 10
501.951384
 20
195.872569
 30
600.0
 70
    64
  0
VERTEX
  5
947
  8
TEAM-NET1
 10
475.392444
 20
222.326845
 30
600.0
 70
    64
  0
VERTEX
  5
948
  8
TEAM-NET1
 10
448.843547
 20
248.7912
 30
600.0
 70
    64
  0
VERTEX
  5
949
  8
TEAM-NET1
 10
422.31035
 20
275.271293
 30
600.0
 70
    64
  0
VERTEX
  5
94A
  8
TEAM-NET1
 10
395.798513
 20
301.772772
 30
600.0
 70
    64
  0
SEQEND
  5
94B
  8
TEAM-NET1
  0
POLYLINE
  5
94C
  8
TEAM-DET1
 66
     1
 10
0.0
 20
0.0
 30
0.0
 70
     8
  0
VERTEX
  5
94D
  8
TEAM-DET1
 10
0.0438
 20
-721.551493
 30
545.999793
 70
    32
  0
VERTEX
  5
94E
  8
TEAM-DET1
 10
-9.904886
 20
-721.158973
 30
543.978113
 70
    32
  0
VERTEX
  5
94F
  8
TEAM-DET1
 10
-18.300969
 20
-720.411255
 30
538.320881
 70
    32
  0
VERTEX
  5
950
  8
TEAM-DET1
 10
-23.890955
 20
-719.441203
 30
529.907248
 70
    32
  0
VERTEX
  5
951
  8
TEAM-DET1
 10
-25.852518
 20
-718.395095
 30
520.006465
 70
    32
  0
VERTEX
  5
952
  8
TEAM-DET1
 10
-23.892532
 20
-717.406566
 30
510.096578
 70
    32
  0
VERTEX
  5
953
  8
TEAM-DET1
 10
-18.287871
 20
-716.586821
 30
501.665939
 70
    32
  0
VERTEX
  5
954
  8
TEAM-DET1
 10
-9.86718
 20
-716.032095
 30
496.006114
 70
    32
  0
VERTEX
  5
955
  8
TEAM-DET1
 10
0.097359
 20
-715.830682
 30
494.000048
 70
    32
  0
SEQEND
  5
957
  8
TEAM-DET1
  0
POLYLINE
  5
958
  8
TEAM-DET1
 66
     1
 10
0.0
 20
0.0
 30
0.0
 70
     8
  0
VERTEX
  5
959
  8
TEAM-DET1
 10
0.097359
 20
-715.830682
 30
494.000048
 70
    32
  0
VERTEX
  5
95A
  8
TEAM-DET1
 10
10.098452
 20
-716.028964
 30
495.97963
 70
    32
  0
VERTEX
  5
95B
  8
TEAM-DET1
 10
18.55375
 20
-716.582846
 30
501.636742
 70
    32
  0
VERTEX
  5
95C
  8
TEAM-DET1
 10
24.182571
 20
-717.403492
 30
510.084636
 70
    32
  0
VERTEX
  5
95D
  8
TEAM-DET1
 10
26.147465
 20
-718.39474
 30
520.028994
 70
    32
  0
VERTEX
  5
95E
  8
TEAM-DET1
 10
24.161082
 20
-719.444563
 30
529.967295
 70
    32
  0
VERTEX
  5
95F
  8
TEAM-DET1
 10
18.514882
 20
-720.417628
 30
538.402135
 70
    32
  0
VERTEX
  5
960
  8
TEAM-DET1
 10
10.05123
 20
-721.164559
 30
544.039879
 70
    32
  0
VERTEX
  5
961
  8
TEAM-DET1
 10
0.0438
 20
-721.551493
 30
545.999793
 70
    32
  0
SEQEND
  5
962
  8
TEAM-DET1
  0
POLYLINE
  5
963
  8
TEAM-BODY
 66
     1
 10
0.0
 20
0.0
 30
600.0
 70
   128
  0
VERTEX
  5
14DC
  8
TEAM-BODY
 10
-1026.774688
 20
-221.394716
 30
600.0
  0
VERTEX
  5
14DD
  8
TEAM-BODY
 10
-812.61251
 20
-439.177815
 30
600.0
  0
VERTEX
  5
14DE
  8
TEAM-BODY
 10
-702.251457
 20
-544.848678
 30
600.0
  0
VERTEX
  5
14DF
  8
TEAM-BODY
 10
-644.59797
 20
-594.97249
 30
600.0
  0
VERTEX
  5
14E0
  8
TEAM-BODY
 10
-613.73155
 20
-617.275538
 30
600.0
  0
VERTEX
  5
14E1
  8
TEAM-BODY
 10
-581.374106
 20
-637.487856
 30
600.0
  0
VERTEX
  5
14E2
  8
TEAM-BODY
 10
-513.950441
 20
-673.859604
 30
600.0
  0
VERTEX
  5
14E3
  8
TEAM-BODY
 10
-445.136897
 20
-707.367134
 30
600.0
  0
VERTEX
  5
14E4
  8
TEAM-BODY
 10
-374.556441
 20
-736.182638
 30
600.0
  0
VERTEX
  5
14E5
  8
TEAM-BODY
 10
-301.582261
 20
-758.562614
 30
600.0
  0
VERTEX
  5
14E6
  8
TEAM-BODY
 10
-227.228055
 20
-776.714031
 30
600.0
  0
VERTEX
  5
14E7
  8
TEAM-BODY
 10
-152.239479
 20
-791.261027
 30
600.0
  0
VERTEX
  5
14E8
  8
TEAM-BODY
 10
-76.407533
 20
-799.224388
 30
600.0
  0
VERTEX
  5
14E9
  8
TEAM-BODY
 10
0.0
 20
-802.5
 30
600.0
  0
SEQEND
  5
14EA
  8
TEAM-BODY
  0
LINE
  5
964
  8
TEAM-NET1
 10
0.0
 20
802.5
 30
600.0
 11
-1026.774688
 21
-221.394716
 31
600.0
1001
ACAD
1000
R13OBJECT
1002
{
1005
A4C
1002
}
  0
POLYLINE
  5
965
  8
TEAM-NET1
 66
     1
 10
0.0
 20
0.0
 30
600.0
 70
   128
1001
ACAD
1000
R13OBJECT
1002
{
1005
D4102B0300000000
1002
}
  0
VERTEX
  5
14EB
  8
TEAM-NET1
 10
-1026.774688
 20
-221.394716
 30
600.0
  0
VERTEX
  5
14EC
  8
TEAM-NET1
 10
-965.395571
 20
-284.970903
 30
600.0
  0
VERTEX
  5
14ED
  8
TEAM-NET1
 10
-908.62855
 20
-341.783247
 30
600.0
  0
VERTEX
  5
14EE
  8
TEAM-NET1
 10
-831.587585
 20
-420.238375
 30
600.0
  0
VERTEX
  5
14EF
  8
TEAM-NET1
 10
-713.998755
 20
-533.863045
 30
600.0
  0
VERTEX
  5
14F0
  8
TEAM-NET1
 10
-675.056112
 20
-569.568414
 30
600.0
  0
VERTEX
  5
14F1
  8
TEAM-NET1
 10
-634.254601
 20
-602.849456
 30
600.0
  0
VERTEX
  5
14F2
  8
TEAM-NET1
 10
-575.085292
 20
-641.141967
 30
600.0
  0
VERTEX
  5
14F3
  8
TEAM-NET1
 10
-512.610976
 20
-674.541218
 30
600.0
  0
VERTEX
  5
14F4
  8
TEAM-NET1
 10
-448.827251
 20
-705.676515
 30
600.0
  0
VERTEX
  5
14F5
  8
TEAM-NET1
 10
-383.57956
 20
-732.921422
 30
600.0
  0
VERTEX
  5
14F6
  8
TEAM-NET1
 10
-316.028561
 20
-754.600545
 30
600.0
  0
VERTEX
  5
14F7
  8
TEAM-NET1
 10
-247.068385
 20
-772.14899
 30
600.0
  0
VERTEX
  5
14F8
  8
TEAM-NET1
 10
-190.194736
 20
-784.560234
 30
600.0
  0
VERTEX
  5
14F9
  8
TEAM-NET1
 10
-132.907308
 20
-793.99161
 30
600.0
  0
VERTEX
  5
14FA
  8
TEAM-NET1
 10
-66.645353
 20
-799.807887
 30
600.0
  0
VERTEX
  5
14FB
  8
TEAM-NET1
 10
0.0
 20
-802.5
 30
600.0
  0
SEQEND
  5
14FC
  8
TEAM-NET1
  0
LINE
  5
966
  8
TEAM-BODY
 10
0.0
 20
802.5
 30
600.0
 11
-1026.774688
 21
-221.394716
 31
600.0
210
0.706113
220
-0.708099
230
0.0
  0
POLYLINE
  5
967
  8
TEAM-BODY
 66
     1
 10
0.0
 20
0.0
 30
570.0
 70
   128
  0
VERTEX
  5
14FD
  8
TEAM-BODY
 10
-1026.774688
 20
-221.394716
 30
570.0
  0
VERTEX
  5
14FE
  8
TEAM-BODY
 10
-812.61251
 20
-439.177815
 30
570.0
  0
VERTEX
  5
14FF
  8
TEAM-BODY
 10
-702.251457
 20
-544.848678
 30
570.0
  0
VERTEX
  5
1500
  8
TEAM-BODY
 10
-644.59797
 20
-594.97249
 30
570.0
  0
VERTEX
  5
1501
  8
TEAM-BODY
 10
-613.73155
 20
-617.275538
 30
570.0
  0
VERTEX
  5
1502
  8
TEAM-BODY
 10
-581.374106
 20
-637.487856
 30
570.0
  0
VERTEX
  5
1503
  8
TEAM-BODY
 10
-513.950441
 20
-673.859604
 30
570.0
  0
VERTEX
  5
1504
  8
TEAM-BODY
 10
-445.136897
 20
-707.367134
 30
570.0
  0
VERTEX
  5
1505
  8
TEAM-BODY
 10
-374.556441
 20
-736.182638
 30
570.0
  0
VERTEX
  5
1506
  8
TEAM-BODY
 10
-301.582261
 20
-758.562614
 30
570.0
  0
VERTEX
  5
1507
  8
TEAM-BODY
 10
-227.228055
 20
-776.714031
 30
570.0
  0
VERTEX
  5
1508
  8
TEAM-BODY
 10
-152.239479
 20
-791.261027
 30
570.0
  0
VERTEX
  5
1509
  8
TEAM-BODY
 10
-76.407533
 20
-799.224388
 30
570.0
  0
VERTEX
  5
150A
  8
TEAM-BODY
 10
0.0
 20
-802.5
 30
570.0
  0
SEQEND
  5
150B
  8
TEAM-BODY
  0
LINE
  5
968
  8
TEAM-BODY
 10
0.0
 20
802.5
 30
570.0
 11
-1026.774688
 21
-221.394716
 31
570.0
210
0.706113
220
-0.708099
230
0.0
  0
LINE
  5
969
  8
TEAM-NET1
 10
0.0
 20
802.5
 30
600.0
 11
-1026.774688
 21
-221.394716
 31
600.0
1001
ACAD
1000
R13OBJECT
1002
{
1005
96A
1002
}
  0
LINE
  5
96A
  8
TEAM-NET1
 10
0.0
 20
802.5
 30
570.0
 11
-1026.774688
 21
-221.394716
 31
570.0
  0
POLYLINE
  5
96B
  8
TEAM-NET1
 66
     1
 10
0.0
 20
0.0
 30
600.0
 70
   128
1001
ACAD
1000
R13OBJECT
1002
{
1005
940A2B0300000000
1002
}
  0
VERTEX
  5
150C
  8
TEAM-NET1
 10
-1026.774688
 20
-221.394716
 30
600.0
  0
VERTEX
  5
150D
  8
TEAM-NET1
 10
-965.395571
 20
-284.970903
 30
600.0
  0
VERTEX
  5
150E
  8
TEAM-NET1
 10
-908.62855
 20
-341.783247
 30
600.0
  0
VERTEX
  5
150F
  8
TEAM-NET1
 10
-831.587585
 20
-420.238375
 30
600.0
  0
VERTEX
  5
1510
  8
TEAM-NET1
 10
-713.998755
 20
-533.863045
 30
600.0
  0
VERTEX
  5
1511
  8
TEAM-NET1
 10
-675.056112
 20
-569.568414
 30
600.0
  0
VERTEX
  5
1512
  8
TEAM-NET1
 10
-634.254601
 20
-602.849456
 30
600.0
  0
VERTEX
  5
1513
  8
TEAM-NET1
 10
-575.085292
 20
-641.141967
 30
600.0
  0
VERTEX
  5
1514
  8
TEAM-NET1
 10
-512.610976
 20
-674.541218
 30
600.0
  0
VERTEX
  5
1515
  8
TEAM-NET1
 10
-448.827251
 20
-705.676515
 30
600.0
  0
VERTEX
  5
1516
  8
TEAM-NET1
 10
-383.57956
 20
-732.921422
 30
600.0
  0
VERTEX
  5
1517
  8
TEAM-NET1
 10
-316.028561
 20
-754.600545
 30
600.0
  0
VERTEX
  5
1518
  8
TEAM-NET1
 10
-247.068385
 20
-772.14899
 30
600.0
  0
VERTEX
  5
1519
  8
TEAM-NET1
 10
-190.194736
 20
-784.560234
 30
600.0
  0
VERTEX
  5
151A
  8
TEAM-NET1
 10
-132.907308
 20
-793.99161
 30
600.0
  0
VERTEX
  5
151B
  8
TEAM-NET1
 10
-66.645353
 20
-799.807887
 30
600.0
  0
VERTEX
  5
151C
  8
TEAM-NET1
 10
0.0
 20
-802.5
 30
600.0
  0
SEQEND
  5
151D
  8
TEAM-NET1
  0
POLYLINE
  5
96C
  8
TEAM-NET1
 66
     1
 10
0.0
 20
0.0
 30
570.0
 70
   128
  0
VERTEX
  5
151E
  8
TEAM-NET1
 10
-1026.774688
 20
-221.394716
 30
570.0
  0
VERTEX
  5
151F
  8
TEAM-NET1
 10
-965.395571
 20
-284.970903
 30
570.0
  0
VERTEX
  5
1520
  8
TEAM-NET1
 10
-908.62855
 20
-341.783247
 30
570.0
  0
VERTEX
  5
1521
  8
TEAM-NET1
 10
-831.587585
 20
-420.238375
 30
570.0
  0
VERTEX
  5
1522
  8
TEAM-NET1
 10
-713.998755
 20
-533.863045
 30
570.0
  0
VERTEX
  5
1523
  8
TEAM-NET1
 10
-675.056112
 20
-569.568414
 30
570.0
  0
VERTEX
  5
1524
  8
TEAM-NET1
 10
-634.254601
 20
-602.849456
 30
570.0
  0
VERTEX
  5
1525
  8
TEAM-NET1
 10
-575.085292
 20
-641.141967
 30
570.0
  0
VERTEX
  5
1526
  8
TEAM-NET1
 10
-512.610976
 20
-674.541218
 30
570.0
  0
VERTEX
  5
1527
  8
TEAM-NET1
 10
-448.827251
 20
-705.676515
 30
570.0
  0
VERTEX
  5
1528
  8
TEAM-NET1
 10
-383.57956
 20
-732.921422
 30
570.0
  0
VERTEX
  5
1529
  8
TEAM-NET1
 10
-316.028561
 20
-754.600545
 30
570.0
  0
VERTEX
  5
152A
  8
TEAM-NET1
 10
-247.068385
 20
-772.14899
 30
570.0
  0
VERTEX
  5
152B
  8
TEAM-NET1
 10
-190.194736
 20
-784.560234
 30
570.0
  0
VERTEX
  5
152C
  8
TEAM-NET1
 10
-132.907308
 20
-793.99161
 30
570.0
  0
VERTEX
  5
152D
  8
TEAM-NET1
 10
-66.645353
 20
-799.807887
 30
570.0
  0
VERTEX
  5
152E
  8
TEAM-NET1
 10
0.0
 20
-802.5
 30
570.0
  0
SEQEND
  5
152F
  8
TEAM-NET1
  0
LINE
  5
96D
  8
TEAM-NET1
 10
-1026.774688
 20
-221.394716
 30
600.0
 11
-1026.774688
 21
-221.394716
 31
570.0
1001
ACAD
1000
R13OBJECT
1002
{
1005
96A
1002
}
  0
LINE
  5
96E
  8
TEAM-NET1
 10
-1026.774688
 20
-221.394716
 30
600.0
 11
-1026.774688
 21
-221.394716
 31
570.0
1001
ACAD
1000
R13OBJECT
1002
{
1005
96C
1002
}
  0
LINE
  5
96F
  8
TEAM-NET1
 10
-1026.774688
 20
-221.394716
 30
600.0
 11
-1026.774688
 21
-221.394716
 31
570.0
210
0.706113
220
-0.708099
230
0.0
  0
POLYLINE
  5
970
  8
TEAM-BODY
 66
     1
 10
0.0
 20
0.0
 30
0.0
 70
     8
  0
VERTEX
  5
971
  8
TEAM-BODY
 10
-0.318771
 20
479.736957
 30
594.553293
 70
    32
  0
VERTEX
  5
972
  8
TEAM-BODY
 10
-54.960631
 20
478.208809
 30
593.698701
 70
    32
  0
VERTEX
  5
973
  8
TEAM-BODY
 10
-82.102957
 20
475.388307
 30
593.215547
 70
    32
  0
VERTEX
  5
974
  8
TEAM-BODY
 10
-109.047027
 20
470.294208
 30
592.630854
 70
    32
  0
VERTEX
  5
975
  8
TEAM-BODY
 10
-135.074271
 20
462.129405
 30
591.802951
 70
    32
  0
VERTEX
  5
976
  8
TEAM-BODY
 10
-159.476757
 20
450.566585
 30
590.63711
 70
    32
  0
VERTEX
  5
977
  8
TEAM-BODY
 10
-182.443236
 20
435.995226
 30
589.225776
 70
    32
  0
VERTEX
  5
978
  8
TEAM-BODY
 10
-187.994752
 20
431.970243
 30
588.842903
 70
    32
  0
VERTEX
  5
979
  8
TEAM-BODY
 10
-191.850896
 20
429.075219
 30
588.569812
 70
    32
  0
VERTEX
  5
97A
  8
TEAM-BODY
 10
-193.461563
 20
427.843245
 30
588.454209
 70
    32
  0
VERTEX
  5
97B
  8
TEAM-BODY
 10
-204.185808
 20
419.347931
 30
587.672045
 70
    32
  0
VERTEX
  5
97C
  8
TEAM-BODY
 10
-245.585364
 20
383.619926
 30
584.758728
 70
    32
  0
VERTEX
  5
97D
  8
TEAM-BODY
 10
-285.56178
 20
346.262555
 30
581.688243
 70
    32
  0
VERTEX
  5
97E
  8
TEAM-BODY
 10
-325.048953
 20
308.393259
 30
578.412412
 70
    32
  0
VERTEX
  5
97F
  8
TEAM-BODY
 10
-336.962791
 20
296.577478
 30
577.368998
 70
    32
  0
VERTEX
  5
980
  8
TEAM-BODY
 10
-344.427378
 20
289.091471
 30
576.700773
 70
    32
  0
VERTEX
  5
981
  8
TEAM-BODY
 10
-354.763791
 20
278.658104
 30
575.761539
 70
    32
  0
VERTEX
  5
982
  8
TEAM-BODY
 10
-363.659008
 20
269.643503
 30
574.943424
 70
    32
  0
SEQEND
  5
983
  8
TEAM-BODY
  0
POLYLINE
  5
984
  8
TEAM-BODY
 66
     1
 10
0.0
 20
0.0
 30
0.0
 70
     8
  0
VERTEX
  5
985
  8
TEAM-BODY
 10
363.659008
 20
269.643503
 30
575.272517
 70
    32
  0
VERTEX
  5
986
  8
TEAM-BODY
 10
355.074422
 20
278.342428
 30
576.053324
 70
    32
  0
VERTEX
  5
987
  8
TEAM-BODY
 10
344.457316
 20
289.061348
 30
577.005693
 70
    32
  0
VERTEX
  5
988
  8
TEAM-BODY
 10
341.661931
 20
291.870875
 30
577.253449
 70
    32
  0
VERTEX
  5
989
  8
TEAM-BODY
 10
334.810767
 20
298.724854
 30
577.854098
 70
    32
  0
VERTEX
  5
98A
  8
TEAM-BODY
 10
325.109642
 20
308.333565
 30
578.687283
 70
    32
  0
VERTEX
  5
98B
  8
TEAM-BODY
 10
285.687702
 20
346.14339
 30
581.907469
 70
    32
  0
VERTEX
  5
98C
  8
TEAM-BODY
 10
245.779149
 20
383.444125
 30
584.929965
 70
    32
  0
VERTEX
  5
98D
  8
TEAM-BODY
 10
204.525197
 20
419.071782
 30
587.771194
 70
    32
  0
VERTEX
  5
98E
  8
TEAM-BODY
 10
182.930925
 20
435.648769
 30
589.281736
 70
    32
  0
VERTEX
  5
98F
  8
TEAM-BODY
 10
159.856447
 20
450.354946
 30
590.672551
 70
    32
  0
VERTEX
  5
990
  8
TEAM-BODY
 10
134.986347
 20
462.163911
 30
591.837735
 70
    32
  0
VERTEX
  5
991
  8
TEAM-BODY
 10
109.052207
 20
470.292944
 30
592.645967
 70
    32
  0
VERTEX
  5
992
  8
TEAM-BODY
 10
82.282834
 20
475.362837
 30
593.21638
 70
    32
  0
VERTEX
  5
993
  8
TEAM-BODY
 10
54.953958
 20
478.209278
 30
593.696094
 70
    32
  0
VERTEX
  5
994
  8
TEAM-BODY
 10
0.0
 20
479.73889
 30
594.553613
 70
    32
  0
SEQEND
  5
995
  8
TEAM-BODY
  0
LINE
  5
996
  8
TEAM-NET1
 10
0.0
 20
802.5
 30
600.0
 11
0.0
 21
802.5
 31
570.0
1001
ACAD
1000
R13OBJECT
1002
{
1005
96A
1002
}
  0
LINE
  5
997
  8
TEAM-NET1
 10
0.0
 20
-802.5
 30
600.0
 11
0.0
 21
-802.5
 31
570.0
1001
ACAD
1000
R13OBJECT
1002
{
1005
96C
1002
}
  0
LINE
  5
998
  8
TEAM-NET1
 10
0.0
 20
802.5
 30
600.0
 11
0.0
 21
802.5
 31
570.0
1001
ACAD
1000
R13OBJECT
1002
{
1005
A40
1002
}
  0
LINE
  5
999
  8
TEAM-NET1
 10
1026.65484
 20
-221.3908
 30
600.0
 11
1026.65484
 21
-221.3908
 31
570.0
1001
ACAD
1000
R13OBJECT
1002
{
1005
A40
1002
}
  0
LINE
  5
99A
  8
TEAM-NET1
 10
1026.65484
 20
-221.3908
 30
600.0
 11
1026.65484
 21
-221.3908
 31
570.0
1001
ACAD
1000
R13OBJECT
1002
{
1005
A41
1002
}
  0
LINE
  5
99B
  8
TEAM-NET1
 10
0.0
 20
-802.5
 30
600.0
 11
0.0
 21
-802.5
 31
570.0
1001
ACAD
1000
R13OBJECT
1002
{
1005
A41
1002
}
  0
LINE
  5
99C
  8
TEAM-BODY
 10
0.0
 20
-802.5
 30
600.0
 11
0.0
 21
-802.5
 31
570.0
  0
LINE
  5
99D
  8
TEAM-BODY
 10
0.0
 20
-802.5
 30
600.0
 11
0.0
 21
-802.5
 31
570.0
  0
POLYLINE
  5
99E
  8
TEAM-NET1
 66
     1
 10
0.0
 20
0.0
 30
0.0
 70
    16
 71
    11
 72
     7
  0
VERTEX
  5
99F
  8
TEAM-NET1
 10
-0.318771
 20
479.736957
 30
594.553293
 70
    64
  0
VERTEX
  5
9A0
  8
TEAM-NET1
 10
-0.265643
 20
487.237413
 30
595.461077
 70
    64
  0
VERTEX
  5
9A1
  8
TEAM-NET1
 10
-0.212514
 20
494.737869
 30
596.368862
 70
    64
  0
VERTEX
  5
9A2
  8
TEAM-NET1
 10
-0.159386
 20
502.238324
 30
597.276646
 70
    64
  0
VERTEX
  5
9A3
  8
TEAM-NET1
 10
-0.106257
 20
509.73878
 30
598.184431
 70
    64
  0
VERTEX
  5
9A4
  8
TEAM-NET1
 10
-0.053129
 20
517.239236
 30
599.092215
 70
    64
  0
VERTEX
  5
9A5
  8
TEAM-NET1
 10
0.0
 20
524.739691
 30
600.0
 70
    64
  0
VERTEX
  5
9A6
  8
TEAM-NET1
 10
-44.066162
 20
478.850568
 30
593.902128
 70
    64
  0
VERTEX
  5
9A7
  8
TEAM-NET1
 10
-44.358007
 20
486.31064
 30
594.908987
 70
    64
  0
VERTEX
  5
9A8
  8
TEAM-NET1
 10
-44.940052
 20
493.800207
 30
595.92719
 70
    64
  0
VERTEX
  5
9A9
  8
TEAM-NET1
 10
-45.667196
 20
501.304522
 30
596.951064
 70
    64
  0
VERTEX
  5
9AA
  8
TEAM-NET1
 10
-46.39434
 20
508.808838
 30
597.974938
 70
    64
  0
VERTEX
  5
9AB
  8
TEAM-NET1
 10
-46.976385
 20
516.298405
 30
598.993141
 70
    64
  0
VERTEX
  5
9AC
  8
TEAM-NET1
 10
-47.26823
 20
523.758477
 30
600.0
 70
    64
  0
VERTEX
  5
9AD
  8
TEAM-NET1
 10
-87.591984
 20
474.565064
 30
593.108752
 70
    64
  0
VERTEX
  5
9AE
  8
TEAM-NET1
 10
-88.371451
 20
481.903335
 30
594.312375
 70
    64
  0
VERTEX
  5
9AF
  8
TEAM-NET1
 10
-89.555695
 20
489.332878
 30
595.4499
 70
    64
  0
VERTEX
  5
9B0
  8
TEAM-NET1
 10
-90.942327
 20
496.808058
 30
596.554376
 70
    64
  0
VERTEX
  5
9B1
  8
TEAM-NET1
 10
-92.328959
 20
504.283238
 30
597.658852
 70
    64
  0
VERTEX
  5
9B2
  8
TEAM-NET1
 10
-93.513202
 20
511.712782
 30
598.796377
 70
    64
  0
VERTEX
  5
9B3
  8
TEAM-NET1
 10
-94.292669
 20
519.051052
 30
600.0
 70
    64
  0
VERTEX
  5
9B4
  8
TEAM-NET1
 10
-129.991908
 20
464.040522
 30
591.996494
 70
    64
  0
VERTEX
  5
9B5
  8
TEAM-NET1
 10
-131.370469
 20
471.212673
 30
593.485869
 70
    64
  0
VERTEX
  5
9B6
  8
TEAM-NET1
 10
-133.143399
 20
478.587202
 30
594.788695
 70
    64
  0
VERTEX
  5
9B7
  8
TEAM-NET1
 10
-135.113513
 20
486.062921
 30
595.998247
 70
    64
  0
VERTEX
  5
9B8
  8
TEAM-NET1
 10
-137.083628
 20
493.53864
 30
597.207799
 70
    64
  0
VERTEX
  5
9B9
  8
TEAM-NET1
 10
-138.856558
 20
500.913169
 30
598.510626
 70
    64
  0
VERTEX
  5
9BA
  8
TEAM-NET1
 10
-140.235119
 20
508.08532
 30
600.0
 70
    64
  0
VERTEX
  5
9BB
  8
TEAM-NET1
 10
-169.182898
 20
444.84254
 30
590.077475
 70
    64
  0
VERTEX
  5
9BC
  8
TEAM-NET1
 10
-171.258986
 20
451.847579
 30
591.955938
 70
    64
  0
VERTEX
  5
9BD
  8
TEAM-NET1
 10
-173.671891
 20
459.24182
 30
593.56475
 70
    64
  0
VERTEX
  5
9BE
  8
TEAM-NET1
 10
-176.253203
 20
466.830662
 30
595.038737
 70
    64
  0
VERTEX
  5
9BF
  8
TEAM-NET1
 10
-178.834515
 20
474.419503
 30
596.512724
 70
    64
  0
VERTEX
  5
9C0
  8
TEAM-NET1
 10
-181.247419
 20
481.813744
 30
598.121537
 70
    64
  0
VERTEX
  5
9C1
  8
TEAM-NET1
 10
-183.323507
 20
488.818783
 30
600.0
 70
    64
  0
VERTEX
  5
9C2
  8
TEAM-NET1
 10
-204.469305
 20
419.117287
 30
587.65125
 70
    64
  0
VERTEX
  5
9C3
  8
TEAM-NET1
 10
-207.272886
 20
425.887142
 30
589.978161
 70
    64
  0
VERTEX
  5
9C4
  8
TEAM-NET1
 10
-210.303282
 20
433.169513
 30
591.982529
 70
    64
  0
VERTEX
  5
9C5
  8
TEAM-NET1
 10
-213.447085
 20
440.708144
 30
593.825625
 70
    64
  0
VERTEX
  5
9C6
  8
TEAM-NET1
 10
-216.590888
 20
448.246774
 30
595.668721
 70
    64
  0
VERTEX
  5
9C7
  8
TEAM-NET1
 10
-219.621284
 20
455.529146
 30
597.673089
 70
    64
  0
VERTEX
  5
9C8
  8
TEAM-NET1
 10
-222.424866
 20
462.299
 30
600.0
 70
    64
  0
VERTEX
  5
9C9
  8
TEAM-NET1
 10
-237.685999
 20
390.722123
 30
585.312605
 70
    64
  0
VERTEX
  5
9CA
  8
TEAM-NET1
 10
-241.165993
 20
397.179218
 30
588.081477
 70
    64
  0
VERTEX
  5
9CB
  8
TEAM-NET1
 10
-244.686177
 20
404.155785
 30
590.465182
 70
    64
  0
VERTEX
  5
9CC
  8
TEAM-NET1
 10
-248.226455
 20
411.392087
 30
592.656303
 70
    64
  0
VERTEX
  5
9CD
  8
TEAM-NET1
 10
-251.766734
 20
418.628389
 30
594.847423
 70
    64
  0
VERTEX
  5
9CE
  8
TEAM-NET1
 10
-255.286917
 20
425.604956
 30
597.231128
 70
    64
  0
VERTEX
  5
9CF
  8
TEAM-NET1
 10
-258.766911
 20
432.062052
 30
600.0
 70
    64
  0
VERTEX
  5
9D0
  8
TEAM-NET1
 10
-269.839242
 20
361.127868
 30
582.942559
 70
    64
  0
VERTEX
  5
9D1
  8
TEAM-NET1
 10
-273.953838
 20
367.276718
 30
586.133929
 70
    64
  0
VERTEX
  5
9D2
  8
TEAM-NET1
 10
-277.956682
 20
373.920159
 30
588.907143
 70
    64
  0
VERTEX
  5
9D3
  8
TEAM-NET1
 10
-281.90365
 20
380.810895
 30
591.471279
 70
    64
  0
VERTEX
  5
9D4
  8
TEAM-NET1
 10
-285.850618
 20
387.701631
 30
594.035416
 70
    64
  0
VERTEX
  5
9D5
  8
TEAM-NET1
 10
-289.853462
 20
394.345072
 30
596.80863
 70
    64
  0
VERTEX
  5
9D6
  8
TEAM-NET1
 10
-293.968058
 20
400.493921
 30
600.0
 70
    64
  0
VERTEX
  5
9D7
  8
TEAM-NET1
 10
-301.562424
 20
331.086254
 30
580.38427
 70
    64
  0
VERTEX
  5
9D8
  8
TEAM-NET1
 10
-306.231431
 20
336.944931
 30
583.968505
 70
    64
  0
VERTEX
  5
9D9
  8
TEAM-NET1
 10
-310.711253
 20
343.223226
 30
587.174804
 70
    64
  0
VERTEX
  5
9DA
  8
TEAM-NET1
 10
-315.096484
 20
349.71133
 30
590.192135
 70
    64
  0
VERTEX
  5
9DB
  8
TEAM-NET1
 10
-319.481715
 20
356.199434
 30
593.209466
 70
    64
  0
VERTEX
  5
9DC
  8
TEAM-NET1
 10
-323.961538
 20
362.477729
 30
596.415765
 70
    64
  0
VERTEX
  5
9DD
  8
TEAM-NET1
 10
-328.630544
 20
368.336406
 30
600.0
 70
    64
  0
VERTEX
  5
9DE
  8
TEAM-NET1
 10
-332.887975
 20
300.639837
 30
577.729289
 70
    64
  0
VERTEX
  5
9DF
  8
TEAM-NET1
 10
-337.965715
 20
306.21102
 30
581.648184
 70
    64
  0
VERTEX
  5
9E0
  8
TEAM-NET1
 10
-342.850515
 20
312.015059
 30
585.318547
 70
    64
  0
VERTEX
  5
9E1
  8
TEAM-NET1
 10
-347.638846
 20
317.935527
 30
588.864644
 70
    64
  0
VERTEX
  5
9E2
  8
TEAM-NET1
 10
-352.427177
 20
323.855994
 30
592.410742
 70
    64
  0
VERTEX
  5
9E3
  8
TEAM-NET1
 10
-357.311977
 20
329.660034
 30
596.081105
 70
    64
  0
VERTEX
  5
9E4
  8
TEAM-NET1
 10
-362.389717
 20
335.231216
 30
600.0
 70
    64
  0
VERTEX
  5
9E5
  8
TEAM-NET1
 10
-363.659008
 20
269.643503
 30
574.943424
 70
    64
  0
VERTEX
  5
9E6
  8
TEAM-NET1
 10
-369.016881
 20
274.9994
 30
579.11952
 70
    64
  0
VERTEX
  5
9E7
  8
TEAM-NET1
 10
-374.374755
 20
280.355298
 30
583.295616
 70
    64
  0
VERTEX
  5
9E8
  8
TEAM-NET1
 10
-379.732628
 20
285.711195
 30
587.471712
 70
    64
  0
VERTEX
  5
9E9
  8
TEAM-NET1
 10
-385.090502
 20
291.067092
 30
591.647808
 70
    64
  0
VERTEX
  5
9EA
  8
TEAM-NET1
 10
-390.448375
 20
296.42299
 30
595.823904
 70
    64
  0
VERTEX
  5
9EB
  8
TEAM-NET1
 10
-395.806249
 20
301.778887
 30
600.0
 70
    64
  0
SEQEND
  5
9EC
  8
TEAM-NET1
  0
POLYLINE
  5
9ED
  8
TEAM-NET1
 66
     1
 10
0.0
 20
0.0
 30
0.0
 70
    16
 71
    11
 72
     7
  0
VERTEX
  5
9EE
  8
TEAM-NET1
 10
0.313785
 20
479.736952
 30
594.553293
 70
    64
  0
VERTEX
  5
9EF
  8
TEAM-NET1
 10
0.260772
 20
487.237409
 30
595.461077
 70
    64
  0
VERTEX
  5
9F0
  8
TEAM-NET1
 10
0.207759
 20
494.737865
 30
596.368862
 70
    64
  0
VERTEX
  5
9F1
  8
TEAM-NET1
 10
0.154747
 20
502.238322
 30
597.276646
 70
    64
  0
VERTEX
  5
9F2
  8
TEAM-NET1
 10
0.101734
 20
509.738778
 30
598.184431
 70
    64
  0
VERTEX
  5
9F3
  8
TEAM-NET1
 10
0.048721
 20
517.239235
 30
599.092215
 70
    64
  0
VERTEX
  5
9F4
  8
TEAM-NET1
 10
-0.004291
 20
524.739691
 30
600.0
 70
    64
  0
VERTEX
  5
9F5
  8
TEAM-NET1
 10
44.061161
 20
478.849887
 30
593.902128
 70
    64
  0
VERTEX
  5
9F6
  8
TEAM-NET1
 10
44.353122
 20
486.309954
 30
594.908987
 70
    64
  0
VERTEX
  5
9F7
  8
TEAM-NET1
 10
44.935283
 20
493.799513
 30
595.92719
 70
    64
  0
VERTEX
  5
9F8
  8
TEAM-NET1
 10
45.662543
 20
501.303817
 30
596.951064
 70
    64
  0
VERTEX
  5
9F9
  8
TEAM-NET1
 10
46.389803
 20
508.808121
 30
597.974938
 70
    64
  0
VERTEX
  5
9FA
  8
TEAM-NET1
 10
46.971963
 20
516.297679
 30
598.993141
 70
    64
  0
VERTEX
  5
9FB
  8
TEAM-NET1
 10
47.263924
 20
523.757747
 30
600.0
 70
    64
  0
VERTEX
  5
9FC
  8
TEAM-NET1
 10
87.586917
 20
474.563711
 30
593.108752
 70
    64
  0
VERTEX
  5
9FD
  8
TEAM-NET1
 10
88.366498
 20
481.901969
 30
594.312375
 70
    64
  0
VERTEX
  5
9FE
  8
TEAM-NET1
 10
89.550856
 20
489.331494
 30
595.4499
 70
    64
  0
VERTEX
  5
9FF
  8
TEAM-NET1
 10
90.937604
 20
496.806653
 30
596.554376
 70
    64
  0
VERTEX
  5
A00
  8
TEAM-NET1
 10
92.324351
 20
504.281812
 30
597.658852
 70
    64
  0
VERTEX
  5
A01
  8
TEAM-NET1
 10
93.50871
 20
511.711337
 30
598.796377
 70
    64
  0
VERTEX
  5
A02
  8
TEAM-NET1
 10
94.28829
 20
519.049596
 30
600.0
 70
    64
  0
VERTEX
  5
A03
  8
TEAM-NET1
 10
129.986679
 20
464.038514
 30
591.996494
 70
    64
  0
VERTEX
  5
A04
  8
TEAM-NET1
 10
131.36535
 20
471.210643
 30
593.485869
 70
    64
  0
VERTEX
  5
A05
  8
TEAM-NET1
 10
133.138394
 20
478.585145
 30
594.788695
 70
    64
  0
VERTEX
  5
A06
  8
TEAM-NET1
 10
135.108624
 20
486.060834
 30
595.998247
 70
    64
  0
VERTEX
  5
A07
  8
TEAM-NET1
 10
137.078855
 20
493.536522
 30
597.207799
 70
    64
  0
VERTEX
  5
A08
  8
TEAM-NET1
 10
138.851899
 20
500.911024
 30
598.510626
 70
    64
  0
VERTEX
  5
A09
  8
TEAM-NET1
 10
140.23057
 20
508.083153
 30
600.0
 70
    64
  0
VERTEX
  5
A0A
  8
TEAM-NET1
 10
169.177372
 20
444.839927
 30
590.077475
 70
    64
  0
VERTEX
  5
A0B
  8
TEAM-NET1
 10
171.253569
 20
451.844933
 30
591.955938
 70
    64
  0
VERTEX
  5
A0C
  8
TEAM-NET1
 10
173.666587
 20
459.239137
 30
593.56475
 70
    64
  0
VERTEX
  5
A0D
  8
TEAM-NET1
 10
176.248017
 20
466.827939
 30
595.038737
 70
    64
  0
VERTEX
  5
A0E
  8
TEAM-NET1
 10
178.829446
 20
474.41674
 30
596.512724
 70
    64
  0
VERTEX
  5
A0F
  8
TEAM-NET1
 10
181.242464
 20
481.810944
 30
598.121537
 70
    64
  0
VERTEX
  5
A10
  8
TEAM-NET1
 10
183.318661
 20
488.815951
 30
600.0
 70
    64
  0
VERTEX
  5
A11
  8
TEAM-NET1
 10
204.463381
 20
419.114128
 30
587.65125
 70
    64
  0
VERTEX
  5
A12
  8
TEAM-NET1
 10
207.267068
 20
425.883939
 30
589.978161
 70
    64
  0
VERTEX
  5
A13
  8
TEAM-NET1
 10
210.297576
 20
433.166264
 30
591.982529
 70
    64
  0
VERTEX
  5
A14
  8
TEAM-NET1
 10
213.441496
 20
440.704846
 30
593.825625
 70
    64
  0
VERTEX
  5
A15
  8
TEAM-NET1
 10
216.585415
 20
448.243428
 30
595.668721
 70
    64
  0
VERTEX
  5
A16
  8
TEAM-NET1
 10
219.615924
 20
455.525753
 30
597.673089
 70
    64
  0
VERTEX
  5
A17
  8
TEAM-NET1
 10
222.41961
 20
462.295564
 30
600.0
 70
    64
  0
VERTEX
  5
A18
  8
TEAM-NET1
 10
237.679637
 20
390.71845
 30
585.312605
 70
    64
  0
VERTEX
  5
A19
  8
TEAM-NET1
 10
241.159731
 20
397.175492
 30
588.081477
 70
    64
  0
VERTEX
  5
A1A
  8
TEAM-NET1
 10
244.680022
 20
404.152005
 30
590.465182
 70
    64
  0
VERTEX
  5
A1B
  8
TEAM-NET1
 10
248.220413
 20
411.388252
 30
592.656303
 70
    64
  0
VERTEX
  5
A1C
  8
TEAM-NET1
 10
251.760803
 20
418.624499
 30
594.847423
 70
    64
  0
VERTEX
  5
A1D
  8
TEAM-NET1
 10
255.281094
 20
425.601012
 30
597.231128
 70
    64
  0
VERTEX
  5
A1E
  8
TEAM-NET1
 10
258.761188
 20
432.058054
 30
600.0
 70
    64
  0
VERTEX
  5
A1F
  8
TEAM-NET1
 10
269.832423
 20
361.123699
 30
582.942559
 70
    64
  0
VERTEX
  5
A20
  8
TEAM-NET1
 10
273.947114
 20
367.272485
 30
586.133929
 70
    64
  0
VERTEX
  5
A21
  8
TEAM-NET1
 10
277.95006
 20
373.915864
 30
588.907143
 70
    64
  0
VERTEX
  5
A22
  8
TEAM-NET1
 10
281.897135
 20
380.806539
 30
591.471279
 70
    64
  0
VERTEX
  5
A23
  8
TEAM-NET1
 10
285.84421
 20
387.697215
 30
594.035416
 70
    64
  0
VERTEX
  5
A24
  8
TEAM-NET1
 10
289.847156
 20
394.340594
 30
596.80863
 70
    64
  0
VERTEX
  5
A25
  8
TEAM-NET1
 10
293.961847
 20
400.48938
 30
600.0
 70
    64
  0
VERTEX
  5
A26
  8
TEAM-NET1
 10
301.555141
 20
331.081595
 30
580.38427
 70
    64
  0
VERTEX
  5
A27
  8
TEAM-NET1
 10
306.224238
 20
336.940199
 30
583.968505
 70
    64
  0
VERTEX
  5
A28
  8
TEAM-NET1
 10
310.704158
 20
343.218425
 30
587.174804
 70
    64
  0
VERTEX
  5
A29
  8
TEAM-NET1
 10
315.089488
 20
349.706462
 30
590.192135
 70
    64
  0
VERTEX
  5
A2A
  8
TEAM-NET1
 10
319.474819
 20
356.194498
 30
593.209466
 70
    64
  0
VERTEX
  5
A2B
  8
TEAM-NET1
 10
323.954739
 20
362.472724
 30
596.415765
 70
    64
  0
VERTEX
  5
A2C
  8
TEAM-NET1
 10
328.623836
 20
368.331329
 30
600.0
 70
    64
  0
VERTEX
  5
A2D
  8
TEAM-NET1
 10
332.880221
 20
300.634694
 30
577.729289
 70
    64
  0
VERTEX
  5
A2E
  8
TEAM-NET1
 10
337.958047
 20
306.205798
 30
581.648184
 70
    64
  0
VERTEX
  5
A2F
  8
TEAM-NET1
 10
342.842937
 20
312.009762
 30
585.318547
 70
    64
  0
VERTEX
  5
A30
  8
TEAM-NET1
 10
347.631359
 20
317.930156
 30
588.864644
 70
    64
  0
VERTEX
  5
A31
  8
TEAM-NET1
 10
352.419782
 20
323.850549
 30
592.410742
 70
    64
  0
VERTEX
  5
A32
  8
TEAM-NET1
 10
357.304672
 20
329.654513
 30
596.081105
 70
    64
  0
VERTEX
  5
A33
  8
TEAM-NET1
 10
362.382497
 20
335.225618
 30
600.0
 70
    64
  0
VERTEX
  5
A34
  8
TEAM-NET1
 10
363.650775
 20
269.637884
 30
574.943424
 70
    64
  0
VERTEX
  5
A35
  8
TEAM-NET1
 10
369.008731
 20
274.993699
 30
579.11952
 70
    64
  0
VERTEX
  5
A36
  8
TEAM-NET1
 10
374.366688
 20
280.349513
 30
583.295616
 70
    64
  0
VERTEX
  5
A37
  8
TEAM-NET1
 10
379.724644
 20
285.705328
 30
587.471712
 70
    64
  0
VERTEX
  5
A38
  8
TEAM-NET1
 10
385.0826
 20
291.061143
 30
591.647808
 70
    64
  0
VERTEX
  5
A39
  8
TEAM-NET1
 10
390.440556
 20
296.416958
 30
595.823904
 70
    64
  0
VERTEX
  5
A3A
  8
TEAM-NET1
 10
395.798513
 20
301.772772
 30
600.0
 70
    64
  0
SEQEND
  5
A3B
  8
TEAM-NET1
  0
LINE
  5
A3C
  8
TEAM-BODY
 10
0.0
 20
802.5
 30
600.0
 11
0.0
 21
802.5
 31
570.0
210
0.706113
220
-0.708099
230
0.0
  0
LINE
  5
A3D
  8
TEAM-BODY
 10
1026.65484
 20
-221.3908
 30
600.0
 11
1026.65484
 21
-221.3908
 31
570.0
210
-0.706153
220
-0.708059
230
0.0
  0
POLYLINE
  5
A3E
  8
TEAM-BODY
 66
     1
 10
0.0
 20
0.0
 30
570.0
 70
   128
  0
VERTEX
  5
1530
  8
TEAM-BODY
 10
0.0
 20
-802.5
 30
570.0
  0
VERTEX
  5
1531
  8
TEAM-BODY
 10
76.399334
 20
-799.214949
 30
570.0
  0
VERTEX
  5
1532
  8
TEAM-BODY
 10
152.222721
 20
-791.241012
 30
570.0
  0
VERTEX
  5
1533
  8
TEAM-BODY
 10
227.203021
 20
-776.688696
 30
570.0
  0
VERTEX
  5
1534
  8
TEAM-BODY
 10
301.549005
 20
-758.535589
 30
570.0
  0
VERTEX
  5
1535
  8
TEAM-BODY
 10
374.513796
 20
-736.15138
 30
570.0
  0
VERTEX
  5
1536
  8
TEAM-BODY
 10
445.08493
 20
-707.332235
 30
570.0
  0
VERTEX
  5
1537
  8
TEAM-BODY
 10
513.89067
 20
-673.8251
 30
570.0
  0
VERTEX
  5
1538
  8
TEAM-BODY
 10
581.305765
 20
-637.453702
 30
570.0
  0
VERTEX
  5
1539
  8
TEAM-BODY
 10
613.658122
 20
-617.240605
 30
570.0
  0
VERTEX
  5
153A
  8
TEAM-BODY
 10
644.519176
 20
-594.93648
 30
570.0
  0
VERTEX
  5
153B
  8
TEAM-BODY
 10
702.164459
 20
-544.814193
 30
570.0
  0
VERTEX
  5
153C
  8
TEAM-BODY
 10
812.513847
 20
-439.15292
 30
570.0
  0
VERTEX
  5
153D
  8
TEAM-BODY
 10
1026.65484
 20
-221.3908
 30
570.0
  0
SEQEND
  5
153E
  8
TEAM-BODY
  0
LINE
  5
A3F
  8
TEAM-BODY
 10
1026.65484
 20
-221.3908
 30
570.0
 11
0.0
 21
802.5
 31
570.0
210
-0.706153
220
-0.708059
230
0.0
  0
LINE
  5
A40
  8
TEAM-NET1
 10
1026.65484
 20
-221.3908
 30
570.0
 11
0.0
 21
802.5
 31
570.0
  0
POLYLINE
  5
A41
  8
TEAM-NET1
 66
     1
 10
0.0
 20
0.0
 30
570.0
 70
   128
  0
VERTEX
  5
153F
  8
TEAM-NET1
 10
0.0
 20
-802.5
 30
570.0
  0
VERTEX
  5
1540
  8
TEAM-NET1
 10
66.585104
 20
-799.802697
 30
570.0
  0
VERTEX
  5
1541
  8
TEAM-NET1
 10
132.78746
 20
-793.987694
 30
570.0
  0
VERTEX
  5
1542
  8
TEAM-NET1
 10
190.074898
 20
-784.556068
 30
570.0
  0
VERTEX
  5
1543
  8
TEAM-NET1
 10
246.948537
 20
-772.145074
 30
570.0
  0
VERTEX
  5
1544
  8
TEAM-NET1
 10
315.908709
 20
-754.596717
 30
570.0
  0
VERTEX
  5
1545
  8
TEAM-NET1
 10
383.459711
 20
-732.917506
 30
570.0
  0
VERTEX
  5
1546
  8
TEAM-NET1
 10
448.707404
 20
-705.672576
 30
570.0
  0
VERTEX
  5
1547
  8
TEAM-NET1
 10
512.491128
 20
-674.537302
 30
570.0
  0
VERTEX
  5
1548
  8
TEAM-NET1
 10
574.965444
 20
-641.138057
 30
570.0
  0
VERTEX
  5
1549
  8
TEAM-NET1
 10
634.134753
 20
-602.84554
 30
570.0
  0
VERTEX
  5
154A
  8
TEAM-NET1
 10
674.936263
 20
-569.564497
 30
570.0
  0
VERTEX
  5
154B
  8
TEAM-NET1
 10
713.878907
 20
-533.859129
 30
570.0
  0
VERTEX
  5
154C
  8
TEAM-NET1
 10
831.467737
 20
-420.234459
 30
570.0
  0
VERTEX
  5
154D
  8
TEAM-NET1
 10
908.508702
 20
-341.779331
 30
570.0
  0
VERTEX
  5
154E
  8
TEAM-NET1
 10
965.275723
 20
-284.966987
 30
570.0
  0
VERTEX
  5
154F
  8
TEAM-NET1
 10
1026.65484
 20
-221.3908
 30
570.0
  0
SEQEND
  5
1550
  8
TEAM-NET1
  0
LINE
  5
A42
  8
TEAM-BODY
 10
-0.318771
 20
479.736957
 30
594.553293
 11
0.0
 21
524.739691
 31
600.0
  0
LINE
  5
A43
  8
TEAM-BODY
 10
0.0
 20
479.73889
 30
594.553613
 11
-0.318771
 21
479.736957
 31
594.553293
  0
LINE
  5
A44
  8
TEAM-BODY
 10
-0.318771
 20
479.736957
 30
594.553293
 11
0.0
 21
479.73889
 31
594.553613
  0
POLYLINE
  5
A45
  8
TEAM-BODY
 66
     1
 10
0.0
 20
0.0
 30
600.0
 70
   128
  0
VERTEX
  5
1551
  8
TEAM-BODY
 10
0.0
 20
-802.5
 30
600.0
  0
VERTEX
  5
1552
  8
TEAM-BODY
 10
76.399334
 20
-799.214949
 30
600.0
  0
VERTEX
  5
1553
  8
TEAM-BODY
 10
152.222721
 20
-791.241012
 30
600.0
  0
VERTEX
  5
1554
  8
TEAM-BODY
 10
227.203021
 20
-776.688696
 30
600.0
  0
VERTEX
  5
1555
  8
TEAM-BODY
 10
301.549005
 20
-758.535589
 30
600.0
  0
VERTEX
  5
1556
  8
TEAM-BODY
 10
374.513796
 20
-736.15138
 30
600.0
  0
VERTEX
  5
1557
  8
TEAM-BODY
 10
445.08493
 20
-707.332235
 30
600.0
  0
VERTEX
  5
1558
  8
TEAM-BODY
 10
513.89067
 20
-673.8251
 30
600.0
  0
VERTEX
  5
1559
  8
TEAM-BODY
 10
581.305765
 20
-637.453702
 30
600.0
  0
VERTEX
  5
155A
  8
TEAM-BODY
 10
613.658122
 20
-617.240605
 30
600.0
  0
VERTEX
  5
155B
  8
TEAM-BODY
 10
644.519176
 20
-594.93648
 30
600.0
  0
VERTEX
  5
155C
  8
TEAM-BODY
 10
702.164459
 20
-544.814193
 30
600.0
  0
VERTEX
  5
155D
  8
TEAM-BODY
 10
812.513847
 20
-439.15292
 30
600.0
  0
VERTEX
  5
155E
  8
TEAM-BODY
 10
1026.65484
 20
-221.3908
 30
600.0
  0
SEQEND
  5
155F
  8
TEAM-BODY
  0
TEXT
  5
A46
  8
TEAM-TXT
 10
160.078119
 20
-109.582647
 30
600.0
 40
30.0
  1
team 121857
 41
0.8
 51
15.0
  7
TEAM
  0
LINE
  5
A49
  8
TEAM-NET1
 10
1026.65484
 20
-221.3908
 30
600.0
 11
0.0
 21
802.5
 31
600.0
1001
ACAD
1000
R13OBJECT
1002
{
1005
A4C
1002
}
  0
POLYLINE
  5
A4A
  8
TEAM-NET1
 66
     1
 10
0.0
 20
0.0
 30
600.0
 70
   128
1001
ACAD
1000
R13OBJECT
1002
{
1005
98242B0300000000
1002
}
  0
VERTEX
  5
1560
  8
TEAM-NET1
 10
0.0
 20
-802.5
 30
600.0
  0
VERTEX
  5
1561
  8
TEAM-NET1
 10
66.585104
 20
-799.802697
 30
600.0
  0
VERTEX
  5
1562
  8
TEAM-NET1
 10
132.78746
 20
-793.987694
 30
600.0
  0
VERTEX
  5
1563
  8
TEAM-NET1
 10
190.074898
 20
-784.556068
 30
600.0
  0
VERTEX
  5
1564
  8
TEAM-NET1
 10
246.948537
 20
-772.145074
 30
600.0
  0
VERTEX
  5
1565
  8
TEAM-NET1
 10
315.908709
 20
-754.596717
 30
600.0
  0
VERTEX
  5
1566
  8
TEAM-NET1
 10
383.459711
 20
-732.917506
 30
600.0
  0
VERTEX
  5
1567
  8
TEAM-NET1
 10
448.707404
 20
-705.672576
 30
600.0
  0
VERTEX
  5
1568
  8
TEAM-NET1
 10
512.491128
 20
-674.537302
 30
600.0
  0
VERTEX
  5
1569
  8
TEAM-NET1
 10
574.965444
 20
-641.138057
 30
600.0
  0
VERTEX
  5
156A
  8
TEAM-NET1
 10
634.134753
 20
-602.84554
 30
600.0
  0
VERTEX
  5
156B
  8
TEAM-NET1
 10
674.936263
 20
-569.564497
 30
600.0
  0
VERTEX
  5
156C
  8
TEAM-NET1
 10
713.878907
 20
-533.859129
 30
600.0
  0
VERTEX
  5
156D
  8
TEAM-NET1
 10
831.467737
 20
-420.234459
 30
600.0
  0
VERTEX
  5
156E
  8
TEAM-NET1
 10
908.508702
 20
-341.779331
 30
600.0
  0
VERTEX
  5
156F
  8
TEAM-NET1
 10
965.275723
 20
-284.966987
 30
600.0
  0
VERTEX
  5
1570
  8
TEAM-NET1
 10
1026.65484
 20
-221.3908
 30
600.0
  0
SEQEND
  5
1571
  8
TEAM-NET1
  0
POLYLINE
  5
A4B
  8
TEAM-NET1
 66
     1
 10
0.0
 20
0.0
 30
600.0
 70
   128
1001
ACAD
1000
R13OBJECT
1002
{
1005
80242B0300000000
1002
}
  0
VERTEX
  5
1572
  8
TEAM-NET1
 10
-0.011819
 20
-727.492388
 30
600.0
  0
VERTEX
  5
1573
  8
TEAM-NET1
 10
81.823008
 20
-723.4743
 30
600.0
  0
VERTEX
  5
1574
  8
TEAM-NET1
 10
105.675285
 20
-721.312183
 30
600.0
  0
VERTEX
  5
1575
  8
TEAM-NET1
 10
154.647333
 20
-714.562248
 30
600.0
  0
VERTEX
  5
1576
  8
TEAM-NET1
 10
208.426402
 20
-704.03798
 30
600.0
  0
VERTEX
  5
1577
  8
TEAM-NET1
 10
218.841678
 20
-701.698893
 30
600.0
  0
VERTEX
  5
1578
  8
TEAM-NET1
 10
231.968245
 20
-698.635656
 30
600.0
  0
VERTEX
  5
1579
  8
TEAM-NET1
 10
312.268925
 20
-676.590166
 30
600.0
  0
VERTEX
  5
157A
  8
TEAM-NET1
 10
377.20442
 20
-653.48477
 30
600.0
  0
VERTEX
  5
157B
  8
TEAM-NET1
 10
412.456787
 20
-638.977656
 30
600.0
  0
VERTEX
  5
157C
  8
TEAM-NET1
 10
448.496232
 20
-622.841353
 30
600.0
  0
VERTEX
  5
157D
  8
TEAM-NET1
 10
458.644783
 20
-618.068336
 30
600.0
  0
VERTEX
  5
157E
  8
TEAM-NET1
 10
508.653444
 20
-592.703693
 30
600.0
  0
VERTEX
  5
157F
  8
TEAM-NET1
 10
546.388207
 20
-570.894232
 30
600.0
  0
VERTEX
  5
1580
  8
TEAM-NET1
 10
593.235822
 20
-539.274109
 30
600.0
  0
VERTEX
  5
1581
  8
TEAM-NET1
 10
614.489318
 20
-522.719139
 30
600.0
  0
VERTEX
  5
1582
  8
TEAM-NET1
 10
649.617593
 20
-491.844407
 30
600.0
  0
VERTEX
  5
1583
  8
TEAM-NET1
 10
671.938178
 20
-470.635476
 30
600.0
  0
VERTEX
  5
1584
  8
TEAM-NET1
 10
679.371156
 20
-463.444315
 30
600.0
  0
VERTEX
  5
1585
  8
TEAM-NET1
 10
688.379298
 20
-454.707708
 30
600.0
  0
VERTEX
  5
1586
  8
TEAM-NET1
 10
693.082573
 20
-450.138166
 30
600.0
  0
VERTEX
  5
1587
  8
TEAM-NET1
 10
718.846837
 20
-424.728144
 30
600.0
  0
VERTEX
  5
1588
  8
TEAM-NET1
 10
743.243557
 20
-399.390482
 30
600.0
  0
VERTEX
  5
1589
  8
TEAM-NET1
 10
749.033721
 20
-393.080238
 30
600.0
  0
VERTEX
  5
158A
  8
TEAM-NET1
 10
761.259198
 20
-379.163467
 30
600.0
  0
VERTEX
  5
158B
  8
TEAM-NET1
 10
780.011727
 20
-355.033361
 30
600.0
  0
VERTEX
  5
158C
  8
TEAM-NET1
 10
788.810038
 20
-341.600687
 30
600.0
  0
VERTEX
  5
158D
  8
TEAM-NET1
 10
792.805714
 20
-334.747294
 30
600.0
  0
VERTEX
  5
158E
  8
TEAM-NET1
 10
796.417312
 20
-327.981429
 30
600.0
  0
VERTEX
  5
158F
  8
TEAM-NET1
 10
807.569351
 20
-301.90814
 30
600.0
  0
VERTEX
  5
1590
  8
TEAM-NET1
 10
815.625539
 20
-273.231341
 30
600.0
  0
VERTEX
  5
1591
  8
TEAM-NET1
 10
820.12511
 20
-242.989175
 30
600.0
  0
VERTEX
  5
1592
  8
TEAM-NET1
 10
821.009519
 20
-218.429087
 30
600.0
  0
VERTEX
  5
1593
  8
TEAM-NET1
 10
819.430682
 20
-193.97189
 30
600.0
  0
VERTEX
  5
1594
  8
TEAM-NET1
 10
817.066712
 20
-178.202122
 30
600.0
  0
VERTEX
  5
1595
  8
TEAM-NET1
 10
812.386691
 20
-157.906232
 30
600.0
  0
VERTEX
  5
1596
  8
TEAM-NET1
 10
803.490727
 20
-131.686084
 30
600.0
  0
VERTEX
  5
1597
  8
TEAM-NET1
 10
792.782833
 20
-108.65128
 30
600.0
  0
VERTEX
  5
1598
  8
TEAM-NET1
 10
778.118101
 20
-84.747867
 30
600.0
  0
VERTEX
  5
1599
  8
TEAM-NET1
 10
772.254322
 20
-76.83539
 30
600.0
  0
VERTEX
  5
159A
  8
TEAM-NET1
 10
769.999936
 20
-73.985549
 30
600.0
  0
VERTEX
  5
159B
  8
TEAM-NET1
 10
758.812984
 20
-60.964913
 30
600.0
  0
VERTEX
  5
159C
  8
TEAM-NET1
 10
736.395998
 20
-37.81318
 30
600.0
  0
VERTEX
  5
159D
  8
TEAM-NET1
 10
715.682262
 20
-17.153965
 30
600.0
  0
VERTEX
  5
159E
  8
TEAM-NET1
 10
695.666701
 20
2.800883
 30
600.0
  0
VERTEX
  5
159F
  8
TEAM-NET1
 10
671.01109
 20
27.391499
 30
600.0
  0
VERTEX
  5
15A0
  8
TEAM-NET1
 10
652.149685
 20
46.206982
 30
600.0
  0
VERTEX
  5
15A1
  8
TEAM-NET1
 10
629.956907
 20
68.345925
 30
600.0
  0
VERTEX
  5
15A2
  8
TEAM-NET1
 10
607.448005
 20
90.796166
 30
600.0
  0
VERTEX
  5
15A3
  8
TEAM-NET1
 10
581.39546
 20
116.769533
 30
600.0
  0
VERTEX
  5
15A4
  8
TEAM-NET1
 10
561.422328
 20
136.669922
 30
600.0
  0
VERTEX
  5
15A5
  8
TEAM-NET1
 10
533.582915
 20
164.393679
 30
600.0
  0
VERTEX
  5
15A6
  8
TEAM-NET1
 10
506.941108
 20
190.920089
 30
600.0
  0
VERTEX
  5
15A7
  8
TEAM-NET1
 10
492.46306
 20
205.337667
 30
600.0
  0
VERTEX
  5
15A8
  8
TEAM-NET1
 10
439.614722
 20
258.011963
 30
600.0
  0
VERTEX
  5
15A9
  8
TEAM-NET1
 10
388.870484
 20
308.720138
 30
600.0
  0
VERTEX
  5
15AA
  8
TEAM-NET1
 10
377.893557
 20
319.713965
 30
600.0
  0
VERTEX
  5
15AB
  8
TEAM-NET1
 10
334.52879
 20
362.666484
 30
600.0
  0
VERTEX
  5
15AC
  8
TEAM-NET1
 10
329.472547
 20
367.531274
 30
600.0
  0
VERTEX
  5
15AD
  8
TEAM-NET1
 10
316.382043
 20
379.90381
 30
600.0
  0
VERTEX
  5
15AE
  8
TEAM-NET1
 10
309.685716
 20
386.117689
 30
600.0
  0
VERTEX
  5
15AF
  8
TEAM-NET1
 10
291.145382
 20
403.055072
 30
600.0
  0
VERTEX
  5
15B0
  8
TEAM-NET1
 10
281.749828
 20
411.55772
 30
600.0
  0
VERTEX
  5
15B1
  8
TEAM-NET1
 10
275.286616
 20
417.381201
 30
600.0
  0
VERTEX
  5
15B2
  8
TEAM-NET1
 10
248.758237
 20
440.738245
 30
600.0
  0
VERTEX
  5
15B3
  8
TEAM-NET1
 10
244.432913
 20
444.421259
 30
600.0
  0
VERTEX
  5
15B4
  8
TEAM-NET1
 10
223.708076
 20
461.304697
 30
600.0
  0
VERTEX
  5
15B5
  8
TEAM-NET1
 10
199.010258
 20
479.129383
 30
600.0
  0
VERTEX
  5
15B6
  8
TEAM-NET1
 10
172.91293
 20
494.470555
 30
600.0
  0
VERTEX
  5
15B7
  8
TEAM-NET1
 10
168.823065
 20
496.513986
 30
600.0
  0
VERTEX
  5
15B8
  8
TEAM-NET1
 10
158.574964
 20
501.188279
 30
600.0
  0
VERTEX
  5
15B9
  8
TEAM-NET1
 10
146.789672
 20
505.817903
 30
600.0
  0
VERTEX
  5
15BA
  8
TEAM-NET1
 10
105.235604
 20
517.116024
 30
600.0
  0
VERTEX
  5
15BB
  8
TEAM-NET1
 10
62.290991
 20
522.807815
 30
600.0
  0
VERTEX
  5
15BC
  8
TEAM-NET1
 10
47.20052
 20
523.761278
 30
600.0
  0
VERTEX
  5
15BD
  8
TEAM-NET1
 10
0.0
 20
524.739691
 30
600.0
  0
SEQEND
  5
15BE
  8
TEAM-NET1
  0
POLYLINE
  5
A4C
  8
TEAM-NET1
 66
     1
 10
0.0
 20
0.0
 30
600.0
 70
   128
  0
VERTEX
  5
15BF
  8
TEAM-NET1
 10
0.0
 20
524.739691
 30
600.0
  0
VERTEX
  5
15C0
  8
TEAM-NET1
 10
-55.179156
 20
523.311193
 30
600.0
  0
VERTEX
  5
15C1
  8
TEAM-NET1
 10
-77.964933
 20
521.293422
 30
600.0
  0
VERTEX
  5
15C2
  8
TEAM-NET1
 10
-119.634622
 20
513.969839
 30
600.0
  0
VERTEX
  5
15C3
  8
TEAM-NET1
 10
-159.469651
 20
500.805339
 30
600.0
  0
VERTEX
  5
15C4
  8
TEAM-NET1
 10
-164.900996
 20
498.378319
 30
600.0
  0
VERTEX
  5
15C5
  8
TEAM-NET1
 10
-188.625534
 20
485.697831
 30
600.0
  0
VERTEX
  5
15C6
  8
TEAM-NET1
 10
-211.149496
 20
470.730358
 30
600.0
  0
VERTEX
  5
15C7
  8
TEAM-NET1
 10
-246.540413
 20
442.631617
 30
600.0
  0
VERTEX
  5
15C8
  8
TEAM-NET1
 10
-271.327635
 20
420.930548
 30
600.0
  0
VERTEX
  5
15C9
  8
TEAM-NET1
 10
-277.083337
 20
415.765209
 30
600.0
  0
VERTEX
  5
15CA
  8
TEAM-NET1
 10
-281.391083
 20
411.881659
 30
600.0
  0
VERTEX
  5
15CB
  8
TEAM-NET1
 10
-294.862789
 20
399.68104
 30
600.0
  0
VERTEX
  5
15CC
  8
TEAM-NET1
 10
-312.032993
 20
383.946781
 30
600.0
  0
VERTEX
  5
15CD
  8
TEAM-NET1
 10
-317.383501
 20
378.968504
 30
600.0
  0
VERTEX
  5
15CE
  8
TEAM-NET1
 10
-330.991723
 20
366.074171
 30
600.0
  0
VERTEX
  5
15CF
  8
TEAM-NET1
 10
-339.061338
 20
358.269935
 30
600.0
  0
VERTEX
  5
15D0
  8
TEAM-NET1
 10
-377.397977
 20
320.210541
 30
600.0
  0
VERTEX
  5
15D1
  8
TEAM-NET1
 10
-429.489911
 20
268.117237
 30
600.0
  0
VERTEX
  5
15D2
  8
TEAM-NET1
 10
-479.262274
 20
218.487679
 30
600.0
  0
VERTEX
  5
15D3
  8
TEAM-NET1
 10
-513.429064
 20
184.460939
 30
600.0
  0
VERTEX
  5
15D4
  8
TEAM-NET1
 10
-537.342522
 20
160.650774
 30
600.0
  0
VERTEX
  5
15D5
  8
TEAM-NET1
 10
-560.907268
 20
137.182841
 30
600.0
  0
VERTEX
  5
15D6
  8
TEAM-NET1
 10
-584.124057
 20
114.049711
 30
600.0
  0
VERTEX
  5
15D7
  8
TEAM-NET1
 10
-606.999618
 20
91.243483
 30
600.0
  0
VERTEX
  5
15D8
  8
TEAM-NET1
 10
-629.545661
 20
68.756449
 30
600.0
  0
VERTEX
  5
15D9
  8
TEAM-NET1
 10
-651.778398
 20
46.57755
 30
600.0
  0
VERTEX
  5
15DA
  8
TEAM-NET1
 10
-673.717382
 20
24.692052
 30
600.0
  0
VERTEX
  5
15DB
  8
TEAM-NET1
 10
-695.385749
 20
3.081181
 30
600.0
  0
VERTEX
  5
15DC
  8
TEAM-NET1
 10
-717.878976
 20
-19.343525
 30
600.0
  0
VERTEX
  5
15DD
  8
TEAM-NET1
 10
-730.463302
 20
-31.89141
 30
600.0
  0
VERTEX
  5
15DE
  8
TEAM-NET1
 10
-737.868151
 20
-39.284187
 30
600.0
  0
VERTEX
  5
15DF
  8
TEAM-NET1
 10
-741.177127
 20
-42.599354
 30
600.0
  0
VERTEX
  5
15E0
  8
TEAM-NET1
 10
-771.614888
 20
-76.01738
 30
600.0
  0
VERTEX
  5
15E1
  8
TEAM-NET1
 10
-776.485214
 20
-82.4652
 30
600.0
  0
VERTEX
  5
15E2
  8
TEAM-NET1
 10
-792.800344
 20
-108.685345
 30
600.0
  0
VERTEX
  5
15E3
  8
TEAM-NET1
 10
-804.116516
 20
-133.254857
 30
600.0
  0
VERTEX
  5
15E4
  8
TEAM-NET1
 10
-810.402178
 20
-151.131501
 30
600.0
  0
VERTEX
  5
15E5
  8
TEAM-NET1
 10
-816.94565
 20
-177.551333
 30
600.0
  0
VERTEX
  5
15E6
  8
TEAM-NET1
 10
-820.889455
 20
-213.460749
 30
600.0
  0
VERTEX
  5
15E7
  8
TEAM-NET1
 10
-820.388245
 20
-239.669236
 30
600.0
  0
VERTEX
  5
15E8
  8
TEAM-NET1
 10
-818.840376
 20
-254.680951
 30
600.0
  0
VERTEX
  5
15E9
  8
TEAM-NET1
 10
-815.8073
 20
-272.371528
 30
600.0
  0
VERTEX
  5
15EA
  8
TEAM-NET1
 10
-807.812266
 20
-301.215014
 30
600.0
  0
VERTEX
  5
15EB
  8
TEAM-NET1
 10
-795.687321
 20
-329.399608
 30
600.0
  0
VERTEX
  5
15EC
  8
TEAM-NET1
 10
-791.740941
 20
-336.631095
 30
600.0
  0
VERTEX
  5
15ED
  8
TEAM-NET1
 10
-787.677249
 20
-343.443983
 30
600.0
  0
VERTEX
  5
15EE
  8
TEAM-NET1
 10
-761.443131
 20
-378.947024
 30
600.0
  0
VERTEX
  5
15EF
  8
TEAM-NET1
 10
-745.477717
 20
-396.97211
 30
600.0
  0
VERTEX
  5
15F0
  8
TEAM-NET1
 10
-718.82306
 20
-424.752746
 30
600.0
  0
VERTEX
  5
15F1
  8
TEAM-NET1
 10
-691.319489
 20
-451.852108
 30
600.0
  0
VERTEX
  5
15F2
  8
TEAM-NET1
 10
-686.614064
 20
-456.42038
 30
600.0
  0
VERTEX
  5
15F3
  8
TEAM-NET1
 10
-675.657059
 20
-467.04166
 30
600.0
  0
VERTEX
  5
15F4
  8
TEAM-NET1
 10
-670.076572
 20
-472.430587
 30
600.0
  0
VERTEX
  5
15F5
  8
TEAM-NET1
 10
-644.50562
 20
-496.567312
 30
600.0
  0
VERTEX
  5
15F6
  8
TEAM-NET1
 10
-621.114187
 20
-517.213117
 30
600.0
  0
VERTEX
  5
15F7
  8
TEAM-NET1
 10
-616.153307
 20
-521.351919
 30
600.0
  0
VERTEX
  5
15F8
  8
TEAM-NET1
 10
-607.083092
 20
-528.67457
 30
600.0
  0
VERTEX
  5
15F9
  8
TEAM-NET1
 10
-596.685882
 20
-536.694852
 30
600.0
  0
VERTEX
  5
15FA
  8
TEAM-NET1
 10
-545.724995
 20
-571.302297
 30
600.0
  0
VERTEX
  5
15FB
  8
TEAM-NET1
 10
-507.936374
 20
-593.093392
 30
600.0
  0
VERTEX
  5
15FC
  8
TEAM-NET1
 10
-458.644773
 20
-618.068318
 30
600.0
  0
VERTEX
  5
15FD
  8
TEAM-NET1
 10
-449.420548
 20
-622.410958
 30
600.0
  0
VERTEX
  5
15FE
  8
TEAM-NET1
 10
-435.447718
 20
-628.82922
 30
600.0
  0
VERTEX
  5
15FF
  8
TEAM-NET1
 10
-375.949342
 20
-653.976655
 30
600.0
  0
VERTEX
  5
1600
  8
TEAM-NET1
 10
-333.589332
 20
-669.54475
 30
600.0
  0
VERTEX
  5
1601
  8
TEAM-NET1
 10
-303.240629
 20
-679.407748
 30
600.0
  0
VERTEX
  5
1602
  8
TEAM-NET1
 10
-249.5245
 20
-694.334198
 30
600.0
  0
VERTEX
  5
1603
  8
TEAM-NET1
 10
-237.318223
 20
-697.350649
 30
600.0
  0
VERTEX
  5
1604
  8
TEAM-NET1
 10
-213.636457
 20
-702.878665
 30
600.0
  0
VERTEX
  5
1605
  8
TEAM-NET1
 10
-201.124438
 20
-705.6261
 30
600.0
  0
VERTEX
  5
1606
  8
TEAM-NET1
 10
-155.95783
 20
-714.341913
 30
600.0
  0
VERTEX
  5
1607
  8
TEAM-NET1
 10
-122.337401
 20
-719.364322
 30
600.0
  0
VERTEX
  5
1608
  8
TEAM-NET1
 10
-106.668235
 20
-721.206785
 30
600.0
  0
VERTEX
  5
1609
  8
TEAM-NET1
 10
-87.365948
 20
-723.0306
 30
600.0
  0
VERTEX
  5
160A
  8
TEAM-NET1
 10
-0.011819
 20
-727.492388
 30
600.0
  0
SEQEND
  5
160B
  8
TEAM-NET1
  0
POLYLINE
  5
A4D
  8
TEAM-BODY
 66
     1
 10
0.0
 20
0.0
 30
600.0
 70
   128
  0
VERTEX
  5
160C
  8
TEAM-BODY
 10
0.0
 20
524.739691
 30
600.0
  0
VERTEX
  5
160D
  8
TEAM-BODY
 10
-68.818703
 20
522.24734
 30
600.0
  0
VERTEX
  5
160E
  8
TEAM-BODY
 10
-103.205254
 20
517.50359
 30
600.0
  0
VERTEX
  5
160F
  8
TEAM-BODY
 10
-136.752321
 20
509.207466
 30
600.0
  0
VERTEX
  5
1610
  8
TEAM-BODY
 10
-168.651588
 20
496.597346
 30
600.0
  0
VERTEX
  5
1611
  8
TEAM-BODY
 10
-198.429878
 20
479.51189
 30
600.0
  0
VERTEX
  5
1612
  8
TEAM-BODY
 10
-226.400212
 20
459.196618
 30
600.0
  0
VERTEX
  5
1613
  8
TEAM-BODY
 10
-252.988684
 20
437.095309
 30
600.0
  0
VERTEX
  5
1614
  8
TEAM-BODY
 10
-304.12847
 20
391.228304
 30
600.0
  0
VERTEX
  5
1615
  8
TEAM-BODY
 10
-353.820375
 20
343.758029
 30
600.0
  0
VERTEX
  5
1616
  8
TEAM-BODY
 10
-451.001927
 20
246.654206
 30
600.0
  0
VERTEX
  5
1617
  8
TEAM-BODY
 10
-645.544617
 20
52.796399
 30
600.0
  0
VERTEX
  5
1618
  8
TEAM-BODY
 10
-742.702377
 20
-44.13403
 30
600.0
  0
VERTEX
  5
1619
  8
TEAM-BODY
 10
-766.101035
 20
-69.260194
 30
600.0
  0
VERTEX
  5
161A
  8
TEAM-BODY
 10
-786.182303
 20
-97.051819
 30
600.0
  0
VERTEX
  5
161B
  8
TEAM-BODY
 10
-801.839036
 20
-127.689617
 30
600.0
  0
VERTEX
  5
161C
  8
TEAM-BODY
 10
-813.001877
 20
-160.169167
 30
600.0
  0
VERTEX
  5
161D
  8
TEAM-BODY
 10
-819.417921
 20
-193.861398
 30
600.0
  0
VERTEX
  5
161E
  8
TEAM-BODY
 10
-820.951358
 20
-228.212621
 30
600.0
  0
VERTEX
  5
161F
  8
TEAM-BODY
 10
-817.651575
 20
-262.5793
 30
600.0
  0
VERTEX
  5
1620
  8
TEAM-BODY
 10
-809.508509
 20
-296.159428
 30
600.0
  0
VERTEX
  5
1621
  8
TEAM-BODY
 10
-796.429881
 20
-327.95668
 30
600.0
  0
VERTEX
  5
1622
  8
TEAM-BODY
 10
-778.513767
 20
-357.147839
 30
600.0
  0
VERTEX
  5
1623
  8
TEAM-BODY
 10
-757.064354
 20
-384.051036
 30
600.0
  0
VERTEX
  5
1624
  8
TEAM-BODY
 10
-733.802514
 20
-409.407492
 30
600.0
  0
VERTEX
  5
1625
  8
TEAM-BODY
 10
-635.357655
 20
-504.845274
 30
600.0
  0
VERTEX
  5
1626
  8
TEAM-BODY
 10
-609.199351
 20
-526.994194
 30
600.0
  0
VERTEX
  5
1627
  8
TEAM-BODY
 10
-581.768346
 20
-547.575347
 30
600.0
  0
VERTEX
  5
1628
  8
TEAM-BODY
 10
-523.816112
 20
-584.265736
 30
600.0
  0
VERTEX
  5
1629
  8
TEAM-BODY
 10
-463.015578
 20
-615.978907
 30
600.0
  0
VERTEX
  5
162A
  8
TEAM-BODY
 10
-400.401981
 20
-644.085223
 30
600.0
  0
VERTEX
  5
162B
  8
TEAM-BODY
 10
-336.341149
 20
-668.596079
 30
600.0
  0
VERTEX
  5
162C
  8
TEAM-BODY
 10
-270.839566
 20
-688.756626
 30
600.0
  0
VERTEX
  5
162D
  8
TEAM-BODY
 10
-204.175108
 20
-704.968042
 30
600.0
  0
VERTEX
  5
162E
  8
TEAM-BODY
 10
-136.706081
 20
-717.388409
 30
600.0
  0
VERTEX
  5
162F
  8
TEAM-BODY
 10
-68.560968
 20
-724.411
 30
600.0
  0
VERTEX
  5
1630
  8
TEAM-BODY
 10
-0.011819
 20
-727.492388
 30
600.0
  0
SEQEND
  5
1631
  8
TEAM-BODY
  0
LINE
  5
A4E
  8
TEAM-BODY
 10
1026.65484
 20
-221.3908
 30
600.0
 11
0.0
 21
802.5
 31
600.0
  0
POLYLINE
  5
A4F
  8
TEAM-BODY
 66
     1
 10
0.0
 20
0.0
 30
600.0
 70
   128
  0
VERTEX
  5
1632
  8
TEAM-BODY
 10
-0.011819
 20
-727.492388
 30
600.0
  0
VERTEX
  5
1633
  8
TEAM-BODY
 10
68.625731
 20
-724.407049
 30
600.0
  0
VERTEX
  5
1634
  8
TEAM-BODY
 10
136.840996
 20
-717.367761
 30
600.0
  0
VERTEX
  5
1635
  8
TEAM-BODY
 10
204.363069
 20
-704.927098
 30
600.0
  0
VERTEX
  5
1636
  8
TEAM-BODY
 10
271.064474
 20
-688.695785
 30
600.0
  0
VERTEX
  5
1637
  8
TEAM-BODY
 10
336.587319
 20
-668.511093
 30
600.0
  0
VERTEX
  5
1638
  8
TEAM-BODY
 10
400.656476
 20
-643.979187
 30
600.0
  0
VERTEX
  5
1639
  8
TEAM-BODY
 10
463.267285
 20
-615.857785
 30
600.0
  0
VERTEX
  5
163A
  8
TEAM-BODY
 10
524.052918
 20
-584.130483
 30
600.0
  0
VERTEX
  5
163B
  8
TEAM-BODY
 10
581.978485
 20
-547.426813
 30
600.0
  0
VERTEX
  5
163C
  8
TEAM-BODY
 10
609.391804
 20
-526.840519
 30
600.0
  0
VERTEX
  5
163D
  8
TEAM-BODY
 10
635.531928
 20
-504.689582
 30
600.0
  0
VERTEX
  5
163E
  8
TEAM-BODY
 10
733.918436
 20
-409.286124
 30
600.0
  0
VERTEX
  5
163F
  8
TEAM-BODY
 10
757.161217
 20
-383.938759
 30
600.0
  0
VERTEX
  5
1640
  8
TEAM-BODY
 10
778.587753
 20
-357.044486
 30
600.0
  0
VERTEX
  5
1641
  8
TEAM-BODY
 10
796.477887
 20
-327.862508
 30
600.0
  0
VERTEX
  5
1642
  8
TEAM-BODY
 10
809.53433
 20
-296.079619
 30
600.0
  0
VERTEX
  5
1643
  8
TEAM-BODY
 10
817.661888
 20
-262.519579
 30
600.0
  0
VERTEX
  5
1644
  8
TEAM-BODY
 10
820.952223
 20
-228.174939
 30
600.0
  0
VERTEX
  5
1645
  8
TEAM-BODY
 10
819.41627
 20
-193.847723
 30
600.0
  0
VERTEX
  5
1646
  8
TEAM-BODY
 10
813.004457
 20
-160.178707
 30
600.0
  0
VERTEX
  5
1647
  8
TEAM-BODY
 10
801.852494
 20
-127.720411
 30
600.0
  0
VERTEX
  5
1648
  8
TEAM-BODY
 10
786.212416
 20
-97.100511
 30
600.0
  0
VERTEX
  5
1649
  8
TEAM-BODY
 10
766.153143
 20
-69.321477
 30
600.0
  0
VERTEX
  5
164A
  8
TEAM-BODY
 10
742.775444
 20
-44.207582
 30
600.0
  0
VERTEX
  5
164B
  8
TEAM-BODY
 10
645.677504
 20
52.663612
 30
600.0
  0
VERTEX
  5
164C
  8
TEAM-BODY
 10
451.210259
 20
246.445676
 30
600.0
  0
VERTEX
  5
164D
  8
TEAM-BODY
 10
354.031654
 20
343.54748
 30
600.0
  0
VERTEX
  5
164E
  8
TEAM-BODY
 10
304.33798
 20
391.036703
 30
600.0
  0
VERTEX
  5
164F
  8
TEAM-BODY
 10
253.183541
 20
436.926945
 30
600.0
  0
VERTEX
  5
1650
  8
TEAM-BODY
 10
226.588899
 20
459.048006
 30
600.0
  0
VERTEX
  5
1651
  8
TEAM-BODY
 10
198.610898
 20
479.392816
 30
600.0
  0
VERTEX
  5
1652
  8
TEAM-BODY
 10
168.822017
 20
496.514497
 30
600.0
  0
VERTEX
  5
1653
  8
TEAM-BODY
 10
136.905317
 20
509.158807
 30
600.0
  0
VERTEX
  5
1654
  8
TEAM-BODY
 10
103.330731
 20
517.479712
 30
600.0
  0
VERTEX
  5
1655
  8
TEAM-BODY
 10
68.907508
 20
522.239238
 30
600.0
  0
VERTEX
  5
1656
  8
TEAM-BODY
 10
0.0
 20
524.739691
 30
600.0
  0
SEQEND
  5
1657
  8
TEAM-BODY
  0
LINE
  5
A50
  8
TEAM-NET1
 10
1026.65484
 20
-221.3908
 30
600.0
 11
0.0
 21
802.5
 31
600.0
1001
ACAD
1000
R13OBJECT
1002
{
1005
A40
1002
}
  0
POLYLINE
  5
A51
  8
TEAM-NET1
 66
     1
 10
0.0
 20
0.0
 30
600.0
 70
   128
1001
ACAD
1000
R13OBJECT
1002
{
1005
68242B0300000000
1002
}
  0
VERTEX
  5
1658
  8
TEAM-NET1
 10
0.0
 20
-802.5
 30
600.0
  0
VERTEX
  5
1659
  8
TEAM-NET1
 10
66.585104
 20
-799.802697
 30
600.0
  0
VERTEX
  5
165A
  8
TEAM-NET1
 10
132.78746
 20
-793.987694
 30
600.0
  0
VERTEX
  5
165B
  8
TEAM-NET1
 10
190.074898
 20
-784.556068
 30
600.0
  0
VERTEX
  5
165C
  8
TEAM-NET1
 10
246.948537
 20
-772.145074
 30
600.0
  0
VERTEX
  5
165D
  8
TEAM-NET1
 10
315.908709
 20
-754.596717
 30
600.0
  0
VERTEX
  5
165E
  8
TEAM-NET1
 10
383.459711
 20
-732.917506
 30
600.0
  0
VERTEX
  5
165F
  8
TEAM-NET1
 10
448.707404
 20
-705.672576
 30
600.0
  0
VERTEX
  5
1660
  8
TEAM-NET1
 10
512.491128
 20
-674.537302
 30
600.0
  0
VERTEX
  5
1661
  8
TEAM-NET1
 10
574.965444
 20
-641.138057
 30
600.0
  0
VERTEX
  5
1662
  8
TEAM-NET1
 10
634.134753
 20
-602.84554
 30
600.0
  0
VERTEX
  5
1663
  8
TEAM-NET1
 10
674.936263
 20
-569.564497
 30
600.0
  0
VERTEX
  5
1664
  8
TEAM-NET1
 10
713.878907
 20
-533.859129
 30
600.0
  0
VERTEX
  5
1665
  8
TEAM-NET1
 10
831.467737
 20
-420.234459
 30
600.0
  0
VERTEX
  5
1666
  8
TEAM-NET1
 10
908.508702
 20
-341.779331
 30
600.0
  0
VERTEX
  5
1667
  8
TEAM-NET1
 10
965.275723
 20
-284.966987
 30
600.0
  0
VERTEX
  5
1668
  8
TEAM-NET1
 10
1026.65484
 20
-221.3908
 30
600.0
  0
SEQEND
  5
1669
  8
TEAM-NET1
  0
ENDSEC
  0
EOF
