  0
SECTION
  2
HEADER
  9
$ACADVER
  1
AC1009
  9
$INSBASE
 10
0.0
 20
0.0
 30
842.0
  9
$EXTMIN
 10
-200.018432
 20
-400.027448
 30
-0.038511
  9
$EXTMAX
 10
200.029635
 20
10.00297
 30
850.034882
  9
$LIMMIN
 10
-200.018432
 20
-400.027448
  9
$LIMMAX
 10
200.029635
 20
10.00297
  9
$ORTHOMODE
 70
     1
  9
$REGENMODE
 70
     1
  9
$FILLMODE
 70
     1
  9
$QTEXTMODE
 70
     0
  9
$MIRRTEXT
 70
     0
  9
$DRAGMODE
 70
     2
  9
$LTSCALE
 40
50.0
  9
$OSMODE
 70
     7
  9
$ATTMODE
 70
     1
  9
$TEXTSIZE
 40
200.0
  9
$TRACEWID
 40
1.0
  9
$TEXTSTYLE
  7
STANDARD
  9
$CLAYER
  8
TEAM-MAS
  9
$CELTYPE
  6
BYLAYER
  9
$CECOLOR
 62
   256
  9
$DIMSCALE
 40
1.0
  9
$DIMASZ
 40
20.0
  9
$DIMEXO
 40
10.0
  9
$DIMDLI
 40
1.0
  9
$DIMRND
 40
0.0
  9
$DIMDLE
 40
0.0
  9
$DIMEXE
 40
1.0
  9
$DIMTP
 40
0.0
  9
$DIMTM
 40
0.0
  9
$DIMTXT
 40
35.0
  9
$DIMCEN
 40
1.0
  9
$DIMTSZ
 40
0.0
  9
$DIMTOL
 70
     0
  9
$DIMLIM
 70
     0
  9
$DIMTIH
 70
     0
  9
$DIMTOH
 70
     0
  9
$DIMSE1
 70
     0
  9
$DIMSE2
 70
     0
  9
$DIMTAD
 70
     0
  9
$DIMZIN
 70
     0
  9
$DIMBLK
  1

  9
$DIMASO
 70
     1
  9
$DIMSHO
 70
     0
  9
$DIMPOST
  1

  9
$DIMAPOST
  1

  9
$DIMALT
 70
     0
  9
$DIMALTD
 70
     2
  9
$DIMALTF
 40
25.4
  9
$DIMLFAC
 40
1.0
  9
$DIMTOFL
 70
     0
  9
$DIMTVP
 40
0.0
  9
$DIMTIX
 70
     0
  9
$DIMSOXD
 70
     0
  9
$DIMSAH
 70
     0
  9
$DIMBLK1
  1

  9
$DIMBLK2
  1

  9
$DIMSTYLE
  2
TEAM
  9
$DIMCLRD
 70
     9
  9
$DIMCLRE
 70
     9
  9
$DIMCLRT
 70
    11
  9
$DIMTFAC
 40
1.0
  9
$DIMGAP
 40
7.0
  9
$LUNITS
 70
     2
  9
$LUPREC
 70
     1
  9
$SKETCHINC
 40
1.0
  9
$FILLETRAD
 40
44.0
  9
$AUNITS
 70
     0
  9
$AUPREC
 70
     0
  9
$MENU
  1
ROPLANS
  9
$ELEVATION
 40
0.0
  9
$PELEVATION
 40
0.0
  9
$THICKNESS
 40
0.0
  9
$LIMCHECK
 70
     0
  9
$BLIPMODE
 70
     1
  9
$CHAMFERA
 40
0.0
  9
$CHAMFERB
 40
0.0
  9
$SKPOLY
 70
     0
  9
$TDCREATE
 40
2450392.957851
  9
$TDUPDATE
 40
2455981.928629
  9
$TDINDWG
 40
3.777306
  9
$TDUSRTIMER
 40
3.777306
  9
$USRTIMER
 70
     1
  9
$ANGBASE
 50
0.0
  9
$ANGDIR
 70
     0
  9
$PDMODE
 70
     0
  9
$PDSIZE
 40
0.0
  9
$PLINEWID
 40
0.0
  9
$COORDS
 70
     2
  9
$SPLFRAME
 70
     0
  9
$SPLINETYPE
 70
     6
  9
$SPLINESEGS
 70
     8
  9
$ATTDIA
 70
     0
  9
$ATTREQ
 70
     0
  9
$HANDLING
 70
     1
  9
$HANDSEED
  5
6A3
  9
$SURFTAB1
 70
    36
  9
$SURFTAB2
 70
    36
  9
$SURFTYPE
 70
     6
  9
$SURFU
 70
     6
  9
$SURFV
 70
     6
  9
$UCSNAME
  2

  9
$UCSORG
 10
0.0
 20
0.0
 30
0.0
  9
$UCSXDIR
 10
1.0
 20
0.0
 30
0.0
  9
$UCSYDIR
 10
0.0
 20
1.0
 30
0.0
  9
$PUCSNAME
  2

  9
$PUCSORG
 10
0.0
 20
0.0
 30
0.0
  9
$PUCSXDIR
 10
1.0
 20
0.0
 30
0.0
  9
$PUCSYDIR
 10
0.0
 20
1.0
 30
0.0
  9
$USERI1
 70
     0
  9
$USERI2
 70
     0
  9
$USERI3
 70
     0
  9
$USERI4
 70
     0
  9
$USERI5
 70
     0
  9
$USERR1
 40
0.0
  9
$USERR2
 40
0.0
  9
$USERR3
 40
0.0
  9
$USERR4
 40
0.0
  9
$USERR5
 40
0.0
  9
$WORLDVIEW
 70
     1
  9
$SHADEDGE
 70
     0
  9
$SHADEDIF
 70
    70
  9
$TILEMODE
 70
     1
  9
$MAXACTVP
 70
    16
  9
$PLIMCHECK
 70
     0
  9
$PEXTMIN
 10
-0.805942
 20
0.005011
 30
0.0
  9
$PEXTMAX
 10
20.250094
 20
11.356329
 30
0.0
  9
$PLIMMIN
 10
0.0
 20
0.0
  9
$PLIMMAX
 10
12.0
 20
9.0
  9
$UNITMODE
 70
     0
  9
$VISRETAIN
 70
     0
  9
$PLINEGEN
 70
     0
  9
$PSLTSCALE
 70
     0
  0
ENDSEC
  0
SECTION
  2
TABLES
  0
TABLE
  2
VPORT
 70
     2
  0
VPORT
  2
*ACTIVE
 70
     0
 10
0.0
 20
0.0
 11
1.0
 21
1.0
 12
0.005601
 22
-195.012239
 13
0.0
 23
0.0
 14
1.0
 24
1.0
 15
50.0
 25
50.0
 16
0.0
 26
0.0
 36
1.0
 17
0.0
 27
0.0
 37
0.0
 40
412.601141
 41
1.903766
 42
50.0
 43
0.0
 44
0.0
 50
0.0
 51
0.0
 71
     0
 72
   100
 73
     1
 74
     1
 75
     0
 76
     0
 77
     0
 78
     0
  0
ENDTAB
  0
TABLE
  2
LTYPE
 70
     2
  0
LTYPE
  2
CONTINUOUS
 70
     0
  3
Solid Line
 72
    65
 73
     0
 40
0.0
  0
LTYPE
  2
31
 70
     0
  3

 72
    65
 73
     4
 40
2.1
 49
1.5
 49
-0.3
 49
0.0
 49
-0.3
  0
ENDTAB
  0
TABLE
  2
LAYER
 70
     9
  0
LAYER
  2
0
 70
     0
 62
     7
  6
CONTINUOUS
  0
LAYER
  2
TEAM-BODY
 70
     0
 62
     2
  6
CONTINUOUS
  0
LAYER
  2
TEAM-AXE
 70
     0
 62
    10
  6
31
  0
LAYER
  2
TEAM-MAS
 70
     0
 62
     9
  6
CONTINUOUS
  0
LAYER
  2
TEAM-TXT
 70
     0
 62
    11
  6
CONTINUOUS
  0
LAYER
  2
TEAM-DET1
 70
     0
 62
     4
  6
CONTINUOUS
  0
LAYER
  2
TEAM-KAN
 70
     0
 62
     6
  6
CONTINUOUS
  0
LAYER
  2
TEAM-NET
 70
     0
 62
    15
  6
CONTINUOUS
  0
LAYER
  2
TEAM-INSP
 70
     0
 62
     5
  6
CONTINUOUS
  0
ENDTAB
  0
TABLE
  2
STYLE
 70
     2
  0
STYLE
  2
STANDARD
 70
     0
 40
0.0
 41
1.0
 50
0.0
 71
     0
 42
200.0
  3
txt
  4

  0
STYLE
  2
TEAM
 70
     0
 40
0.0
 41
0.8
 50
15.0
 71
     0
 42
7.0
  3
ROMANS.shx
  4

  0
ENDTAB
  0
TABLE
  2
VIEW
 70
     0
  0
ENDTAB
  0
TABLE
  2
UCS
 70
     0
  0
ENDTAB
  0
TABLE
  2
APPID
 70
     1
  0
APPID
  2
ACAD
 70
     0
  0
ENDTAB
  0
TABLE
  2
DIMSTYLE
 70
     1
  0
DIMSTYLE
  2
TEAM
 70
     0
  3

  4

  5

  6

  7

 40
1.0
 41
20.0
 42
10.0
 43
1.0
 44
1.0
 45
0.0
 46
0.0
 47
0.0
 48
0.0
140
35.0
141
1.0
142
0.0
143
25.4
144
1.0
145
0.0
146
1.0
147
7.0
 71
     0
 72
     0
 73
     0
 74
     0
 75
     0
 76
     0
 77
     0
 78
     0
170
     0
171
     2
172
     0
173
     0
174
     0
175
     0
176
     9
177
     9
178
    11
  0
ENDTAB
  0
ENDSEC
  0
SECTION
  2
BLOCKS
  0
BLOCK
  8
0
  2
$MODEL_SPACE
 70
     0
 10
0.0
 20
0.0
 30
0.0
  3
$MODEL_SPACE
  1

  0
ENDBLK
  5
67A
  8
0
  0
BLOCK
 67
     1
  8
0
  2
$PAPER_SPACE
 70
     0
 10
0.0
 20
0.0
 30
0.0
  3
$PAPER_SPACE
  1

  0
ENDBLK
  5
678
 67
     1
  8
0
  0
ENDSEC
  0
SECTION
  2
ENTITIES
  0
CIRCLE
  5
20
  8
TEAM-INSP
 10
0.0
 20
0.0
 30
0.0
 40
10.0
  0
POLYLINE
  5
22
  8
TEAM-NET
 66
     1
 10
0.0
 20
0.0
 30
0.0
 70
    16
 71
    37
 72
    37
  0
VERTEX
  5
23
  8
TEAM-NET
 10
0.0
 20
-375.0
 30
850.0
 70
    64
  0
VERTEX
  5
24
  8
TEAM-NET
 10
15.252255
 20
-374.334072
 30
850.0
 70
    64
  0
VERTEX
  5
25
  8
TEAM-NET
 10
30.388431
 20
-372.341357
 30
850.0
 70
    64
  0
VERTEX
  5
26
  8
TEAM-NET
 10
45.293333
 20
-369.03702
 30
850.0
 70
    64
  0
VERTEX
  5
27
  8
TEAM-NET
 10
59.853525
 20
-364.446209
 30
850.0
 70
    64
  0
VERTEX
  5
28
  8
TEAM-NET
 10
73.958196
 20
-358.603863
 30
850.0
 70
    64
  0
VERTEX
  5
29
  8
TEAM-NET
 10
87.5
 20
-351.554446
 30
850.0
 70
    64
  0
VERTEX
  5
2A
  8
TEAM-NET
 10
100.375876
 20
-343.351608
 30
850.0
 70
    64
  0
VERTEX
  5
2B
  8
TEAM-NET
 10
112.487832
 20
-334.057778
 30
850.0
 70
    64
  0
VERTEX
  5
2C
  8
TEAM-NET
 10
123.743687
 20
-323.743687
 30
850.0
 70
    64
  0
VERTEX
  5
2D
  8
TEAM-NET
 10
134.057778
 20
-312.487832
 30
850.0
 70
    64
  0
VERTEX
  5
2E
  8
TEAM-NET
 10
143.351608
 20
-300.375876
 30
850.0
 70
    64
  0
VERTEX
  5
2F
  8
TEAM-NET
 10
151.554446
 20
-287.5
 30
850.0
 70
    64
  0
VERTEX
  5
30
  8
TEAM-NET
 10
158.603863
 20
-273.958196
 30
850.0
 70
    64
  0
VERTEX
  5
31
  8
TEAM-NET
 10
164.446209
 20
-259.853525
 30
850.0
 70
    64
  0
VERTEX
  5
32
  8
TEAM-NET
 10
169.03702
 20
-245.293333
 30
850.0
 70
    64
  0
VERTEX
  5
33
  8
TEAM-NET
 10
172.341357
 20
-230.388431
 30
850.0
 70
    64
  0
VERTEX
  5
34
  8
TEAM-NET
 10
174.334072
 20
-215.252255
 30
850.0
 70
    64
  0
VERTEX
  5
35
  8
TEAM-NET
 10
175.0
 20
-200.0
 30
850.0
 70
    64
  0
VERTEX
  5
36
  8
TEAM-NET
 10
174.334072
 20
-184.747745
 30
850.0
 70
    64
  0
VERTEX
  5
37
  8
TEAM-NET
 10
172.341357
 20
-169.611569
 30
850.0
 70
    64
  0
VERTEX
  5
38
  8
TEAM-NET
 10
169.03702
 20
-154.706667
 30
850.0
 70
    64
  0
VERTEX
  5
39
  8
TEAM-NET
 10
164.446209
 20
-140.146475
 30
850.0
 70
    64
  0
VERTEX
  5
3A
  8
TEAM-NET
 10
158.603863
 20
-126.041804
 30
850.0
 70
    64
  0
VERTEX
  5
3B
  8
TEAM-NET
 10
151.554446
 20
-112.5
 30
850.0
 70
    64
  0
VERTEX
  5
3C
  8
TEAM-NET
 10
143.351608
 20
-99.624124
 30
850.0
 70
    64
  0
VERTEX
  5
3D
  8
TEAM-NET
 10
134.057778
 20
-87.512168
 30
850.0
 70
    64
  0
VERTEX
  5
3E
  8
TEAM-NET
 10
123.743687
 20
-76.256313
 30
850.0
 70
    64
  0
VERTEX
  5
3F
  8
TEAM-NET
 10
112.487832
 20
-65.942222
 30
850.0
 70
    64
  0
VERTEX
  5
40
  8
TEAM-NET
 10
100.375876
 20
-56.648392
 30
850.0
 70
    64
  0
VERTEX
  5
41
  8
TEAM-NET
 10
87.5
 20
-48.445554
 30
850.0
 70
    64
  0
VERTEX
  5
42
  8
TEAM-NET
 10
73.958196
 20
-41.396137
 30
850.0
 70
    64
  0
VERTEX
  5
43
  8
TEAM-NET
 10
59.853525
 20
-35.553791
 30
850.0
 70
    64
  0
VERTEX
  5
44
  8
TEAM-NET
 10
45.293333
 20
-30.96298
 30
850.0
 70
    64
  0
VERTEX
  5
45
  8
TEAM-NET
 10
30.388431
 20
-27.658643
 30
850.0
 70
    64
  0
VERTEX
  5
46
  8
TEAM-NET
 10
15.252255
 20
-25.665928
 30
850.0
 70
    64
  0
VERTEX
  5
47
  8
TEAM-NET
 10
0.0
 20
-25.0
 30
850.0
 70
    64
  0
VERTEX
  5
48
  8
TEAM-NET
 10
0.0
 20
-375.0
 30
850.0
 70
    64
  0
VERTEX
  5
49
  8
TEAM-NET
 10
15.194216
 20
-374.334072
 30
848.670678
 70
    64
  0
VERTEX
  5
4A
  8
TEAM-NET
 10
30.272794
 20
-372.341357
 30
847.351474
 70
    64
  0
VERTEX
  5
4B
  8
TEAM-NET
 10
45.120978
 20
-369.03702
 30
846.052426
 70
    64
  0
VERTEX
  5
4C
  8
TEAM-NET
 10
59.625764
 20
-364.446209
 30
844.783422
 70
    64
  0
VERTEX
  5
4D
  8
TEAM-NET
 10
73.676763
 20
-358.603863
 30
843.554119
 70
    64
  0
VERTEX
  5
4E
  8
TEAM-NET
 10
87.167036
 20
-351.554446
 30
842.373873
 70
    64
  0
VERTEX
  5
4F
  8
TEAM-NET
 10
99.993916
 20
-343.351608
 30
841.251666
 70
    64
  0
VERTEX
  5
50
  8
TEAM-NET
 10
112.059782
 20
-334.057778
 30
840.196039
 70
    64
  0
VERTEX
  5
51
  8
TEAM-NET
 10
123.272805
 20
-323.743687
 30
839.215027
 70
    64
  0
VERTEX
  5
52
  8
TEAM-NET
 10
133.547647
 20
-312.487832
 30
838.316095
 70
    64
  0
VERTEX
  5
53
  8
TEAM-NET
 10
142.806112
 20
-300.375876
 30
837.506084
 70
    64
  0
VERTEX
  5
54
  8
TEAM-NET
 10
150.977735
 20
-287.5
 30
836.79116
 70
    64
  0
VERTEX
  5
55
  8
TEAM-NET
 10
158.000327
 20
-273.958196
 30
836.176763
 70
    64
  0
VERTEX
  5
56
  8
TEAM-NET
 10
163.820441
 20
-259.853525
 30
835.667569
 70
    64
  0
VERTEX
  5
57
  8
TEAM-NET
 10
168.393783
 20
-245.293333
 30
835.267453
 70
    64
  0
VERTEX
  5
58
  8
TEAM-NET
 10
171.685546
 20
-230.388431
 30
834.979461
 70
    64
  0
VERTEX
  5
59
  8
TEAM-NET
 10
173.670678
 20
-215.252255
 30
834.805784
 70
    64
  0
VERTEX
  5
5A
  8
TEAM-NET
 10
174.334072
 20
-200.0
 30
834.747745
 70
    64
  0
VERTEX
  5
5B
  8
TEAM-NET
 10
173.670678
 20
-184.747745
 30
834.805784
 70
    64
  0
VERTEX
  5
5C
  8
TEAM-NET
 10
171.685546
 20
-169.611569
 30
834.979461
 70
    64
  0
VERTEX
  5
5D
  8
TEAM-NET
 10
168.393783
 20
-154.706667
 30
835.267453
 70
    64
  0
VERTEX
  5
5E
  8
TEAM-NET
 10
163.820441
 20
-140.146475
 30
835.667569
 70
    64
  0
VERTEX
  5
5F
  8
TEAM-NET
 10
158.000327
 20
-126.041804
 30
836.176763
 70
    64
  0
VERTEX
  5
60
  8
TEAM-NET
 10
150.977735
 20
-112.5
 30
836.79116
 70
    64
  0
VERTEX
  5
61
  8
TEAM-NET
 10
142.806112
 20
-99.624124
 30
837.506084
 70
    64
  0
VERTEX
  5
62
  8
TEAM-NET
 10
133.547647
 20
-87.512168
 30
838.316095
 70
    64
  0
VERTEX
  5
63
  8
TEAM-NET
 10
123.272805
 20
-76.256313
 30
839.215027
 70
    64
  0
VERTEX
  5
64
  8
TEAM-NET
 10
112.059782
 20
-65.942222
 30
840.196039
 70
    64
  0
VERTEX
  5
65
  8
TEAM-NET
 10
99.993916
 20
-56.648392
 30
841.251666
 70
    64
  0
VERTEX
  5
66
  8
TEAM-NET
 10
87.167036
 20
-48.445554
 30
842.373873
 70
    64
  0
VERTEX
  5
67
  8
TEAM-NET
 10
73.676763
 20
-41.396137
 30
843.554119
 70
    64
  0
VERTEX
  5
68
  8
TEAM-NET
 10
59.625764
 20
-35.553791
 30
844.783422
 70
    64
  0
VERTEX
  5
69
  8
TEAM-NET
 10
45.120978
 20
-30.96298
 30
846.052426
 70
    64
  0
VERTEX
  5
6A
  8
TEAM-NET
 10
30.272794
 20
-27.658643
 30
847.351474
 70
    64
  0
VERTEX
  5
6B
  8
TEAM-NET
 10
15.194216
 20
-25.665928
 30
848.670678
 70
    64
  0
VERTEX
  5
6C
  8
TEAM-NET
 10
0.0
 20
-25.0
 30
850.0
 70
    64
  0
VERTEX
  5
6D
  8
TEAM-NET
 10
0.0
 20
-375.0
 30
850.0
 70
    64
  0
VERTEX
  5
6E
  8
TEAM-NET
 10
15.020539
 20
-374.334072
 30
847.351474
 70
    64
  0
VERTEX
  5
6F
  8
TEAM-NET
 10
29.926763
 20
-372.341357
 30
844.723104
 70
    64
  0
VERTEX
  5
70
  8
TEAM-NET
 10
44.605225
 20
-369.03702
 30
842.134895
 70
    64
  0
VERTEX
  5
71
  8
TEAM-NET
 10
58.944216
 20
-364.446209
 30
839.606544
 70
    64
  0
VERTEX
  5
72
  8
TEAM-NET
 10
72.834605
 20
-358.603863
 30
837.157294
 70
    64
  0
VERTEX
  5
73
  8
TEAM-NET
 10
86.170678
 20
-351.554446
 30
834.805784
 70
    64
  0
VERTEX
  5
74
  8
TEAM-NET
 10
98.850941
 20
-343.351608
 30
832.569912
 70
    64
  0
VERTEX
  5
75
  8
TEAM-NET
 10
110.778889
 20
-334.057778
 30
830.466693
 70
    64
  0
VERTEX
  5
76
  8
TEAM-NET
 10
121.863742
 20
-323.743687
 30
828.512134
 70
    64
  0
VERTEX
  5
77
  8
TEAM-NET
 10
132.021139
 20
-312.487832
 30
826.721111
 70
    64
  0
VERTEX
  5
78
  8
TEAM-NET
 10
141.173775
 20
-300.375876
 30
825.107255
 70
    64
  0
VERTEX
  5
79
  8
TEAM-NET
 10
149.251993
 20
-287.5
 30
823.682847
 70
    64
  0
VERTEX
  5
7A
  8
TEAM-NET
 10
156.194314
 20
-273.958196
 30
822.458728
 70
    64
  0
VERTEX
  5
7B
  8
TEAM-NET
 10
161.947901
 20
-259.853525
 30
821.444216
 70
    64
  0
VERTEX
  5
7C
  8
TEAM-NET
 10
166.468967
 20
-245.293333
 30
820.64703
 70
    64
  0
VERTEX
  5
7D
  8
TEAM-NET
 10
169.723104
 20
-230.388431
 30
820.073237
 70
    64
  0
VERTEX
  5
7E
  8
TEAM-NET
 10
171.685546
 20
-215.252255
 30
819.727206
 70
    64
  0
VERTEX
  5
7F
  8
TEAM-NET
 10
172.341357
 20
-200.0
 30
819.611569
 70
    64
  0
VERTEX
  5
80
  8
TEAM-NET
 10
171.685546
 20
-184.747745
 30
819.727206
 70
    64
  0
VERTEX
  5
81
  8
TEAM-NET
 10
169.723104
 20
-169.611569
 30
820.073237
 70
    64
  0
VERTEX
  5
82
  8
TEAM-NET
 10
166.468967
 20
-154.706667
 30
820.64703
 70
    64
  0
VERTEX
  5
83
  8
TEAM-NET
 10
161.947901
 20
-140.146475
 30
821.444216
 70
    64
  0
VERTEX
  5
84
  8
TEAM-NET
 10
156.194314
 20
-126.041804
 30
822.458728
 70
    64
  0
VERTEX
  5
85
  8
TEAM-NET
 10
149.251993
 20
-112.5
 30
823.682847
 70
    64
  0
VERTEX
  5
86
  8
TEAM-NET
 10
141.173775
 20
-99.624124
 30
825.107255
 70
    64
  0
VERTEX
  5
87
  8
TEAM-NET
 10
132.021139
 20
-87.512168
 30
826.721111
 70
    64
  0
VERTEX
  5
88
  8
TEAM-NET
 10
121.863742
 20
-76.256313
 30
828.512134
 70
    64
  0
VERTEX
  5
89
  8
TEAM-NET
 10
110.778889
 20
-65.942222
 30
830.466693
 70
    64
  0
VERTEX
  5
8A
  8
TEAM-NET
 10
98.850941
 20
-56.648392
 30
832.569912
 70
    64
  0
VERTEX
  5
8B
  8
TEAM-NET
 10
86.170678
 20
-48.445554
 30
834.805784
 70
    64
  0
VERTEX
  5
8C
  8
TEAM-NET
 10
72.834605
 20
-41.396137
 30
837.157294
 70
    64
  0
VERTEX
  5
8D
  8
TEAM-NET
 10
58.944216
 20
-35.553791
 30
839.606544
 70
    64
  0
VERTEX
  5
8E
  8
TEAM-NET
 10
44.605225
 20
-30.96298
 30
842.134895
 70
    64
  0
VERTEX
  5
8F
  8
TEAM-NET
 10
29.926763
 20
-27.658643
 30
844.723104
 70
    64
  0
VERTEX
  5
90
  8
TEAM-NET
 10
15.020539
 20
-25.665928
 30
847.351474
 70
    64
  0
VERTEX
  5
91
  8
TEAM-NET
 10
0.0
 20
-25.0
 30
850.0
 70
    64
  0
VERTEX
  5
92
  8
TEAM-NET
 10
0.0
 20
-375.0
 30
850.0
 70
    64
  0
VERTEX
  5
93
  8
TEAM-NET
 10
14.732547
 20
-374.334072
 30
846.052426
 70
    64
  0
VERTEX
  5
94
  8
TEAM-NET
 10
29.35297
 20
-372.341357
 30
842.134895
 70
    64
  0
VERTEX
  5
95
  8
TEAM-NET
 10
43.75
 20
-369.03702
 30
838.277223
 70
    64
  0
VERTEX
  5
96
  8
TEAM-NET
 10
57.814066
 20
-364.446209
 30
834.508768
 70
    64
  0
VERTEX
  5
97
  8
TEAM-NET
 10
71.438131
 20
-358.603863
 30
830.85821
 70
    64
  0
VERTEX
  5
98
  8
TEAM-NET
 10
84.51851
 20
-351.554446
 30
827.353334
 70
    64
  0
VERTEX
  5
99
  8
TEAM-NET
 10
96.955651
 20
-343.351608
 30
824.020812
 70
    64
  0
VERTEX
  5
9A
  8
TEAM-NET
 10
108.654902
 20
-334.057778
 30
820.886007
 70
    64
  0
VERTEX
  5
9B
  8
TEAM-NET
 10
119.527223
 20
-323.743687
 30
817.972777
 70
    64
  0
VERTEX
  5
9C
  8
TEAM-NET
 10
129.48987
 20
-312.487832
 30
815.303294
 70
    64
  0
VERTEX
  5
9D
  8
TEAM-NET
 10
138.46702
 20
-300.375876
 30
812.897874
 70
    64
  0
VERTEX
  5
9E
  8
TEAM-NET
 10
146.390353
 20
-287.5
 30
810.774823
 70
    64
  0
VERTEX
  5
9F
  8
TEAM-NET
 10
153.199567
 20
-273.958196
 30
808.9503
 70
    64
  0
VERTEX
  5
A0
  8
TEAM-NET
 10
158.84284
 20
-259.853525
 30
807.438189
 70
    64
  0
VERTEX
  5
A1
  8
TEAM-NET
 10
163.277223
 20
-245.293333
 30
806.25
 70
    64
  0
VERTEX
  5
A2
  8
TEAM-NET
 10
166.468967
 20
-230.388431
 30
805.394775
 70
    64
  0
VERTEX
  5
A3
  8
TEAM-NET
 10
168.393783
 20
-215.252255
 30
804.879022
 70
    64
  0
VERTEX
  5
A4
  8
TEAM-NET
 10
169.03702
 20
-200.0
 30
804.706667
 70
    64
  0
VERTEX
  5
A5
  8
TEAM-NET
 10
168.393783
 20
-184.747745
 30
804.879022
 70
    64
  0
VERTEX
  5
A6
  8
TEAM-NET
 10
166.468967
 20
-169.611569
 30
805.394775
 70
    64
  0
VERTEX
  5
A7
  8
TEAM-NET
 10
163.277223
 20
-154.706667
 30
806.25
 70
    64
  0
VERTEX
  5
A8
  8
TEAM-NET
 10
158.84284
 20
-140.146475
 30
807.438189
 70
    64
  0
VERTEX
  5
A9
  8
TEAM-NET
 10
153.199567
 20
-126.041804
 30
808.9503
 70
    64
  0
VERTEX
  5
AA
  8
TEAM-NET
 10
146.390353
 20
-112.5
 30
810.774823
 70
    64
  0
VERTEX
  5
AB
  8
TEAM-NET
 10
138.46702
 20
-99.624124
 30
812.897874
 70
    64
  0
VERTEX
  5
AC
  8
TEAM-NET
 10
129.48987
 20
-87.512168
 30
815.303294
 70
    64
  0
VERTEX
  5
AD
  8
TEAM-NET
 10
119.527223
 20
-76.256313
 30
817.972777
 70
    64
  0
VERTEX
  5
AE
  8
TEAM-NET
 10
108.654902
 20
-65.942222
 30
820.886007
 70
    64
  0
VERTEX
  5
AF
  8
TEAM-NET
 10
96.955651
 20
-56.648392
 30
824.020812
 70
    64
  0
VERTEX
  5
B0
  8
TEAM-NET
 10
84.51851
 20
-48.445554
 30
827.353334
 70
    64
  0
VERTEX
  5
B1
  8
TEAM-NET
 10
71.438131
 20
-41.396137
 30
830.85821
 70
    64
  0
VERTEX
  5
B2
  8
TEAM-NET
 10
57.814066
 20
-35.553791
 30
834.508768
 70
    64
  0
VERTEX
  5
B3
  8
TEAM-NET
 10
43.75
 20
-30.96298
 30
838.277223
 70
    64
  0
VERTEX
  5
B4
  8
TEAM-NET
 10
29.35297
 20
-27.658643
 30
842.134895
 70
    64
  0
VERTEX
  5
B5
  8
TEAM-NET
 10
14.732547
 20
-25.665928
 30
846.052426
 70
    64
  0
VERTEX
  5
B6
  8
TEAM-NET
 10
0.0
 20
-25.0
 30
850.0
 70
    64
  0
VERTEX
  5
B7
  8
TEAM-NET
 10
0.0
 20
-375.0
 30
850.0
 70
    64
  0
VERTEX
  5
B8
  8
TEAM-NET
 10
14.332431
 20
-374.334072
 30
844.783422
 70
    64
  0
VERTEX
  5
B9
  8
TEAM-NET
 10
28.555784
 20
-372.341357
 30
839.606544
 70
    64
  0
VERTEX
  5
BA
  8
TEAM-NET
 10
42.561811
 20
-369.03702
 30
834.508768
 70
    64
  0
VERTEX
  5
BB
  8
TEAM-NET
 10
56.243916
 20
-364.446209
 30
829.528889
 70
    64
  0
VERTEX
  5
BC
  8
TEAM-NET
 10
69.497971
 20
-358.603863
 30
824.704807
 70
    64
  0
VERTEX
  5
BD
  8
TEAM-NET
 10
82.223104
 20
-351.554446
 30
820.073237
 70
    64
  0
VERTEX
  5
BE
  8
TEAM-NET
 10
94.32247
 20
-343.351608
 30
815.669428
 70
    64
  0
VERTEX
  5
BF
  8
TEAM-NET
 10
105.703985
 20
-334.057778
 30
811.526896
 70
    64
  0
VERTEX
  5
C0
  8
TEAM-NET
 10
116.281029
 20
-323.743687
 30
807.677167
 70
    64
  0
VERTEX
  5
C1
  8
TEAM-NET
 10
125.973104
 20
-312.487832
 30
804.14954
 70
    64
  0
VERTEX
  5
C2
  8
TEAM-NET
 10
134.706448
 20
-300.375876
 30
800.970863
 70
    64
  0
VERTEX
  5
C3
  8
TEAM-NET
 10
142.414594
 20
-287.5
 30
798.165327
 70
    64
  0
VERTEX
  5
C4
  8
TEAM-NET
 10
149.038879
 20
-273.958196
 30
795.754284
 70
    64
  0
VERTEX
  5
C5
  8
TEAM-NET
 10
154.528889
 20
-259.853525
 30
793.756084
 70
    64
  0
VERTEX
  5
C6
  8
TEAM-NET
 10
158.84284
 20
-245.293333
 30
792.185934
 70
    64
  0
VERTEX
  5
C7
  8
TEAM-NET
 10
161.947901
 20
-230.388431
 30
791.055784
 70
    64
  0
VERTEX
  5
C8
  8
TEAM-NET
 10
163.820441
 20
-215.252255
 30
790.374236
 70
    64
  0
VERTEX
  5
C9
  8
TEAM-NET
 10
164.446209
 20
-200.0
 30
790.146475
 70
    64
  0
VERTEX
  5
CA
  8
TEAM-NET
 10
163.820441
 20
-184.747745
 30
790.374236
 70
    64
  0
VERTEX
  5
CB
  8
TEAM-NET
 10
161.947901
 20
-169.611569
 30
791.055784
 70
    64
  0
VERTEX
  5
CC
  8
TEAM-NET
 10
158.84284
 20
-154.706667
 30
792.185934
 70
    64
  0
VERTEX
  5
CD
  8
TEAM-NET
 10
154.528889
 20
-140.146475
 30
793.756084
 70
    64
  0
VERTEX
  5
CE
  8
TEAM-NET
 10
149.038879
 20
-126.041804
 30
795.754284
 70
    64
  0
VERTEX
  5
CF
  8
TEAM-NET
 10
142.414594
 20
-112.5
 30
798.165327
 70
    64
  0
VERTEX
  5
D0
  8
TEAM-NET
 10
134.706448
 20
-99.624124
 30
800.970863
 70
    64
  0
VERTEX
  5
D1
  8
TEAM-NET
 10
125.973104
 20
-87.512168
 30
804.14954
 70
    64
  0
VERTEX
  5
D2
  8
TEAM-NET
 10
116.281029
 20
-76.256313
 30
807.677167
 70
    64
  0
VERTEX
  5
D3
  8
TEAM-NET
 10
105.703985
 20
-65.942222
 30
811.526896
 70
    64
  0
VERTEX
  5
D4
  8
TEAM-NET
 10
94.32247
 20
-56.648392
 30
815.669428
 70
    64
  0
VERTEX
  5
D5
  8
TEAM-NET
 10
82.223104
 20
-48.445554
 30
820.073237
 70
    64
  0
VERTEX
  5
D6
  8
TEAM-NET
 10
69.497971
 20
-41.396137
 30
824.704807
 70
    64
  0
VERTEX
  5
D7
  8
TEAM-NET
 10
56.243916
 20
-35.553791
 30
829.528889
 70
    64
  0
VERTEX
  5
D8
  8
TEAM-NET
 10
42.561811
 20
-30.96298
 30
834.508768
 70
    64
  0
VERTEX
  5
D9
  8
TEAM-NET
 10
28.555784
 20
-27.658643
 30
839.606544
 70
    64
  0
VERTEX
  5
DA
  8
TEAM-NET
 10
14.332431
 20
-25.665928
 30
844.783422
 70
    64
  0
VERTEX
  5
DB
  8
TEAM-NET
 10
0.0
 20
-25.0
 30
850.0
 70
    64
  0
VERTEX
  5
DC
  8
TEAM-NET
 10
0.0
 20
-375.0
 30
850.0
 70
    64
  0
VERTEX
  5
DD
  8
TEAM-NET
 10
13.823237
 20
-374.334072
 30
843.554119
 70
    64
  0
VERTEX
  5
DE
  8
TEAM-NET
 10
27.541272
 20
-372.341357
 30
837.157294
 70
    64
  0
VERTEX
  5
DF
  8
TEAM-NET
 10
41.0497
 20
-369.03702
 30
830.85821
 70
    64
  0
VERTEX
  5
E0
  8
TEAM-NET
 10
54.245716
 20
-364.446209
 30
824.704807
 70
    64
  0
VERTEX
  5
E1
  8
TEAM-NET
 10
67.028889
 20
-358.603863
 30
818.743916
 70
    64
  0
VERTEX
  5
E2
  8
TEAM-NET
 10
79.301931
 20
-351.554446
 30
813.020902
 70
    64
  0
VERTEX
  5
E3
  8
TEAM-NET
 10
90.971438
 20
-343.351608
 30
807.579322
 70
    64
  0
VERTEX
  5
E4
  8
TEAM-NET
 10
101.948598
 20
-334.057778
 30
802.460588
 70
    64
  0
VERTEX
  5
E5
  8
TEAM-NET
 10
112.149867
 20
-323.743687
 30
797.703658
 70
    64
  0
VERTEX
  5
E6
  8
TEAM-NET
 10
121.497608
 20
-312.487832
 30
793.344735
 70
    64
  0
VERTEX
  5
E7
  8
TEAM-NET
 10
129.920678
 20
-300.375876
 30
789.416993
 70
    64
  0
VERTEX
  5
E8
  8
TEAM-NET
 10
137.354974
 20
-287.5
 30
785.950324
 70
    64
  0
VERTEX
  5
E9
  8
TEAM-NET
 10
143.743916
 20
-273.958196
 30
782.971111
 70
    64
  0
VERTEX
  5
EA
  8
TEAM-NET
 10
149.038879
 20
-259.853525
 30
780.502029
 70
    64
  0
VERTEX
  5
EB
  8
TEAM-NET
 10
153.199567
 20
-245.293333
 30
778.561869
 70
    64
  0
VERTEX
  5
EC
  8
TEAM-NET
 10
156.194314
 20
-230.388431
 30
777.165395
 70
    64
  0
VERTEX
  5
ED
  8
TEAM-NET
 10
158.000327
 20
-215.252255
 30
776.323237
 70
    64
  0
VERTEX
  5
EE
  8
TEAM-NET
 10
158.603863
 20
-200.0
 30
776.041804
 70
    64
  0
VERTEX
  5
EF
  8
TEAM-NET
 10
158.000327
 20
-184.747745
 30
776.323237
 70
    64
  0
VERTEX
  5
F0
  8
TEAM-NET
 10
156.194314
 20
-169.611569
 30
777.165395
 70
    64
  0
VERTEX
  5
F1
  8
TEAM-NET
 10
153.199567
 20
-154.706667
 30
778.561869
 70
    64
  0
VERTEX
  5
F2
  8
TEAM-NET
 10
149.038879
 20
-140.146475
 30
780.502029
 70
    64
  0
VERTEX
  5
F3
  8
TEAM-NET
 10
143.743916
 20
-126.041804
 30
782.971111
 70
    64
  0
VERTEX
  5
F4
  8
TEAM-NET
 10
137.354974
 20
-112.5
 30
785.950324
 70
    64
  0
VERTEX
  5
F5
  8
TEAM-NET
 10
129.920678
 20
-99.624124
 30
789.416993
 70
    64
  0
VERTEX
  5
F6
  8
TEAM-NET
 10
121.497608
 20
-87.512168
 30
793.344735
 70
    64
  0
VERTEX
  5
F7
  8
TEAM-NET
 10
112.149867
 20
-76.256313
 30
797.703658
 70
    64
  0
VERTEX
  5
F8
  8
TEAM-NET
 10
101.948598
 20
-65.942222
 30
802.460588
 70
    64
  0
VERTEX
  5
F9
  8
TEAM-NET
 10
90.971438
 20
-56.648392
 30
807.579322
 70
    64
  0
VERTEX
  5
FA
  8
TEAM-NET
 10
79.301931
 20
-48.445554
 30
813.020902
 70
    64
  0
VERTEX
  5
FB
  8
TEAM-NET
 10
67.028889
 20
-41.396137
 30
818.743916
 70
    64
  0
VERTEX
  5
FC
  8
TEAM-NET
 10
54.245716
 20
-35.553791
 30
824.704807
 70
    64
  0
VERTEX
  5
FD
  8
TEAM-NET
 10
41.0497
 20
-30.96298
 30
830.85821
 70
    64
  0
VERTEX
  5
FE
  8
TEAM-NET
 10
27.541272
 20
-27.658643
 30
837.157294
 70
    64
  0
VERTEX
  5
FF
  8
TEAM-NET
 10
13.823237
 20
-25.665928
 30
843.554119
 70
    64
  0
VERTEX
  5
100
  8
TEAM-NET
 10
0.0
 20
-25.0
 30
850.0
 70
    64
  0
VERTEX
  5
101
  8
TEAM-NET
 10
0.0
 20
-375.0
 30
850.0
 70
    64
  0
VERTEX
  5
102
  8
TEAM-NET
 10
13.20884
 20
-374.334072
 30
842.373873
 70
    64
  0
VERTEX
  5
103
  8
TEAM-NET
 10
26.317153
 20
-372.341357
 30
834.805784
 70
    64
  0
VERTEX
  5
104
  8
TEAM-NET
 10
39.225177
 20
-369.03702
 30
827.353334
 70
    64
  0
VERTEX
  5
105
  8
TEAM-NET
 10
51.834673
 20
-364.446209
 30
820.073237
 70
    64
  0
VERTEX
  5
106
  8
TEAM-NET
 10
64.049676
 20
-358.603863
 30
813.020902
 70
    64
  0
VERTEX
  5
107
  8
TEAM-NET
 10
75.777223
 20
-351.554446
 30
806.25
 70
    64
  0
VERTEX
  5
108
  8
TEAM-NET
 10
86.928059
 20
-343.351608
 30
799.812062
 70
    64
  0
VERTEX
  5
109
  8
TEAM-NET
 10
97.41732
 20
-334.057778
 30
793.756084
 70
    64
  0
VERTEX
  5
10A
  8
TEAM-NET
 10
107.165176
 20
-323.743687
 30
788.128157
 70
    64
  0
VERTEX
  5
10B
  8
TEAM-NET
 10
116.097441
 20
-312.487832
 30
782.971111
 70
    64
  0
VERTEX
  5
10C
  8
TEAM-NET
 10
124.146134
 20
-300.375876
 30
778.324196
 70
    64
  0
VERTEX
  5
10D
  8
TEAM-NET
 10
131.25
 20
-287.5
 30
774.222777
 70
    64
  0
VERTEX
  5
10E
  8
TEAM-NET
 10
137.354974
 20
-273.958196
 30
770.698069
 70
    64
  0
VERTEX
  5
10F
  8
TEAM-NET
 10
142.414594
 20
-259.853525
 30
767.776896
 70
    64
  0
VERTEX
  5
110
  8
TEAM-NET
 10
146.390353
 20
-245.293333
 30
765.48149
 70
    64
  0
VERTEX
  5
111
  8
TEAM-NET
 10
149.251993
 20
-230.388431
 30
763.829322
 70
    64
  0
VERTEX
  5
112
  8
TEAM-NET
 10
150.977735
 20
-215.252255
 30
762.832964
 70
    64
  0
VERTEX
  5
113
  8
TEAM-NET
 10
151.554446
 20
-200.0
 30
762.5
 70
    64
  0
VERTEX
  5
114
  8
TEAM-NET
 10
150.977735
 20
-184.747745
 30
762.832964
 70
    64
  0
VERTEX
  5
115
  8
TEAM-NET
 10
149.251993
 20
-169.611569
 30
763.829322
 70
    64
  0
VERTEX
  5
116
  8
TEAM-NET
 10
146.390353
 20
-154.706667
 30
765.48149
 70
    64
  0
VERTEX
  5
117
  8
TEAM-NET
 10
142.414594
 20
-140.146475
 30
767.776896
 70
    64
  0
VERTEX
  5
118
  8
TEAM-NET
 10
137.354974
 20
-126.041804
 30
770.698069
 70
    64
  0
VERTEX
  5
119
  8
TEAM-NET
 10
131.25
 20
-112.5
 30
774.222777
 70
    64
  0
VERTEX
  5
11A
  8
TEAM-NET
 10
124.146134
 20
-99.624124
 30
778.324196
 70
    64
  0
VERTEX
  5
11B
  8
TEAM-NET
 10
116.097441
 20
-87.512168
 30
782.971111
 70
    64
  0
VERTEX
  5
11C
  8
TEAM-NET
 10
107.165176
 20
-76.256313
 30
788.128157
 70
    64
  0
VERTEX
  5
11D
  8
TEAM-NET
 10
97.41732
 20
-65.942222
 30
793.756084
 70
    64
  0
VERTEX
  5
11E
  8
TEAM-NET
 10
86.928059
 20
-56.648392
 30
799.812062
 70
    64
  0
VERTEX
  5
11F
  8
TEAM-NET
 10
75.777223
 20
-48.445554
 30
806.25
 70
    64
  0
VERTEX
  5
120
  8
TEAM-NET
 10
64.049676
 20
-41.396137
 30
813.020902
 70
    64
  0
VERTEX
  5
121
  8
TEAM-NET
 10
51.834673
 20
-35.553791
 30
820.073237
 70
    64
  0
VERTEX
  5
122
  8
TEAM-NET
 10
39.225177
 20
-30.96298
 30
827.353334
 70
    64
  0
VERTEX
  5
123
  8
TEAM-NET
 10
26.317153
 20
-27.658643
 30
834.805784
 70
    64
  0
VERTEX
  5
124
  8
TEAM-NET
 10
13.20884
 20
-25.665928
 30
842.373873
 70
    64
  0
VERTEX
  5
125
  8
TEAM-NET
 10
0.0
 20
-25.0
 30
850.0
 70
    64
  0
VERTEX
  5
126
  8
TEAM-NET
 10
0.0
 20
-375.0
 30
850.0
 70
    64
  0
VERTEX
  5
127
  8
TEAM-NET
 10
12.493916
 20
-374.334072
 30
841.251666
 70
    64
  0
VERTEX
  5
128
  8
TEAM-NET
 10
24.892745
 20
-372.341357
 30
832.569912
 70
    64
  0
VERTEX
  5
129
  8
TEAM-NET
 10
37.102126
 20
-369.03702
 30
824.020812
 70
    64
  0
VERTEX
  5
12A
  8
TEAM-NET
 10
49.029137
 20
-364.446209
 30
815.669428
 70
    64
  0
VERTEX
  5
12B
  8
TEAM-NET
 10
60.583007
 20
-358.603863
 30
807.579322
 70
    64
  0
VERTEX
  5
12C
  8
TEAM-NET
 10
71.675804
 20
-351.554446
 30
799.812062
 70
    64
  0
VERTEX
  5
12D
  8
TEAM-NET
 10
82.223104
 20
-343.351608
 30
792.426763
 70
    64
  0
VERTEX
  5
12E
  8
TEAM-NET
 10
92.144637
 20
-334.057778
 30
785.47963
 70
    64
  0
VERTEX
  5
12F
  8
TEAM-NET
 10
101.364894
 20
-323.743687
 30
779.023537
 70
    64
  0
VERTEX
  5
130
  8
TEAM-NET
 10
109.813703
 20
-312.487832
 30
773.107618
 70
    64
  0
VERTEX
  5
131
  8
TEAM-NET
 10
117.426763
 20
-300.375876
 30
767.776896
 70
    64
  0
VERTEX
  5
132
  8
TEAM-NET
 10
124.146134
 20
-287.5
 30
763.071941
 70
    64
  0
VERTEX
  5
133
  8
TEAM-NET
 10
129.920678
 20
-273.958196
 30
759.028562
 70
    64
  0
VERTEX
  5
134
  8
TEAM-NET
 10
134.706448
 20
-259.853525
 30
755.67753
 70
    64
  0
VERTEX
  5
135
  8
TEAM-NET
 10
138.46702
 20
-245.293333
 30
753.044349
 70
    64
  0
VERTEX
  5
136
  8
TEAM-NET
 10
141.173775
 20
-230.388431
 30
751.149059
 70
    64
  0
VERTEX
  5
137
  8
TEAM-NET
 10
142.806112
 20
-215.252255
 30
750.006084
 70
    64
  0
VERTEX
  5
138
  8
TEAM-NET
 10
143.351608
 20
-200.0
 30
749.624124
 70
    64
  0
VERTEX
  5
139
  8
TEAM-NET
 10
142.806112
 20
-184.747745
 30
750.006084
 70
    64
  0
VERTEX
  5
13A
  8
TEAM-NET
 10
141.173775
 20
-169.611569
 30
751.149059
 70
    64
  0
VERTEX
  5
13B
  8
TEAM-NET
 10
138.46702
 20
-154.706667
 30
753.044349
 70
    64
  0
VERTEX
  5
13C
  8
TEAM-NET
 10
134.706448
 20
-140.146475
 30
755.67753
 70
    64
  0
VERTEX
  5
13D
  8
TEAM-NET
 10
129.920678
 20
-126.041804
 30
759.028562
 70
    64
  0
VERTEX
  5
13E
  8
TEAM-NET
 10
124.146134
 20
-112.5
 30
763.071941
 70
    64
  0
VERTEX
  5
13F
  8
TEAM-NET
 10
117.426763
 20
-99.624124
 30
767.776896
 70
    64
  0
VERTEX
  5
140
  8
TEAM-NET
 10
109.813703
 20
-87.512168
 30
773.107618
 70
    64
  0
VERTEX
  5
141
  8
TEAM-NET
 10
101.364894
 20
-76.256313
 30
779.023537
 70
    64
  0
VERTEX
  5
142
  8
TEAM-NET
 10
92.144637
 20
-65.942222
 30
785.47963
 70
    64
  0
VERTEX
  5
143
  8
TEAM-NET
 10
82.223104
 20
-56.648392
 30
792.426763
 70
    64
  0
VERTEX
  5
144
  8
TEAM-NET
 10
71.675804
 20
-48.445554
 30
799.812062
 70
    64
  0
VERTEX
  5
145
  8
TEAM-NET
 10
60.583007
 20
-41.396137
 30
807.579322
 70
    64
  0
VERTEX
  5
146
  8
TEAM-NET
 10
49.029137
 20
-35.553791
 30
815.669428
 70
    64
  0
VERTEX
  5
147
  8
TEAM-NET
 10
37.102126
 20
-30.96298
 30
824.020812
 70
    64
  0
VERTEX
  5
148
  8
TEAM-NET
 10
24.892745
 20
-27.658643
 30
832.569912
 70
    64
  0
VERTEX
  5
149
  8
TEAM-NET
 10
12.493916
 20
-25.665928
 30
841.251666
 70
    64
  0
VERTEX
  5
14A
  8
TEAM-NET
 10
0.0
 20
-25.0
 30
850.0
 70
    64
  0
VERTEX
  5
14B
  8
TEAM-NET
 10
0.0
 20
-375.0
 30
850.0
 70
    64
  0
VERTEX
  5
14C
  8
TEAM-NET
 10
11.683905
 20
-374.334072
 30
840.196039
 70
    64
  0
VERTEX
  5
14D
  8
TEAM-NET
 10
23.278889
 20
-372.341357
 30
830.466693
 70
    64
  0
VERTEX
  5
14E
  8
TEAM-NET
 10
34.696706
 20
-369.03702
 30
820.886007
 70
    64
  0
VERTEX
  5
14F
  8
TEAM-NET
 10
45.85046
 20
-364.446209
 30
811.526896
 70
    64
  0
VERTEX
  5
150
  8
TEAM-NET
 10
56.655265
 20
-358.603863
 30
802.460588
 70
    64
  0
VERTEX
  5
151
  8
TEAM-NET
 10
67.028889
 20
-351.554446
 30
793.756084
 70
    64
  0
VERTEX
  5
152
  8
TEAM-NET
 10
76.892382
 20
-343.351608
 30
785.47963
 70
    64
  0
VERTEX
  5
153
  8
TEAM-NET
 10
86.170678
 20
-334.057778
 30
777.694216
 70
    64
  0
VERTEX
  5
154
  8
TEAM-NET
 10
94.793164
 20
-323.743687
 30
770.459091
 70
    64
  0
VERTEX
  5
155
  8
TEAM-NET
 10
102.694216
 20
-312.487832
 30
763.829322
 70
    64
  0
VERTEX
  5
156
  8
TEAM-NET
 10
109.813703
 20
-300.375876
 30
757.855363
 70
    64
  0
VERTEX
  5
157
  8
TEAM-NET
 10
116.097441
 20
-287.5
 30
752.58268
 70
    64
  0
VERTEX
  5
158
  8
TEAM-NET
 10
121.497608
 20
-273.958196
 30
748.051402
 70
    64
  0
VERTEX
  5
159
  8
TEAM-NET
 10
125.973104
 20
-259.853525
 30
744.296015
 70
    64
  0
VERTEX
  5
15A
  8
TEAM-NET
 10
129.48987
 20
-245.293333
 30
741.345098
 70
    64
  0
VERTEX
  5
15B
  8
TEAM-NET
 10
132.021139
 20
-230.388431
 30
739.221111
 70
    64
  0
VERTEX
  5
15C
  8
TEAM-NET
 10
133.547647
 20
-215.252255
 30
737.940218
 70
    64
  0
VERTEX
  5
15D
  8
TEAM-NET
 10
134.057778
 20
-200.0
 30
737.512168
 70
    64
  0
VERTEX
  5
15E
  8
TEAM-NET
 10
133.547647
 20
-184.747745
 30
737.940218
 70
    64
  0
VERTEX
  5
15F
  8
TEAM-NET
 10
132.021139
 20
-169.611569
 30
739.221111
 70
    64
  0
VERTEX
  5
160
  8
TEAM-NET
 10
129.48987
 20
-154.706667
 30
741.345098
 70
    64
  0
VERTEX
  5
161
  8
TEAM-NET
 10
125.973104
 20
-140.146475
 30
744.296015
 70
    64
  0
VERTEX
  5
162
  8
TEAM-NET
 10
121.497608
 20
-126.041804
 30
748.051402
 70
    64
  0
VERTEX
  5
163
  8
TEAM-NET
 10
116.097441
 20
-112.5
 30
752.58268
 70
    64
  0
VERTEX
  5
164
  8
TEAM-NET
 10
109.813703
 20
-99.624124
 30
757.855363
 70
    64
  0
VERTEX
  5
165
  8
TEAM-NET
 10
102.694216
 20
-87.512168
 30
763.829322
 70
    64
  0
VERTEX
  5
166
  8
TEAM-NET
 10
94.793164
 20
-76.256313
 30
770.459091
 70
    64
  0
VERTEX
  5
167
  8
TEAM-NET
 10
86.170678
 20
-65.942222
 30
777.694216
 70
    64
  0
VERTEX
  5
168
  8
TEAM-NET
 10
76.892382
 20
-56.648392
 30
785.47963
 70
    64
  0
VERTEX
  5
169
  8
TEAM-NET
 10
67.028889
 20
-48.445554
 30
793.756084
 70
    64
  0
VERTEX
  5
16A
  8
TEAM-NET
 10
56.655265
 20
-41.396137
 30
802.460588
 70
    64
  0
VERTEX
  5
16B
  8
TEAM-NET
 10
45.85046
 20
-35.553791
 30
811.526896
 70
    64
  0
VERTEX
  5
16C
  8
TEAM-NET
 10
34.696706
 20
-30.96298
 30
820.886007
 70
    64
  0
VERTEX
  5
16D
  8
TEAM-NET
 10
23.278889
 20
-27.658643
 30
830.466693
 70
    64
  0
VERTEX
  5
16E
  8
TEAM-NET
 10
11.683905
 20
-25.665928
 30
840.196039
 70
    64
  0
VERTEX
  5
16F
  8
TEAM-NET
 10
0.0
 20
-25.0
 30
850.0
 70
    64
  0
VERTEX
  5
170
  8
TEAM-NET
 10
0.0
 20
-375.0
 30
850.0
 70
    64
  0
VERTEX
  5
171
  8
TEAM-NET
 10
10.784973
 20
-374.334072
 30
839.215027
 70
    64
  0
VERTEX
  5
172
  8
TEAM-NET
 10
21.487866
 20
-372.341357
 30
828.512134
 70
    64
  0
VERTEX
  5
173
  8
TEAM-NET
 10
32.027223
 20
-369.03702
 30
817.972777
 70
    64
  0
VERTEX
  5
174
  8
TEAM-NET
 10
42.322833
 20
-364.446209
 30
807.677167
 70
    64
  0
VERTEX
  5
175
  8
TEAM-NET
 10
52.296342
 20
-358.603863
 30
797.703658
 70
    64
  0
VERTEX
  5
176
  8
TEAM-NET
 10
61.871843
 20
-351.554446
 30
788.128157
 70
    64
  0
VERTEX
  5
177
  8
TEAM-NET
 10
70.976463
 20
-343.351608
 30
779.023537
 70
    64
  0
VERTEX
  5
178
  8
TEAM-NET
 10
79.540909
 20
-334.057778
 30
770.459091
 70
    64
  0
VERTEX
  5
179
  8
TEAM-NET
 10
87.5
 20
-323.743687
 30
762.5
 70
    64
  0
VERTEX
  5
17A
  8
TEAM-NET
 10
94.793164
 20
-312.487832
 30
755.206836
 70
    64
  0
VERTEX
  5
17B
  8
TEAM-NET
 10
101.364894
 20
-300.375876
 30
748.635106
 70
    64
  0
VERTEX
  5
17C
  8
TEAM-NET
 10
107.165176
 20
-287.5
 30
742.834824
 70
    64
  0
VERTEX
  5
17D
  8
TEAM-NET
 10
112.149867
 20
-273.958196
 30
737.850133
 70
    64
  0
VERTEX
  5
17E
  8
TEAM-NET
 10
116.281029
 20
-259.853525
 30
733.718971
 70
    64
  0
VERTEX
  5
17F
  8
TEAM-NET
 10
119.527223
 20
-245.293333
 30
730.472777
 70
    64
  0
VERTEX
  5
180
  8
TEAM-NET
 10
121.863742
 20
-230.388431
 30
728.136258
 70
    64
  0
VERTEX
  5
181
  8
TEAM-NET
 10
123.272805
 20
-215.252255
 30
726.727195
 70
    64
  0
VERTEX
  5
182
  8
TEAM-NET
 10
123.743687
 20
-200.0
 30
726.256313
 70
    64
  0
VERTEX
  5
183
  8
TEAM-NET
 10
123.272805
 20
-184.747745
 30
726.727195
 70
    64
  0
VERTEX
  5
184
  8
TEAM-NET
 10
121.863742
 20
-169.611569
 30
728.136258
 70
    64
  0
VERTEX
  5
185
  8
TEAM-NET
 10
119.527223
 20
-154.706667
 30
730.472777
 70
    64
  0
VERTEX
  5
186
  8
TEAM-NET
 10
116.281029
 20
-140.146475
 30
733.718971
 70
    64
  0
VERTEX
  5
187
  8
TEAM-NET
 10
112.149867
 20
-126.041804
 30
737.850133
 70
    64
  0
VERTEX
  5
188
  8
TEAM-NET
 10
107.165176
 20
-112.5
 30
742.834824
 70
    64
  0
VERTEX
  5
189
  8
TEAM-NET
 10
101.364894
 20
-99.624124
 30
748.635106
 70
    64
  0
VERTEX
  5
18A
  8
TEAM-NET
 10
94.793164
 20
-87.512168
 30
755.206836
 70
    64
  0
VERTEX
  5
18B
  8
TEAM-NET
 10
87.5
 20
-76.256313
 30
762.5
 70
    64
  0
VERTEX
  5
18C
  8
TEAM-NET
 10
79.540909
 20
-65.942222
 30
770.459091
 70
    64
  0
VERTEX
  5
18D
  8
TEAM-NET
 10
70.976463
 20
-56.648392
 30
779.023537
 70
    64
  0
VERTEX
  5
18E
  8
TEAM-NET
 10
61.871843
 20
-48.445554
 30
788.128157
 70
    64
  0
VERTEX
  5
18F
  8
TEAM-NET
 10
52.296342
 20
-41.396137
 30
797.703658
 70
    64
  0
VERTEX
  5
190
  8
TEAM-NET
 10
42.322833
 20
-35.553791
 30
807.677167
 70
    64
  0
VERTEX
  5
191
  8
TEAM-NET
 10
32.027223
 20
-30.96298
 30
817.972777
 70
    64
  0
VERTEX
  5
192
  8
TEAM-NET
 10
21.487866
 20
-27.658643
 30
828.512134
 70
    64
  0
VERTEX
  5
193
  8
TEAM-NET
 10
10.784973
 20
-25.665928
 30
839.215027
 70
    64
  0
VERTEX
  5
194
  8
TEAM-NET
 10
0.0
 20
-25.0
 30
850.0
 70
    64
  0
VERTEX
  5
195
  8
TEAM-NET
 10
0.0
 20
-375.0
 30
850.0
 70
    64
  0
VERTEX
  5
196
  8
TEAM-NET
 10
9.803961
 20
-374.334072
 30
838.316095
 70
    64
  0
VERTEX
  5
197
  8
TEAM-NET
 10
19.533307
 20
-372.341357
 30
826.721111
 70
    64
  0
VERTEX
  5
198
  8
TEAM-NET
 10
29.113993
 20
-369.03702
 30
815.303294
 70
    64
  0
VERTEX
  5
199
  8
TEAM-NET
 10
38.473104
 20
-364.446209
 30
804.14954
 70
    64
  0
VERTEX
  5
19A
  8
TEAM-NET
 10
47.539412
 20
-358.603863
 30
793.344735
 70
    64
  0
VERTEX
  5
19B
  8
TEAM-NET
 10
56.243916
 20
-351.554446
 30
782.971111
 70
    64
  0
VERTEX
  5
19C
  8
TEAM-NET
 10
64.52037
 20
-343.351608
 30
773.107618
 70
    64
  0
VERTEX
  5
19D
  8
TEAM-NET
 10
72.305784
 20
-334.057778
 30
763.829322
 70
    64
  0
VERTEX
  5
19E
  8
TEAM-NET
 10
79.540909
 20
-323.743687
 30
755.206836
 70
    64
  0
VERTEX
  5
19F
  8
TEAM-NET
 10
86.170678
 20
-312.487832
 30
747.305784
 70
    64
  0
VERTEX
  5
1A0
  8
TEAM-NET
 10
92.144637
 20
-300.375876
 30
740.186297
 70
    64
  0
VERTEX
  5
1A1
  8
TEAM-NET
 10
97.41732
 20
-287.5
 30
733.902559
 70
    64
  0
VERTEX
  5
1A2
  8
TEAM-NET
 10
101.948598
 20
-273.958196
 30
728.502392
 70
    64
  0
VERTEX
  5
1A3
  8
TEAM-NET
 10
105.703985
 20
-259.853525
 30
724.026896
 70
    64
  0
VERTEX
  5
1A4
  8
TEAM-NET
 10
108.654902
 20
-245.293333
 30
720.51013
 70
    64
  0
VERTEX
  5
1A5
  8
TEAM-NET
 10
110.778889
 20
-230.388431
 30
717.978861
 70
    64
  0
VERTEX
  5
1A6
  8
TEAM-NET
 10
112.059782
 20
-215.252255
 30
716.452353
 70
    64
  0
VERTEX
  5
1A7
  8
TEAM-NET
 10
112.487832
 20
-200.0
 30
715.942222
 70
    64
  0
VERTEX
  5
1A8
  8
TEAM-NET
 10
112.059782
 20
-184.747745
 30
716.452353
 70
    64
  0
VERTEX
  5
1A9
  8
TEAM-NET
 10
110.778889
 20
-169.611569
 30
717.978861
 70
    64
  0
VERTEX
  5
1AA
  8
TEAM-NET
 10
108.654902
 20
-154.706667
 30
720.51013
 70
    64
  0
VERTEX
  5
1AB
  8
TEAM-NET
 10
105.703985
 20
-140.146475
 30
724.026896
 70
    64
  0
VERTEX
  5
1AC
  8
TEAM-NET
 10
101.948598
 20
-126.041804
 30
728.502392
 70
    64
  0
VERTEX
  5
1AD
  8
TEAM-NET
 10
97.41732
 20
-112.5
 30
733.902559
 70
    64
  0
VERTEX
  5
1AE
  8
TEAM-NET
 10
92.144637
 20
-99.624124
 30
740.186297
 70
    64
  0
VERTEX
  5
1AF
  8
TEAM-NET
 10
86.170678
 20
-87.512168
 30
747.305784
 70
    64
  0
VERTEX
  5
1B0
  8
TEAM-NET
 10
79.540909
 20
-76.256313
 30
755.206836
 70
    64
  0
VERTEX
  5
1B1
  8
TEAM-NET
 10
72.305784
 20
-65.942222
 30
763.829322
 70
    64
  0
VERTEX
  5
1B2
  8
TEAM-NET
 10
64.52037
 20
-56.648392
 30
773.107618
 70
    64
  0
VERTEX
  5
1B3
  8
TEAM-NET
 10
56.243916
 20
-48.445554
 30
782.971111
 70
    64
  0
VERTEX
  5
1B4
  8
TEAM-NET
 10
47.539412
 20
-41.396137
 30
793.344735
 70
    64
  0
VERTEX
  5
1B5
  8
TEAM-NET
 10
38.473104
 20
-35.553791
 30
804.14954
 70
    64
  0
VERTEX
  5
1B6
  8
TEAM-NET
 10
29.113993
 20
-30.96298
 30
815.303294
 70
    64
  0
VERTEX
  5
1B7
  8
TEAM-NET
 10
19.533307
 20
-27.658643
 30
826.721111
 70
    64
  0
VERTEX
  5
1B8
  8
TEAM-NET
 10
9.803961
 20
-25.665928
 30
838.316095
 70
    64
  0
VERTEX
  5
1B9
  8
TEAM-NET
 10
0.0
 20
-25.0
 30
850.0
 70
    64
  0
VERTEX
  5
1BA
  8
TEAM-NET
 10
0.0
 20
-375.0
 30
850.0
 70
    64
  0
VERTEX
  5
1BB
  8
TEAM-NET
 10
8.748334
 20
-374.334072
 30
837.506084
 70
    64
  0
VERTEX
  5
1BC
  8
TEAM-NET
 10
17.430088
 20
-372.341357
 30
825.107255
 70
    64
  0
VERTEX
  5
1BD
  8
TEAM-NET
 10
25.979188
 20
-369.03702
 30
812.897874
 70
    64
  0
VERTEX
  5
1BE
  8
TEAM-NET
 10
34.330572
 20
-364.446209
 30
800.970863
 70
    64
  0
VERTEX
  5
1BF
  8
TEAM-NET
 10
42.420678
 20
-358.603863
 30
789.416993
 70
    64
  0
VERTEX
  5
1C0
  8
TEAM-NET
 10
50.187938
 20
-351.554446
 30
778.324196
 70
    64
  0
VERTEX
  5
1C1
  8
TEAM-NET
 10
57.573237
 20
-343.351608
 30
767.776896
 70
    64
  0
VERTEX
  5
1C2
  8
TEAM-NET
 10
64.52037
 20
-334.057778
 30
757.855363
 70
    64
  0
VERTEX
  5
1C3
  8
TEAM-NET
 10
70.976463
 20
-323.743687
 30
748.635106
 70
    64
  0
VERTEX
  5
1C4
  8
TEAM-NET
 10
76.892382
 20
-312.487832
 30
740.186297
 70
    64
  0
VERTEX
  5
1C5
  8
TEAM-NET
 10
82.223104
 20
-300.375876
 30
732.573237
 70
    64
  0
VERTEX
  5
1C6
  8
TEAM-NET
 10
86.928059
 20
-287.5
 30
725.853866
 70
    64
  0
VERTEX
  5
1C7
  8
TEAM-NET
 10
90.971438
 20
-273.958196
 30
720.079322
 70
    64
  0
VERTEX
  5
1C8
  8
TEAM-NET
 10
94.32247
 20
-259.853525
 30
715.293552
 70
    64
  0
VERTEX
  5
1C9
  8
TEAM-NET
 10
96.955651
 20
-245.293333
 30
711.53298
 70
    64
  0
VERTEX
  5
1CA
  8
TEAM-NET
 10
98.850941
 20
-230.388431
 30
708.826225
 70
    64
  0
VERTEX
  5
1CB
  8
TEAM-NET
 10
99.993916
 20
-215.252255
 30
707.193888
 70
    64
  0
VERTEX
  5
1CC
  8
TEAM-NET
 10
100.375876
 20
-200.0
 30
706.648392
 70
    64
  0
VERTEX
  5
1CD
  8
TEAM-NET
 10
99.993916
 20
-184.747745
 30
707.193888
 70
    64
  0
VERTEX
  5
1CE
  8
TEAM-NET
 10
98.850941
 20
-169.611569
 30
708.826225
 70
    64
  0
VERTEX
  5
1CF
  8
TEAM-NET
 10
96.955651
 20
-154.706667
 30
711.53298
 70
    64
  0
VERTEX
  5
1D0
  8
TEAM-NET
 10
94.32247
 20
-140.146475
 30
715.293552
 70
    64
  0
VERTEX
  5
1D1
  8
TEAM-NET
 10
90.971438
 20
-126.041804
 30
720.079322
 70
    64
  0
VERTEX
  5
1D2
  8
TEAM-NET
 10
86.928059
 20
-112.5
 30
725.853866
 70
    64
  0
VERTEX
  5
1D3
  8
TEAM-NET
 10
82.223104
 20
-99.624124
 30
732.573237
 70
    64
  0
VERTEX
  5
1D4
  8
TEAM-NET
 10
76.892382
 20
-87.512168
 30
740.186297
 70
    64
  0
VERTEX
  5
1D5
  8
TEAM-NET
 10
70.976463
 20
-76.256313
 30
748.635106
 70
    64
  0
VERTEX
  5
1D6
  8
TEAM-NET
 10
64.52037
 20
-65.942222
 30
757.855363
 70
    64
  0
VERTEX
  5
1D7
  8
TEAM-NET
 10
57.573237
 20
-56.648392
 30
767.776896
 70
    64
  0
VERTEX
  5
1D8
  8
TEAM-NET
 10
50.187938
 20
-48.445554
 30
778.324196
 70
    64
  0
VERTEX
  5
1D9
  8
TEAM-NET
 10
42.420678
 20
-41.396137
 30
789.416993
 70
    64
  0
VERTEX
  5
1DA
  8
TEAM-NET
 10
34.330572
 20
-35.553791
 30
800.970863
 70
    64
  0
VERTEX
  5
1DB
  8
TEAM-NET
 10
25.979188
 20
-30.96298
 30
812.897874
 70
    64
  0
VERTEX
  5
1DC
  8
TEAM-NET
 10
17.430088
 20
-27.658643
 30
825.107255
 70
    64
  0
VERTEX
  5
1DD
  8
TEAM-NET
 10
8.748334
 20
-25.665928
 30
837.506084
 70
    64
  0
VERTEX
  5
1DE
  8
TEAM-NET
 10
0.0
 20
-25.0
 30
850.0
 70
    64
  0
VERTEX
  5
1DF
  8
TEAM-NET
 10
0.0
 20
-375.0
 30
850.0
 70
    64
  0
VERTEX
  5
1E0
  8
TEAM-NET
 10
7.626127
 20
-374.334072
 30
836.79116
 70
    64
  0
VERTEX
  5
1E1
  8
TEAM-NET
 10
15.194216
 20
-372.341357
 30
823.682847
 70
    64
  0
VERTEX
  5
1E2
  8
TEAM-NET
 10
22.646666
 20
-369.03702
 30
810.774823
 70
    64
  0
VERTEX
  5
1E3
  8
TEAM-NET
 10
29.926763
 20
-364.446209
 30
798.165327
 70
    64
  0
VERTEX
  5
1E4
  8
TEAM-NET
 10
36.979098
 20
-358.603863
 30
785.950324
 70
    64
  0
VERTEX
  5
1E5
  8
TEAM-NET
 10
43.75
 20
-351.554446
 30
774.222777
 70
    64
  0
VERTEX
  5
1E6
  8
TEAM-NET
 10
50.187938
 20
-343.351608
 30
763.071941
 70
    64
  0
VERTEX
  5
1E7
  8
TEAM-NET
 10
56.243916
 20
-334.057778
 30
752.58268
 70
    64
  0
VERTEX
  5
1E8
  8
TEAM-NET
 10
61.871843
 20
-323.743687
 30
742.834824
 70
    64
  0
VERTEX
  5
1E9
  8
TEAM-NET
 10
67.028889
 20
-312.487832
 30
733.902559
 70
    64
  0
VERTEX
  5
1EA
  8
TEAM-NET
 10
71.675804
 20
-300.375876
 30
725.853866
 70
    64
  0
VERTEX
  5
1EB
  8
TEAM-NET
 10
75.777223
 20
-287.5
 30
718.75
 70
    64
  0
VERTEX
  5
1EC
  8
TEAM-NET
 10
79.301931
 20
-273.958196
 30
712.645026
 70
    64
  0
VERTEX
  5
1ED
  8
TEAM-NET
 10
82.223104
 20
-259.853525
 30
707.585406
 70
    64
  0
VERTEX
  5
1EE
  8
TEAM-NET
 10
84.51851
 20
-245.293333
 30
703.609647
 70
    64
  0
VERTEX
  5
1EF
  8
TEAM-NET
 10
86.170678
 20
-230.388431
 30
700.748007
 70
    64
  0
VERTEX
  5
1F0
  8
TEAM-NET
 10
87.167036
 20
-215.252255
 30
699.022265
 70
    64
  0
VERTEX
  5
1F1
  8
TEAM-NET
 10
87.5
 20
-200.0
 30
698.445554
 70
    64
  0
VERTEX
  5
1F2
  8
TEAM-NET
 10
87.167036
 20
-184.747745
 30
699.022265
 70
    64
  0
VERTEX
  5
1F3
  8
TEAM-NET
 10
86.170678
 20
-169.611569
 30
700.748007
 70
    64
  0
VERTEX
  5
1F4
  8
TEAM-NET
 10
84.51851
 20
-154.706667
 30
703.609647
 70
    64
  0
VERTEX
  5
1F5
  8
TEAM-NET
 10
82.223104
 20
-140.146475
 30
707.585406
 70
    64
  0
VERTEX
  5
1F6
  8
TEAM-NET
 10
79.301931
 20
-126.041804
 30
712.645026
 70
    64
  0
VERTEX
  5
1F7
  8
TEAM-NET
 10
75.777223
 20
-112.5
 30
718.75
 70
    64
  0
VERTEX
  5
1F8
  8
TEAM-NET
 10
71.675804
 20
-99.624124
 30
725.853866
 70
    64
  0
VERTEX
  5
1F9
  8
TEAM-NET
 10
67.028889
 20
-87.512168
 30
733.902559
 70
    64
  0
VERTEX
  5
1FA
  8
TEAM-NET
 10
61.871843
 20
-76.256313
 30
742.834824
 70
    64
  0
VERTEX
  5
1FB
  8
TEAM-NET
 10
56.243916
 20
-65.942222
 30
752.58268
 70
    64
  0
VERTEX
  5
1FC
  8
TEAM-NET
 10
50.187938
 20
-56.648392
 30
763.071941
 70
    64
  0
VERTEX
  5
1FD
  8
TEAM-NET
 10
43.75
 20
-48.445554
 30
774.222777
 70
    64
  0
VERTEX
  5
1FE
  8
TEAM-NET
 10
36.979098
 20
-41.396137
 30
785.950324
 70
    64
  0
VERTEX
  5
1FF
  8
TEAM-NET
 10
29.926763
 20
-35.553791
 30
798.165327
 70
    64
  0
VERTEX
  5
200
  8
TEAM-NET
 10
22.646666
 20
-30.96298
 30
810.774823
 70
    64
  0
VERTEX
  5
201
  8
TEAM-NET
 10
15.194216
 20
-27.658643
 30
823.682847
 70
    64
  0
VERTEX
  5
202
  8
TEAM-NET
 10
7.626127
 20
-25.665928
 30
836.79116
 70
    64
  0
VERTEX
  5
203
  8
TEAM-NET
 10
0.0
 20
-25.0
 30
850.0
 70
    64
  0
VERTEX
  5
204
  8
TEAM-NET
 10
0.0
 20
-375.0
 30
850.0
 70
    64
  0
VERTEX
  5
205
  8
TEAM-NET
 10
6.445881
 20
-374.334072
 30
836.176763
 70
    64
  0
VERTEX
  5
206
  8
TEAM-NET
 10
12.842706
 20
-372.341357
 30
822.458728
 70
    64
  0
VERTEX
  5
207
  8
TEAM-NET
 10
19.14179
 20
-369.03702
 30
808.9503
 70
    64
  0
VERTEX
  5
208
  8
TEAM-NET
 10
25.295193
 20
-364.446209
 30
795.754284
 70
    64
  0
VERTEX
  5
209
  8
TEAM-NET
 10
31.256084
 20
-358.603863
 30
782.971111
 70
    64
  0
VERTEX
  5
20A
  8
TEAM-NET
 10
36.979098
 20
-351.554446
 30
770.698069
 70
    64
  0
VERTEX
  5
20B
  8
TEAM-NET
 10
42.420678
 20
-343.351608
 30
759.028562
 70
    64
  0
VERTEX
  5
20C
  8
TEAM-NET
 10
47.539412
 20
-334.057778
 30
748.051402
 70
    64
  0
VERTEX
  5
20D
  8
TEAM-NET
 10
52.296342
 20
-323.743687
 30
737.850133
 70
    64
  0
VERTEX
  5
20E
  8
TEAM-NET
 10
56.655265
 20
-312.487832
 30
728.502392
 70
    64
  0
VERTEX
  5
20F
  8
TEAM-NET
 10
60.583007
 20
-300.375876
 30
720.079322
 70
    64
  0
VERTEX
  5
210
  8
TEAM-NET
 10
64.049676
 20
-287.5
 30
712.645026
 70
    64
  0
VERTEX
  5
211
  8
TEAM-NET
 10
67.028889
 20
-273.958196
 30
706.256084
 70
    64
  0
VERTEX
  5
212
  8
TEAM-NET
 10
69.497971
 20
-259.853525
 30
700.961121
 70
    64
  0
VERTEX
  5
213
  8
TEAM-NET
 10
71.438131
 20
-245.293333
 30
696.800433
 70
    64
  0
VERTEX
  5
214
  8
TEAM-NET
 10
72.834605
 20
-230.388431
 30
693.805686
 70
    64
  0
VERTEX
  5
215
  8
TEAM-NET
 10
73.676763
 20
-215.252255
 30
691.999673
 70
    64
  0
VERTEX
  5
216
  8
TEAM-NET
 10
73.958196
 20
-200.0
 30
691.396137
 70
    64
  0
VERTEX
  5
217
  8
TEAM-NET
 10
73.676763
 20
-184.747745
 30
691.999673
 70
    64
  0
VERTEX
  5
218
  8
TEAM-NET
 10
72.834605
 20
-169.611569
 30
693.805686
 70
    64
  0
VERTEX
  5
219
  8
TEAM-NET
 10
71.438131
 20
-154.706667
 30
696.800433
 70
    64
  0
VERTEX
  5
21A
  8
TEAM-NET
 10
69.497971
 20
-140.146475
 30
700.961121
 70
    64
  0
VERTEX
  5
21B
  8
TEAM-NET
 10
67.028889
 20
-126.041804
 30
706.256084
 70
    64
  0
VERTEX
  5
21C
  8
TEAM-NET
 10
64.049676
 20
-112.5
 30
712.645026
 70
    64
  0
VERTEX
  5
21D
  8
TEAM-NET
 10
60.583007
 20
-99.624124
 30
720.079322
 70
    64
  0
VERTEX
  5
21E
  8
TEAM-NET
 10
56.655265
 20
-87.512168
 30
728.502392
 70
    64
  0
VERTEX
  5
21F
  8
TEAM-NET
 10
52.296342
 20
-76.256313
 30
737.850133
 70
    64
  0
VERTEX
  5
220
  8
TEAM-NET
 10
47.539412
 20
-65.942222
 30
748.051402
 70
    64
  0
VERTEX
  5
221
  8
TEAM-NET
 10
42.420678
 20
-56.648392
 30
759.028562
 70
    64
  0
VERTEX
  5
222
  8
TEAM-NET
 10
36.979098
 20
-48.445554
 30
770.698069
 70
    64
  0
VERTEX
  5
223
  8
TEAM-NET
 10
31.256084
 20
-41.396137
 30
782.971111
 70
    64
  0
VERTEX
  5
224
  8
TEAM-NET
 10
25.295193
 20
-35.553791
 30
795.754284
 70
    64
  0
VERTEX
  5
225
  8
TEAM-NET
 10
19.14179
 20
-30.96298
 30
808.9503
 70
    64
  0
VERTEX
  5
226
  8
TEAM-NET
 10
12.842706
 20
-27.658643
 30
822.458728
 70
    64
  0
VERTEX
  5
227
  8
TEAM-NET
 10
6.445881
 20
-25.665928
 30
836.176763
 70
    64
  0
VERTEX
  5
228
  8
TEAM-NET
 10
0.0
 20
-25.0
 30
850.0
 70
    64
  0
VERTEX
  5
229
  8
TEAM-NET
 10
0.0
 20
-375.0
 30
850.0
 70
    64
  0
VERTEX
  5
22A
  8
TEAM-NET
 10
5.216578
 20
-374.334072
 30
835.667569
 70
    64
  0
VERTEX
  5
22B
  8
TEAM-NET
 10
10.393456
 20
-372.341357
 30
821.444216
 70
    64
  0
VERTEX
  5
22C
  8
TEAM-NET
 10
15.491232
 20
-369.03702
 30
807.438189
 70
    64
  0
VERTEX
  5
22D
  8
TEAM-NET
 10
20.471111
 20
-364.446209
 30
793.756084
 70
    64
  0
VERTEX
  5
22E
  8
TEAM-NET
 10
25.295193
 20
-358.603863
 30
780.502029
 70
    64
  0
VERTEX
  5
22F
  8
TEAM-NET
 10
29.926763
 20
-351.554446
 30
767.776896
 70
    64
  0
VERTEX
  5
230
  8
TEAM-NET
 10
34.330572
 20
-343.351608
 30
755.67753
 70
    64
  0
VERTEX
  5
231
  8
TEAM-NET
 10
38.473104
 20
-334.057778
 30
744.296015
 70
    64
  0
VERTEX
  5
232
  8
TEAM-NET
 10
42.322833
 20
-323.743687
 30
733.718971
 70
    64
  0
VERTEX
  5
233
  8
TEAM-NET
 10
45.85046
 20
-312.487832
 30
724.026896
 70
    64
  0
VERTEX
  5
234
  8
TEAM-NET
 10
49.029137
 20
-300.375876
 30
715.293552
 70
    64
  0
VERTEX
  5
235
  8
TEAM-NET
 10
51.834673
 20
-287.5
 30
707.585406
 70
    64
  0
VERTEX
  5
236
  8
TEAM-NET
 10
54.245716
 20
-273.958196
 30
700.961121
 70
    64
  0
VERTEX
  5
237
  8
TEAM-NET
 10
56.243916
 20
-259.853525
 30
695.471111
 70
    64
  0
VERTEX
  5
238
  8
TEAM-NET
 10
57.814066
 20
-245.293333
 30
691.15716
 70
    64
  0
VERTEX
  5
239
  8
TEAM-NET
 10
58.944216
 20
-230.388431
 30
688.052099
 70
    64
  0
VERTEX
  5
23A
  8
TEAM-NET
 10
59.625764
 20
-215.252255
 30
686.179559
 70
    64
  0
VERTEX
  5
23B
  8
TEAM-NET
 10
59.853525
 20
-200.0
 30
685.553791
 70
    64
  0
VERTEX
  5
23C
  8
TEAM-NET
 10
59.625764
 20
-184.747745
 30
686.179559
 70
    64
  0
VERTEX
  5
23D
  8
TEAM-NET
 10
58.944216
 20
-169.611569
 30
688.052099
 70
    64
  0
VERTEX
  5
23E
  8
TEAM-NET
 10
57.814066
 20
-154.706667
 30
691.15716
 70
    64
  0
VERTEX
  5
23F
  8
TEAM-NET
 10
56.243916
 20
-140.146475
 30
695.471111
 70
    64
  0
VERTEX
  5
240
  8
TEAM-NET
 10
54.245716
 20
-126.041804
 30
700.961121
 70
    64
  0
VERTEX
  5
241
  8
TEAM-NET
 10
51.834673
 20
-112.5
 30
707.585406
 70
    64
  0
VERTEX
  5
242
  8
TEAM-NET
 10
49.029137
 20
-99.624124
 30
715.293552
 70
    64
  0
VERTEX
  5
243
  8
TEAM-NET
 10
45.85046
 20
-87.512168
 30
724.026896
 70
    64
  0
VERTEX
  5
244
  8
TEAM-NET
 10
42.322833
 20
-76.256313
 30
733.718971
 70
    64
  0
VERTEX
  5
245
  8
TEAM-NET
 10
38.473104
 20
-65.942222
 30
744.296015
 70
    64
  0
VERTEX
  5
246
  8
TEAM-NET
 10
34.330572
 20
-56.648392
 30
755.67753
 70
    64
  0
VERTEX
  5
247
  8
TEAM-NET
 10
29.926763
 20
-48.445554
 30
767.776896
 70
    64
  0
VERTEX
  5
248
  8
TEAM-NET
 10
25.295193
 20
-41.396137
 30
780.502029
 70
    64
  0
VERTEX
  5
249
  8
TEAM-NET
 10
20.471111
 20
-35.553791
 30
793.756084
 70
    64
  0
VERTEX
  5
24A
  8
TEAM-NET
 10
15.491232
 20
-30.96298
 30
807.438189
 70
    64
  0
VERTEX
  5
24B
  8
TEAM-NET
 10
10.393456
 20
-27.658643
 30
821.444216
 70
    64
  0
VERTEX
  5
24C
  8
TEAM-NET
 10
5.216578
 20
-25.665928
 30
835.667569
 70
    64
  0
VERTEX
  5
24D
  8
TEAM-NET
 10
0.0
 20
-25.0
 30
850.0
 70
    64
  0
VERTEX
  5
24E
  8
TEAM-NET
 10
0.0
 20
-375.0
 30
850.0
 70
    64
  0
VERTEX
  5
24F
  8
TEAM-NET
 10
3.947574
 20
-374.334072
 30
835.267453
 70
    64
  0
VERTEX
  5
250
  8
TEAM-NET
 10
7.865105
 20
-372.341357
 30
820.64703
 70
    64
  0
VERTEX
  5
251
  8
TEAM-NET
 10
11.722777
 20
-369.03702
 30
806.25
 70
    64
  0
VERTEX
  5
252
  8
TEAM-NET
 10
15.491232
 20
-364.446209
 30
792.185934
 70
    64
  0
VERTEX
  5
253
  8
TEAM-NET
 10
19.14179
 20
-358.603863
 30
778.561869
 70
    64
  0
VERTEX
  5
254
  8
TEAM-NET
 10
22.646666
 20
-351.554446
 30
765.48149
 70
    64
  0
VERTEX
  5
255
  8
TEAM-NET
 10
25.979188
 20
-343.351608
 30
753.044349
 70
    64
  0
VERTEX
  5
256
  8
TEAM-NET
 10
29.113993
 20
-334.057778
 30
741.345098
 70
    64
  0
VERTEX
  5
257
  8
TEAM-NET
 10
32.027223
 20
-323.743687
 30
730.472777
 70
    64
  0
VERTEX
  5
258
  8
TEAM-NET
 10
34.696706
 20
-312.487832
 30
720.51013
 70
    64
  0
VERTEX
  5
259
  8
TEAM-NET
 10
37.102126
 20
-300.375876
 30
711.53298
 70
    64
  0
VERTEX
  5
25A
  8
TEAM-NET
 10
39.225177
 20
-287.5
 30
703.609647
 70
    64
  0
VERTEX
  5
25B
  8
TEAM-NET
 10
41.0497
 20
-273.958196
 30
696.800433
 70
    64
  0
VERTEX
  5
25C
  8
TEAM-NET
 10
42.561811
 20
-259.853525
 30
691.15716
 70
    64
  0
VERTEX
  5
25D
  8
TEAM-NET
 10
43.75
 20
-245.293333
 30
686.722777
 70
    64
  0
VERTEX
  5
25E
  8
TEAM-NET
 10
44.605225
 20
-230.388431
 30
683.531033
 70
    64
  0
VERTEX
  5
25F
  8
TEAM-NET
 10
45.120978
 20
-215.252255
 30
681.606217
 70
    64
  0
VERTEX
  5
260
  8
TEAM-NET
 10
45.293333
 20
-200.0
 30
680.96298
 70
    64
  0
VERTEX
  5
261
  8
TEAM-NET
 10
45.120978
 20
-184.747745
 30
681.606217
 70
    64
  0
VERTEX
  5
262
  8
TEAM-NET
 10
44.605225
 20
-169.611569
 30
683.531033
 70
    64
  0
VERTEX
  5
263
  8
TEAM-NET
 10
43.75
 20
-154.706667
 30
686.722777
 70
    64
  0
VERTEX
  5
264
  8
TEAM-NET
 10
42.561811
 20
-140.146475
 30
691.15716
 70
    64
  0
VERTEX
  5
265
  8
TEAM-NET
 10
41.0497
 20
-126.041804
 30
696.800433
 70
    64
  0
VERTEX
  5
266
  8
TEAM-NET
 10
39.225177
 20
-112.5
 30
703.609647
 70
    64
  0
VERTEX
  5
267
  8
TEAM-NET
 10
37.102126
 20
-99.624124
 30
711.53298
 70
    64
  0
VERTEX
  5
268
  8
TEAM-NET
 10
34.696706
 20
-87.512168
 30
720.51013
 70
    64
  0
VERTEX
  5
269
  8
TEAM-NET
 10
32.027223
 20
-76.256313
 30
730.472777
 70
    64
  0
VERTEX
  5
26A
  8
TEAM-NET
 10
29.113993
 20
-65.942222
 30
741.345098
 70
    64
  0
VERTEX
  5
26B
  8
TEAM-NET
 10
25.979188
 20
-56.648392
 30
753.044349
 70
    64
  0
VERTEX
  5
26C
  8
TEAM-NET
 10
22.646666
 20
-48.445554
 30
765.48149
 70
    64
  0
VERTEX
  5
26D
  8
TEAM-NET
 10
19.14179
 20
-41.396137
 30
778.561869
 70
    64
  0
VERTEX
  5
26E
  8
TEAM-NET
 10
15.491232
 20
-35.553791
 30
792.185934
 70
    64
  0
VERTEX
  5
26F
  8
TEAM-NET
 10
11.722777
 20
-30.96298
 30
806.25
 70
    64
  0
VERTEX
  5
270
  8
TEAM-NET
 10
7.865105
 20
-27.658643
 30
820.64703
 70
    64
  0
VERTEX
  5
271
  8
TEAM-NET
 10
3.947574
 20
-25.665928
 30
835.267453
 70
    64
  0
VERTEX
  5
272
  8
TEAM-NET
 10
0.0
 20
-25.0
 30
850.0
 70
    64
  0
VERTEX
  5
273
  8
TEAM-NET
 10
0.0
 20
-375.0
 30
850.0
 70
    64
  0
VERTEX
  5
274
  8
TEAM-NET
 10
2.648526
 20
-374.334072
 30
834.979461
 70
    64
  0
VERTEX
  5
275
  8
TEAM-NET
 10
5.276896
 20
-372.341357
 30
820.073237
 70
    64
  0
VERTEX
  5
276
  8
TEAM-NET
 10
7.865105
 20
-369.03702
 30
805.394775
 70
    64
  0
VERTEX
  5
277
  8
TEAM-NET
 10
10.393456
 20
-364.446209
 30
791.055784
 70
    64
  0
VERTEX
  5
278
  8
TEAM-NET
 10
12.842706
 20
-358.603863
 30
777.165395
 70
    64
  0
VERTEX
  5
279
  8
TEAM-NET
 10
15.194216
 20
-351.554446
 30
763.829322
 70
    64
  0
VERTEX
  5
27A
  8
TEAM-NET
 10
17.430088
 20
-343.351608
 30
751.149059
 70
    64
  0
VERTEX
  5
27B
  8
TEAM-NET
 10
19.533307
 20
-334.057778
 30
739.221111
 70
    64
  0
VERTEX
  5
27C
  8
TEAM-NET
 10
21.487866
 20
-323.743687
 30
728.136258
 70
    64
  0
VERTEX
  5
27D
  8
TEAM-NET
 10
23.278889
 20
-312.487832
 30
717.978861
 70
    64
  0
VERTEX
  5
27E
  8
TEAM-NET
 10
24.892745
 20
-300.375876
 30
708.826225
 70
    64
  0
VERTEX
  5
27F
  8
TEAM-NET
 10
26.317153
 20
-287.5
 30
700.748007
 70
    64
  0
VERTEX
  5
280
  8
TEAM-NET
 10
27.541272
 20
-273.958196
 30
693.805686
 70
    64
  0
VERTEX
  5
281
  8
TEAM-NET
 10
28.555784
 20
-259.853525
 30
688.052099
 70
    64
  0
VERTEX
  5
282
  8
TEAM-NET
 10
29.35297
 20
-245.293333
 30
683.531033
 70
    64
  0
VERTEX
  5
283
  8
TEAM-NET
 10
29.926763
 20
-230.388431
 30
680.276896
 70
    64
  0
VERTEX
  5
284
  8
TEAM-NET
 10
30.272794
 20
-215.252255
 30
678.314454
 70
    64
  0
VERTEX
  5
285
  8
TEAM-NET
 10
30.388431
 20
-200.0
 30
677.658643
 70
    64
  0
VERTEX
  5
286
  8
TEAM-NET
 10
30.272794
 20
-184.747745
 30
678.314454
 70
    64
  0
VERTEX
  5
287
  8
TEAM-NET
 10
29.926763
 20
-169.611569
 30
680.276896
 70
    64
  0
VERTEX
  5
288
  8
TEAM-NET
 10
29.35297
 20
-154.706667
 30
683.531033
 70
    64
  0
VERTEX
  5
289
  8
TEAM-NET
 10
28.555784
 20
-140.146475
 30
688.052099
 70
    64
  0
VERTEX
  5
28A
  8
TEAM-NET
 10
27.541272
 20
-126.041804
 30
693.805686
 70
    64
  0
VERTEX
  5
28B
  8
TEAM-NET
 10
26.317153
 20
-112.5
 30
700.748007
 70
    64
  0
VERTEX
  5
28C
  8
TEAM-NET
 10
24.892745
 20
-99.624124
 30
708.826225
 70
    64
  0
VERTEX
  5
28D
  8
TEAM-NET
 10
23.278889
 20
-87.512168
 30
717.978861
 70
    64
  0
VERTEX
  5
28E
  8
TEAM-NET
 10
21.487866
 20
-76.256313
 30
728.136258
 70
    64
  0
VERTEX
  5
28F
  8
TEAM-NET
 10
19.533307
 20
-65.942222
 30
739.221111
 70
    64
  0
VERTEX
  5
290
  8
TEAM-NET
 10
17.430088
 20
-56.648392
 30
751.149059
 70
    64
  0
VERTEX
  5
291
  8
TEAM-NET
 10
15.194216
 20
-48.445554
 30
763.829322
 70
    64
  0
VERTEX
  5
292
  8
TEAM-NET
 10
12.842706
 20
-41.396137
 30
777.165395
 70
    64
  0
VERTEX
  5
293
  8
TEAM-NET
 10
10.393456
 20
-35.553791
 30
791.055784
 70
    64
  0
VERTEX
  5
294
  8
TEAM-NET
 10
7.865105
 20
-30.96298
 30
805.394775
 70
    64
  0
VERTEX
  5
295
  8
TEAM-NET
 10
5.276896
 20
-27.658643
 30
820.073237
 70
    64
  0
VERTEX
  5
296
  8
TEAM-NET
 10
2.648526
 20
-25.665928
 30
834.979461
 70
    64
  0
VERTEX
  5
297
  8
TEAM-NET
 10
0.0
 20
-25.0
 30
850.0
 70
    64
  0
VERTEX
  5
298
  8
TEAM-NET
 10
0.0
 20
-375.0
 30
850.0
 70
    64
  0
VERTEX
  5
299
  8
TEAM-NET
 10
1.329322
 20
-374.334072
 30
834.805784
 70
    64
  0
VERTEX
  5
29A
  8
TEAM-NET
 10
2.648526
 20
-372.341357
 30
819.727206
 70
    64
  0
VERTEX
  5
29B
  8
TEAM-NET
 10
3.947574
 20
-369.03702
 30
804.879022
 70
    64
  0
VERTEX
  5
29C
  8
TEAM-NET
 10
5.216578
 20
-364.446209
 30
790.374236
 70
    64
  0
VERTEX
  5
29D
  8
TEAM-NET
 10
6.445881
 20
-358.603863
 30
776.323237
 70
    64
  0
VERTEX
  5
29E
  8
TEAM-NET
 10
7.626127
 20
-351.554446
 30
762.832964
 70
    64
  0
VERTEX
  5
29F
  8
TEAM-NET
 10
8.748334
 20
-343.351608
 30
750.006084
 70
    64
  0
VERTEX
  5
2A0
  8
TEAM-NET
 10
9.803961
 20
-334.057778
 30
737.940218
 70
    64
  0
VERTEX
  5
2A1
  8
TEAM-NET
 10
10.784973
 20
-323.743687
 30
726.727195
 70
    64
  0
VERTEX
  5
2A2
  8
TEAM-NET
 10
11.683905
 20
-312.487832
 30
716.452353
 70
    64
  0
VERTEX
  5
2A3
  8
TEAM-NET
 10
12.493916
 20
-300.375876
 30
707.193888
 70
    64
  0
VERTEX
  5
2A4
  8
TEAM-NET
 10
13.20884
 20
-287.5
 30
699.022265
 70
    64
  0
VERTEX
  5
2A5
  8
TEAM-NET
 10
13.823237
 20
-273.958196
 30
691.999673
 70
    64
  0
VERTEX
  5
2A6
  8
TEAM-NET
 10
14.332431
 20
-259.853525
 30
686.179559
 70
    64
  0
VERTEX
  5
2A7
  8
TEAM-NET
 10
14.732547
 20
-245.293333
 30
681.606217
 70
    64
  0
VERTEX
  5
2A8
  8
TEAM-NET
 10
15.020539
 20
-230.388431
 30
678.314454
 70
    64
  0
VERTEX
  5
2A9
  8
TEAM-NET
 10
15.194216
 20
-215.252255
 30
676.329322
 70
    64
  0
VERTEX
  5
2AA
  8
TEAM-NET
 10
15.252255
 20
-200.0
 30
675.665928
 70
    64
  0
VERTEX
  5
2AB
  8
TEAM-NET
 10
15.194216
 20
-184.747745
 30
676.329322
 70
    64
  0
VERTEX
  5
2AC
  8
TEAM-NET
 10
15.020539
 20
-169.611569
 30
678.314454
 70
    64
  0
VERTEX
  5
2AD
  8
TEAM-NET
 10
14.732547
 20
-154.706667
 30
681.606217
 70
    64
  0
VERTEX
  5
2AE
  8
TEAM-NET
 10
14.332431
 20
-140.146475
 30
686.179559
 70
    64
  0
VERTEX
  5
2AF
  8
TEAM-NET
 10
13.823237
 20
-126.041804
 30
691.999673
 70
    64
  0
VERTEX
  5
2B0
  8
TEAM-NET
 10
13.20884
 20
-112.5
 30
699.022265
 70
    64
  0
VERTEX
  5
2B1
  8
TEAM-NET
 10
12.493916
 20
-99.624124
 30
707.193888
 70
    64
  0
VERTEX
  5
2B2
  8
TEAM-NET
 10
11.683905
 20
-87.512168
 30
716.452353
 70
    64
  0
VERTEX
  5
2B3
  8
TEAM-NET
 10
10.784973
 20
-76.256313
 30
726.727195
 70
    64
  0
VERTEX
  5
2B4
  8
TEAM-NET
 10
9.803961
 20
-65.942222
 30
737.940218
 70
    64
  0
VERTEX
  5
2B5
  8
TEAM-NET
 10
8.748334
 20
-56.648392
 30
750.006084
 70
    64
  0
VERTEX
  5
2B6
  8
TEAM-NET
 10
7.626127
 20
-48.445554
 30
762.832964
 70
    64
  0
VERTEX
  5
2B7
  8
TEAM-NET
 10
6.445881
 20
-41.396137
 30
776.323237
 70
    64
  0
VERTEX
  5
2B8
  8
TEAM-NET
 10
5.216578
 20
-35.553791
 30
790.374236
 70
    64
  0
VERTEX
  5
2B9
  8
TEAM-NET
 10
3.947574
 20
-30.96298
 30
804.879022
 70
    64
  0
VERTEX
  5
2BA
  8
TEAM-NET
 10
2.648526
 20
-27.658643
 30
819.727206
 70
    64
  0
VERTEX
  5
2BB
  8
TEAM-NET
 10
1.329322
 20
-25.665928
 30
834.805784
 70
    64
  0
VERTEX
  5
2BC
  8
TEAM-NET
 10
0.0
 20
-25.0
 30
850.0
 70
    64
  0
VERTEX
  5
2BD
  8
TEAM-NET
 10
0.0
 20
-375.0
 30
850.0
 70
    64
  0
VERTEX
  5
2BE
  8
TEAM-NET
 10
0.0
 20
-374.334072
 30
834.747745
 70
    64
  0
VERTEX
  5
2BF
  8
TEAM-NET
 10
0.0
 20
-372.341357
 30
819.611569
 70
    64
  0
VERTEX
  5
2C0
  8
TEAM-NET
 10
0.0
 20
-369.03702
 30
804.706667
 70
    64
  0
VERTEX
  5
2C1
  8
TEAM-NET
 10
0.0
 20
-364.446209
 30
790.146475
 70
    64
  0
VERTEX
  5
2C2
  8
TEAM-NET
 10
0.0
 20
-358.603863
 30
776.041804
 70
    64
  0
VERTEX
  5
2C3
  8
TEAM-NET
 10
0.0
 20
-351.554446
 30
762.5
 70
    64
  0
VERTEX
  5
2C4
  8
TEAM-NET
 10
0.0
 20
-343.351608
 30
749.624124
 70
    64
  0
VERTEX
  5
2C5
  8
TEAM-NET
 10
0.0
 20
-334.057778
 30
737.512168
 70
    64
  0
VERTEX
  5
2C6
  8
TEAM-NET
 10
0.0
 20
-323.743687
 30
726.256313
 70
    64
  0
VERTEX
  5
2C7
  8
TEAM-NET
 10
0.0
 20
-312.487832
 30
715.942222
 70
    64
  0
VERTEX
  5
2C8
  8
TEAM-NET
 10
0.0
 20
-300.375876
 30
706.648392
 70
    64
  0
VERTEX
  5
2C9
  8
TEAM-NET
 10
0.0
 20
-287.5
 30
698.445554
 70
    64
  0
VERTEX
  5
2CA
  8
TEAM-NET
 10
0.0
 20
-273.958196
 30
691.396137
 70
    64
  0
VERTEX
  5
2CB
  8
TEAM-NET
 10
0.0
 20
-259.853525
 30
685.553791
 70
    64
  0
VERTEX
  5
2CC
  8
TEAM-NET
 10
0.0
 20
-245.293333
 30
680.96298
 70
    64
  0
VERTEX
  5
2CD
  8
TEAM-NET
 10
0.0
 20
-230.388431
 30
677.658643
 70
    64
  0
VERTEX
  5
2CE
  8
TEAM-NET
 10
0.0
 20
-215.252255
 30
675.665928
 70
    64
  0
VERTEX
  5
2CF
  8
TEAM-NET
 10
0.0
 20
-200.0
 30
675.0
 70
    64
  0
VERTEX
  5
2D0
  8
TEAM-NET
 10
0.0
 20
-184.747745
 30
675.665928
 70
    64
  0
VERTEX
  5
2D1
  8
TEAM-NET
 10
0.0
 20
-169.611569
 30
677.658643
 70
    64
  0
VERTEX
  5
2D2
  8
TEAM-NET
 10
0.0
 20
-154.706667
 30
680.96298
 70
    64
  0
VERTEX
  5
2D3
  8
TEAM-NET
 10
0.0
 20
-140.146475
 30
685.553791
 70
    64
  0
VERTEX
  5
2D4
  8
TEAM-NET
 10
0.0
 20
-126.041804
 30
691.396137
 70
    64
  0
VERTEX
  5
2D5
  8
TEAM-NET
 10
0.0
 20
-112.5
 30
698.445554
 70
    64
  0
VERTEX
  5
2D6
  8
TEAM-NET
 10
0.0
 20
-99.624124
 30
706.648392
 70
    64
  0
VERTEX
  5
2D7
  8
TEAM-NET
 10
0.0
 20
-87.512168
 30
715.942222
 70
    64
  0
VERTEX
  5
2D8
  8
TEAM-NET
 10
0.0
 20
-76.256313
 30
726.256313
 70
    64
  0
VERTEX
  5
2D9
  8
TEAM-NET
 10
0.0
 20
-65.942222
 30
737.512168
 70
    64
  0
VERTEX
  5
2DA
  8
TEAM-NET
 10
0.0
 20
-56.648392
 30
749.624124
 70
    64
  0
VERTEX
  5
2DB
  8
TEAM-NET
 10
0.0
 20
-48.445554
 30
762.5
 70
    64
  0
VERTEX
  5
2DC
  8
TEAM-NET
 10
0.0
 20
-41.396137
 30
776.041804
 70
    64
  0
VERTEX
  5
2DD
  8
TEAM-NET
 10
0.0
 20
-35.553791
 30
790.146475
 70
    64
  0
VERTEX
  5
2DE
  8
TEAM-NET
 10
0.0
 20
-30.96298
 30
804.706667
 70
    64
  0
VERTEX
  5
2DF
  8
TEAM-NET
 10
0.0
 20
-27.658643
 30
819.611569
 70
    64
  0
VERTEX
  5
2E0
  8
TEAM-NET
 10
0.0
 20
-25.665928
 30
834.747745
 70
    64
  0
VERTEX
  5
2E1
  8
TEAM-NET
 10
0.0
 20
-25.0
 30
850.0
 70
    64
  0
VERTEX
  5
2E2
  8
TEAM-NET
 10
0.0
 20
-375.0
 30
850.0
 70
    64
  0
VERTEX
  5
2E3
  8
TEAM-NET
 10
-1.329322
 20
-374.334072
 30
834.805784
 70
    64
  0
VERTEX
  5
2E4
  8
TEAM-NET
 10
-2.648526
 20
-372.341357
 30
819.727206
 70
    64
  0
VERTEX
  5
2E5
  8
TEAM-NET
 10
-3.947574
 20
-369.03702
 30
804.879022
 70
    64
  0
VERTEX
  5
2E6
  8
TEAM-NET
 10
-5.216578
 20
-364.446209
 30
790.374236
 70
    64
  0
VERTEX
  5
2E7
  8
TEAM-NET
 10
-6.445881
 20
-358.603863
 30
776.323237
 70
    64
  0
VERTEX
  5
2E8
  8
TEAM-NET
 10
-7.626127
 20
-351.554446
 30
762.832964
 70
    64
  0
VERTEX
  5
2E9
  8
TEAM-NET
 10
-8.748334
 20
-343.351608
 30
750.006084
 70
    64
  0
VERTEX
  5
2EA
  8
TEAM-NET
 10
-9.803961
 20
-334.057778
 30
737.940218
 70
    64
  0
VERTEX
  5
2EB
  8
TEAM-NET
 10
-10.784973
 20
-323.743687
 30
726.727195
 70
    64
  0
VERTEX
  5
2EC
  8
TEAM-NET
 10
-11.683905
 20
-312.487832
 30
716.452353
 70
    64
  0
VERTEX
  5
2ED
  8
TEAM-NET
 10
-12.493916
 20
-300.375876
 30
707.193888
 70
    64
  0
VERTEX
  5
2EE
  8
TEAM-NET
 10
-13.20884
 20
-287.5
 30
699.022265
 70
    64
  0
VERTEX
  5
2EF
  8
TEAM-NET
 10
-13.823237
 20
-273.958196
 30
691.999673
 70
    64
  0
VERTEX
  5
2F0
  8
TEAM-NET
 10
-14.332431
 20
-259.853525
 30
686.179559
 70
    64
  0
VERTEX
  5
2F1
  8
TEAM-NET
 10
-14.732547
 20
-245.293333
 30
681.606217
 70
    64
  0
VERTEX
  5
2F2
  8
TEAM-NET
 10
-15.020539
 20
-230.388431
 30
678.314454
 70
    64
  0
VERTEX
  5
2F3
  8
TEAM-NET
 10
-15.194216
 20
-215.252255
 30
676.329322
 70
    64
  0
VERTEX
  5
2F4
  8
TEAM-NET
 10
-15.252255
 20
-200.0
 30
675.665928
 70
    64
  0
VERTEX
  5
2F5
  8
TEAM-NET
 10
-15.194216
 20
-184.747745
 30
676.329322
 70
    64
  0
VERTEX
  5
2F6
  8
TEAM-NET
 10
-15.020539
 20
-169.611569
 30
678.314454
 70
    64
  0
VERTEX
  5
2F7
  8
TEAM-NET
 10
-14.732547
 20
-154.706667
 30
681.606217
 70
    64
  0
VERTEX
  5
2F8
  8
TEAM-NET
 10
-14.332431
 20
-140.146475
 30
686.179559
 70
    64
  0
VERTEX
  5
2F9
  8
TEAM-NET
 10
-13.823237
 20
-126.041804
 30
691.999673
 70
    64
  0
VERTEX
  5
2FA
  8
TEAM-NET
 10
-13.20884
 20
-112.5
 30
699.022265
 70
    64
  0
VERTEX
  5
2FB
  8
TEAM-NET
 10
-12.493916
 20
-99.624124
 30
707.193888
 70
    64
  0
VERTEX
  5
2FC
  8
TEAM-NET
 10
-11.683905
 20
-87.512168
 30
716.452353
 70
    64
  0
VERTEX
  5
2FD
  8
TEAM-NET
 10
-10.784973
 20
-76.256313
 30
726.727195
 70
    64
  0
VERTEX
  5
2FE
  8
TEAM-NET
 10
-9.803961
 20
-65.942222
 30
737.940218
 70
    64
  0
VERTEX
  5
2FF
  8
TEAM-NET
 10
-8.748334
 20
-56.648392
 30
750.006084
 70
    64
  0
VERTEX
  5
300
  8
TEAM-NET
 10
-7.626127
 20
-48.445554
 30
762.832964
 70
    64
  0
VERTEX
  5
301
  8
TEAM-NET
 10
-6.445881
 20
-41.396137
 30
776.323237
 70
    64
  0
VERTEX
  5
302
  8
TEAM-NET
 10
-5.216578
 20
-35.553791
 30
790.374236
 70
    64
  0
VERTEX
  5
303
  8
TEAM-NET
 10
-3.947574
 20
-30.96298
 30
804.879022
 70
    64
  0
VERTEX
  5
304
  8
TEAM-NET
 10
-2.648526
 20
-27.658643
 30
819.727206
 70
    64
  0
VERTEX
  5
305
  8
TEAM-NET
 10
-1.329322
 20
-25.665928
 30
834.805784
 70
    64
  0
VERTEX
  5
306
  8
TEAM-NET
 10
0.0
 20
-25.0
 30
850.0
 70
    64
  0
VERTEX
  5
307
  8
TEAM-NET
 10
0.0
 20
-375.0
 30
850.0
 70
    64
  0
VERTEX
  5
308
  8
TEAM-NET
 10
-2.648526
 20
-374.334072
 30
834.979461
 70
    64
  0
VERTEX
  5
309
  8
TEAM-NET
 10
-5.276896
 20
-372.341357
 30
820.073237
 70
    64
  0
VERTEX
  5
30A
  8
TEAM-NET
 10
-7.865105
 20
-369.03702
 30
805.394775
 70
    64
  0
VERTEX
  5
30B
  8
TEAM-NET
 10
-10.393456
 20
-364.446209
 30
791.055784
 70
    64
  0
VERTEX
  5
30C
  8
TEAM-NET
 10
-12.842706
 20
-358.603863
 30
777.165395
 70
    64
  0
VERTEX
  5
30D
  8
TEAM-NET
 10
-15.194216
 20
-351.554446
 30
763.829322
 70
    64
  0
VERTEX
  5
30E
  8
TEAM-NET
 10
-17.430088
 20
-343.351608
 30
751.149059
 70
    64
  0
VERTEX
  5
30F
  8
TEAM-NET
 10
-19.533307
 20
-334.057778
 30
739.221111
 70
    64
  0
VERTEX
  5
310
  8
TEAM-NET
 10
-21.487866
 20
-323.743687
 30
728.136258
 70
    64
  0
VERTEX
  5
311
  8
TEAM-NET
 10
-23.278889
 20
-312.487832
 30
717.978861
 70
    64
  0
VERTEX
  5
312
  8
TEAM-NET
 10
-24.892745
 20
-300.375876
 30
708.826225
 70
    64
  0
VERTEX
  5
313
  8
TEAM-NET
 10
-26.317153
 20
-287.5
 30
700.748007
 70
    64
  0
VERTEX
  5
314
  8
TEAM-NET
 10
-27.541272
 20
-273.958196
 30
693.805686
 70
    64
  0
VERTEX
  5
315
  8
TEAM-NET
 10
-28.555784
 20
-259.853525
 30
688.052099
 70
    64
  0
VERTEX
  5
316
  8
TEAM-NET
 10
-29.35297
 20
-245.293333
 30
683.531033
 70
    64
  0
VERTEX
  5
317
  8
TEAM-NET
 10
-29.926763
 20
-230.388431
 30
680.276896
 70
    64
  0
VERTEX
  5
318
  8
TEAM-NET
 10
-30.272794
 20
-215.252255
 30
678.314454
 70
    64
  0
VERTEX
  5
319
  8
TEAM-NET
 10
-30.388431
 20
-200.0
 30
677.658643
 70
    64
  0
VERTEX
  5
31A
  8
TEAM-NET
 10
-30.272794
 20
-184.747745
 30
678.314454
 70
    64
  0
VERTEX
  5
31B
  8
TEAM-NET
 10
-29.926763
 20
-169.611569
 30
680.276896
 70
    64
  0
VERTEX
  5
31C
  8
TEAM-NET
 10
-29.35297
 20
-154.706667
 30
683.531033
 70
    64
  0
VERTEX
  5
31D
  8
TEAM-NET
 10
-28.555784
 20
-140.146475
 30
688.052099
 70
    64
  0
VERTEX
  5
31E
  8
TEAM-NET
 10
-27.541272
 20
-126.041804
 30
693.805686
 70
    64
  0
VERTEX
  5
31F
  8
TEAM-NET
 10
-26.317153
 20
-112.5
 30
700.748007
 70
    64
  0
VERTEX
  5
320
  8
TEAM-NET
 10
-24.892745
 20
-99.624124
 30
708.826225
 70
    64
  0
VERTEX
  5
321
  8
TEAM-NET
 10
-23.278889
 20
-87.512168
 30
717.978861
 70
    64
  0
VERTEX
  5
322
  8
TEAM-NET
 10
-21.487866
 20
-76.256313
 30
728.136258
 70
    64
  0
VERTEX
  5
323
  8
TEAM-NET
 10
-19.533307
 20
-65.942222
 30
739.221111
 70
    64
  0
VERTEX
  5
324
  8
TEAM-NET
 10
-17.430088
 20
-56.648392
 30
751.149059
 70
    64
  0
VERTEX
  5
325
  8
TEAM-NET
 10
-15.194216
 20
-48.445554
 30
763.829322
 70
    64
  0
VERTEX
  5
326
  8
TEAM-NET
 10
-12.842706
 20
-41.396137
 30
777.165395
 70
    64
  0
VERTEX
  5
327
  8
TEAM-NET
 10
-10.393456
 20
-35.553791
 30
791.055784
 70
    64
  0
VERTEX
  5
328
  8
TEAM-NET
 10
-7.865105
 20
-30.96298
 30
805.394775
 70
    64
  0
VERTEX
  5
329
  8
TEAM-NET
 10
-5.276896
 20
-27.658643
 30
820.073237
 70
    64
  0
VERTEX
  5
32A
  8
TEAM-NET
 10
-2.648526
 20
-25.665928
 30
834.979461
 70
    64
  0
VERTEX
  5
32B
  8
TEAM-NET
 10
0.0
 20
-25.0
 30
850.0
 70
    64
  0
VERTEX
  5
32C
  8
TEAM-NET
 10
0.0
 20
-375.0
 30
850.0
 70
    64
  0
VERTEX
  5
32D
  8
TEAM-NET
 10
-3.947574
 20
-374.334072
 30
835.267453
 70
    64
  0
VERTEX
  5
32E
  8
TEAM-NET
 10
-7.865105
 20
-372.341357
 30
820.64703
 70
    64
  0
VERTEX
  5
32F
  8
TEAM-NET
 10
-11.722777
 20
-369.03702
 30
806.25
 70
    64
  0
VERTEX
  5
330
  8
TEAM-NET
 10
-15.491232
 20
-364.446209
 30
792.185934
 70
    64
  0
VERTEX
  5
331
  8
TEAM-NET
 10
-19.14179
 20
-358.603863
 30
778.561869
 70
    64
  0
VERTEX
  5
332
  8
TEAM-NET
 10
-22.646666
 20
-351.554446
 30
765.48149
 70
    64
  0
VERTEX
  5
333
  8
TEAM-NET
 10
-25.979188
 20
-343.351608
 30
753.044349
 70
    64
  0
VERTEX
  5
334
  8
TEAM-NET
 10
-29.113993
 20
-334.057778
 30
741.345098
 70
    64
  0
VERTEX
  5
335
  8
TEAM-NET
 10
-32.027223
 20
-323.743687
 30
730.472777
 70
    64
  0
VERTEX
  5
336
  8
TEAM-NET
 10
-34.696706
 20
-312.487832
 30
720.51013
 70
    64
  0
VERTEX
  5
337
  8
TEAM-NET
 10
-37.102126
 20
-300.375876
 30
711.53298
 70
    64
  0
VERTEX
  5
338
  8
TEAM-NET
 10
-39.225177
 20
-287.5
 30
703.609647
 70
    64
  0
VERTEX
  5
339
  8
TEAM-NET
 10
-41.0497
 20
-273.958196
 30
696.800433
 70
    64
  0
VERTEX
  5
33A
  8
TEAM-NET
 10
-42.561811
 20
-259.853525
 30
691.15716
 70
    64
  0
VERTEX
  5
33B
  8
TEAM-NET
 10
-43.75
 20
-245.293333
 30
686.722777
 70
    64
  0
VERTEX
  5
33C
  8
TEAM-NET
 10
-44.605225
 20
-230.388431
 30
683.531033
 70
    64
  0
VERTEX
  5
33D
  8
TEAM-NET
 10
-45.120978
 20
-215.252255
 30
681.606217
 70
    64
  0
VERTEX
  5
33E
  8
TEAM-NET
 10
-45.293333
 20
-200.0
 30
680.96298
 70
    64
  0
VERTEX
  5
33F
  8
TEAM-NET
 10
-45.120978
 20
-184.747745
 30
681.606217
 70
    64
  0
VERTEX
  5
340
  8
TEAM-NET
 10
-44.605225
 20
-169.611569
 30
683.531033
 70
    64
  0
VERTEX
  5
341
  8
TEAM-NET
 10
-43.75
 20
-154.706667
 30
686.722777
 70
    64
  0
VERTEX
  5
342
  8
TEAM-NET
 10
-42.561811
 20
-140.146475
 30
691.15716
 70
    64
  0
VERTEX
  5
343
  8
TEAM-NET
 10
-41.0497
 20
-126.041804
 30
696.800433
 70
    64
  0
VERTEX
  5
344
  8
TEAM-NET
 10
-39.225177
 20
-112.5
 30
703.609647
 70
    64
  0
VERTEX
  5
345
  8
TEAM-NET
 10
-37.102126
 20
-99.624124
 30
711.53298
 70
    64
  0
VERTEX
  5
346
  8
TEAM-NET
 10
-34.696706
 20
-87.512168
 30
720.51013
 70
    64
  0
VERTEX
  5
347
  8
TEAM-NET
 10
-32.027223
 20
-76.256313
 30
730.472777
 70
    64
  0
VERTEX
  5
348
  8
TEAM-NET
 10
-29.113993
 20
-65.942222
 30
741.345098
 70
    64
  0
VERTEX
  5
349
  8
TEAM-NET
 10
-25.979188
 20
-56.648392
 30
753.044349
 70
    64
  0
VERTEX
  5
34A
  8
TEAM-NET
 10
-22.646666
 20
-48.445554
 30
765.48149
 70
    64
  0
VERTEX
  5
34B
  8
TEAM-NET
 10
-19.14179
 20
-41.396137
 30
778.561869
 70
    64
  0
VERTEX
  5
34C
  8
TEAM-NET
 10
-15.491232
 20
-35.553791
 30
792.185934
 70
    64
  0
VERTEX
  5
34D
  8
TEAM-NET
 10
-11.722777
 20
-30.96298
 30
806.25
 70
    64
  0
VERTEX
  5
34E
  8
TEAM-NET
 10
-7.865105
 20
-27.658643
 30
820.64703
 70
    64
  0
VERTEX
  5
34F
  8
TEAM-NET
 10
-3.947574
 20
-25.665928
 30
835.267453
 70
    64
  0
VERTEX
  5
350
  8
TEAM-NET
 10
0.0
 20
-25.0
 30
850.0
 70
    64
  0
VERTEX
  5
351
  8
TEAM-NET
 10
0.0
 20
-375.0
 30
850.0
 70
    64
  0
VERTEX
  5
352
  8
TEAM-NET
 10
-5.216578
 20
-374.334072
 30
835.667569
 70
    64
  0
VERTEX
  5
353
  8
TEAM-NET
 10
-10.393456
 20
-372.341357
 30
821.444216
 70
    64
  0
VERTEX
  5
354
  8
TEAM-NET
 10
-15.491232
 20
-369.03702
 30
807.438189
 70
    64
  0
VERTEX
  5
355
  8
TEAM-NET
 10
-20.471111
 20
-364.446209
 30
793.756084
 70
    64
  0
VERTEX
  5
356
  8
TEAM-NET
 10
-25.295193
 20
-358.603863
 30
780.502029
 70
    64
  0
VERTEX
  5
357
  8
TEAM-NET
 10
-29.926763
 20
-351.554446
 30
767.776896
 70
    64
  0
VERTEX
  5
358
  8
TEAM-NET
 10
-34.330572
 20
-343.351608
 30
755.67753
 70
    64
  0
VERTEX
  5
359
  8
TEAM-NET
 10
-38.473104
 20
-334.057778
 30
744.296015
 70
    64
  0
VERTEX
  5
35A
  8
TEAM-NET
 10
-42.322833
 20
-323.743687
 30
733.718971
 70
    64
  0
VERTEX
  5
35B
  8
TEAM-NET
 10
-45.85046
 20
-312.487832
 30
724.026896
 70
    64
  0
VERTEX
  5
35C
  8
TEAM-NET
 10
-49.029137
 20
-300.375876
 30
715.293552
 70
    64
  0
VERTEX
  5
35D
  8
TEAM-NET
 10
-51.834673
 20
-287.5
 30
707.585406
 70
    64
  0
VERTEX
  5
35E
  8
TEAM-NET
 10
-54.245716
 20
-273.958196
 30
700.961121
 70
    64
  0
VERTEX
  5
35F
  8
TEAM-NET
 10
-56.243916
 20
-259.853525
 30
695.471111
 70
    64
  0
VERTEX
  5
360
  8
TEAM-NET
 10
-57.814066
 20
-245.293333
 30
691.15716
 70
    64
  0
VERTEX
  5
361
  8
TEAM-NET
 10
-58.944216
 20
-230.388431
 30
688.052099
 70
    64
  0
VERTEX
  5
362
  8
TEAM-NET
 10
-59.625764
 20
-215.252255
 30
686.179559
 70
    64
  0
VERTEX
  5
363
  8
TEAM-NET
 10
-59.853525
 20
-200.0
 30
685.553791
 70
    64
  0
VERTEX
  5
364
  8
TEAM-NET
 10
-59.625764
 20
-184.747745
 30
686.179559
 70
    64
  0
VERTEX
  5
365
  8
TEAM-NET
 10
-58.944216
 20
-169.611569
 30
688.052099
 70
    64
  0
VERTEX
  5
366
  8
TEAM-NET
 10
-57.814066
 20
-154.706667
 30
691.15716
 70
    64
  0
VERTEX
  5
367
  8
TEAM-NET
 10
-56.243916
 20
-140.146475
 30
695.471111
 70
    64
  0
VERTEX
  5
368
  8
TEAM-NET
 10
-54.245716
 20
-126.041804
 30
700.961121
 70
    64
  0
VERTEX
  5
369
  8
TEAM-NET
 10
-51.834673
 20
-112.5
 30
707.585406
 70
    64
  0
VERTEX
  5
36A
  8
TEAM-NET
 10
-49.029137
 20
-99.624124
 30
715.293552
 70
    64
  0
VERTEX
  5
36B
  8
TEAM-NET
 10
-45.85046
 20
-87.512168
 30
724.026896
 70
    64
  0
VERTEX
  5
36C
  8
TEAM-NET
 10
-42.322833
 20
-76.256313
 30
733.718971
 70
    64
  0
VERTEX
  5
36D
  8
TEAM-NET
 10
-38.473104
 20
-65.942222
 30
744.296015
 70
    64
  0
VERTEX
  5
36E
  8
TEAM-NET
 10
-34.330572
 20
-56.648392
 30
755.67753
 70
    64
  0
VERTEX
  5
36F
  8
TEAM-NET
 10
-29.926763
 20
-48.445554
 30
767.776896
 70
    64
  0
VERTEX
  5
370
  8
TEAM-NET
 10
-25.295193
 20
-41.396137
 30
780.502029
 70
    64
  0
VERTEX
  5
371
  8
TEAM-NET
 10
-20.471111
 20
-35.553791
 30
793.756084
 70
    64
  0
VERTEX
  5
372
  8
TEAM-NET
 10
-15.491232
 20
-30.96298
 30
807.438189
 70
    64
  0
VERTEX
  5
373
  8
TEAM-NET
 10
-10.393456
 20
-27.658643
 30
821.444216
 70
    64
  0
VERTEX
  5
374
  8
TEAM-NET
 10
-5.216578
 20
-25.665928
 30
835.667569
 70
    64
  0
VERTEX
  5
375
  8
TEAM-NET
 10
0.0
 20
-25.0
 30
850.0
 70
    64
  0
VERTEX
  5
376
  8
TEAM-NET
 10
0.0
 20
-375.0
 30
850.0
 70
    64
  0
VERTEX
  5
377
  8
TEAM-NET
 10
-6.445881
 20
-374.334072
 30
836.176763
 70
    64
  0
VERTEX
  5
378
  8
TEAM-NET
 10
-12.842706
 20
-372.341357
 30
822.458728
 70
    64
  0
VERTEX
  5
379
  8
TEAM-NET
 10
-19.14179
 20
-369.03702
 30
808.9503
 70
    64
  0
VERTEX
  5
37A
  8
TEAM-NET
 10
-25.295193
 20
-364.446209
 30
795.754284
 70
    64
  0
VERTEX
  5
37B
  8
TEAM-NET
 10
-31.256084
 20
-358.603863
 30
782.971111
 70
    64
  0
VERTEX
  5
37C
  8
TEAM-NET
 10
-36.979098
 20
-351.554446
 30
770.698069
 70
    64
  0
VERTEX
  5
37D
  8
TEAM-NET
 10
-42.420678
 20
-343.351608
 30
759.028562
 70
    64
  0
VERTEX
  5
37E
  8
TEAM-NET
 10
-47.539412
 20
-334.057778
 30
748.051402
 70
    64
  0
VERTEX
  5
37F
  8
TEAM-NET
 10
-52.296342
 20
-323.743687
 30
737.850133
 70
    64
  0
VERTEX
  5
380
  8
TEAM-NET
 10
-56.655265
 20
-312.487832
 30
728.502392
 70
    64
  0
VERTEX
  5
381
  8
TEAM-NET
 10
-60.583007
 20
-300.375876
 30
720.079322
 70
    64
  0
VERTEX
  5
382
  8
TEAM-NET
 10
-64.049676
 20
-287.5
 30
712.645026
 70
    64
  0
VERTEX
  5
383
  8
TEAM-NET
 10
-67.028889
 20
-273.958196
 30
706.256084
 70
    64
  0
VERTEX
  5
384
  8
TEAM-NET
 10
-69.497971
 20
-259.853525
 30
700.961121
 70
    64
  0
VERTEX
  5
385
  8
TEAM-NET
 10
-71.438131
 20
-245.293333
 30
696.800433
 70
    64
  0
VERTEX
  5
386
  8
TEAM-NET
 10
-72.834605
 20
-230.388431
 30
693.805686
 70
    64
  0
VERTEX
  5
387
  8
TEAM-NET
 10
-73.676763
 20
-215.252255
 30
691.999673
 70
    64
  0
VERTEX
  5
388
  8
TEAM-NET
 10
-73.958196
 20
-200.0
 30
691.396137
 70
    64
  0
VERTEX
  5
389
  8
TEAM-NET
 10
-73.676763
 20
-184.747745
 30
691.999673
 70
    64
  0
VERTEX
  5
38A
  8
TEAM-NET
 10
-72.834605
 20
-169.611569
 30
693.805686
 70
    64
  0
VERTEX
  5
38B
  8
TEAM-NET
 10
-71.438131
 20
-154.706667
 30
696.800433
 70
    64
  0
VERTEX
  5
38C
  8
TEAM-NET
 10
-69.497971
 20
-140.146475
 30
700.961121
 70
    64
  0
VERTEX
  5
38D
  8
TEAM-NET
 10
-67.028889
 20
-126.041804
 30
706.256084
 70
    64
  0
VERTEX
  5
38E
  8
TEAM-NET
 10
-64.049676
 20
-112.5
 30
712.645026
 70
    64
  0
VERTEX
  5
38F
  8
TEAM-NET
 10
-60.583007
 20
-99.624124
 30
720.079322
 70
    64
  0
VERTEX
  5
390
  8
TEAM-NET
 10
-56.655265
 20
-87.512168
 30
728.502392
 70
    64
  0
VERTEX
  5
391
  8
TEAM-NET
 10
-52.296342
 20
-76.256313
 30
737.850133
 70
    64
  0
VERTEX
  5
392
  8
TEAM-NET
 10
-47.539412
 20
-65.942222
 30
748.051402
 70
    64
  0
VERTEX
  5
393
  8
TEAM-NET
 10
-42.420678
 20
-56.648392
 30
759.028562
 70
    64
  0
VERTEX
  5
394
  8
TEAM-NET
 10
-36.979098
 20
-48.445554
 30
770.698069
 70
    64
  0
VERTEX
  5
395
  8
TEAM-NET
 10
-31.256084
 20
-41.396137
 30
782.971111
 70
    64
  0
VERTEX
  5
396
  8
TEAM-NET
 10
-25.295193
 20
-35.553791
 30
795.754284
 70
    64
  0
VERTEX
  5
397
  8
TEAM-NET
 10
-19.14179
 20
-30.96298
 30
808.9503
 70
    64
  0
VERTEX
  5
398
  8
TEAM-NET
 10
-12.842706
 20
-27.658643
 30
822.458728
 70
    64
  0
VERTEX
  5
399
  8
TEAM-NET
 10
-6.445881
 20
-25.665928
 30
836.176763
 70
    64
  0
VERTEX
  5
39A
  8
TEAM-NET
 10
0.0
 20
-25.0
 30
850.0
 70
    64
  0
VERTEX
  5
39B
  8
TEAM-NET
 10
0.0
 20
-375.0
 30
850.0
 70
    64
  0
VERTEX
  5
39C
  8
TEAM-NET
 10
-7.626127
 20
-374.334072
 30
836.79116
 70
    64
  0
VERTEX
  5
39D
  8
TEAM-NET
 10
-15.194216
 20
-372.341357
 30
823.682847
 70
    64
  0
VERTEX
  5
39E
  8
TEAM-NET
 10
-22.646666
 20
-369.03702
 30
810.774823
 70
    64
  0
VERTEX
  5
39F
  8
TEAM-NET
 10
-29.926763
 20
-364.446209
 30
798.165327
 70
    64
  0
VERTEX
  5
3A0
  8
TEAM-NET
 10
-36.979098
 20
-358.603863
 30
785.950324
 70
    64
  0
VERTEX
  5
3A1
  8
TEAM-NET
 10
-43.75
 20
-351.554446
 30
774.222777
 70
    64
  0
VERTEX
  5
3A2
  8
TEAM-NET
 10
-50.187938
 20
-343.351608
 30
763.071941
 70
    64
  0
VERTEX
  5
3A3
  8
TEAM-NET
 10
-56.243916
 20
-334.057778
 30
752.58268
 70
    64
  0
VERTEX
  5
3A4
  8
TEAM-NET
 10
-61.871843
 20
-323.743687
 30
742.834824
 70
    64
  0
VERTEX
  5
3A5
  8
TEAM-NET
 10
-67.028889
 20
-312.487832
 30
733.902559
 70
    64
  0
VERTEX
  5
3A6
  8
TEAM-NET
 10
-71.675804
 20
-300.375876
 30
725.853866
 70
    64
  0
VERTEX
  5
3A7
  8
TEAM-NET
 10
-75.777223
 20
-287.5
 30
718.75
 70
    64
  0
VERTEX
  5
3A8
  8
TEAM-NET
 10
-79.301931
 20
-273.958196
 30
712.645026
 70
    64
  0
VERTEX
  5
3A9
  8
TEAM-NET
 10
-82.223104
 20
-259.853525
 30
707.585406
 70
    64
  0
VERTEX
  5
3AA
  8
TEAM-NET
 10
-84.51851
 20
-245.293333
 30
703.609647
 70
    64
  0
VERTEX
  5
3AB
  8
TEAM-NET
 10
-86.170678
 20
-230.388431
 30
700.748007
 70
    64
  0
VERTEX
  5
3AC
  8
TEAM-NET
 10
-87.167036
 20
-215.252255
 30
699.022265
 70
    64
  0
VERTEX
  5
3AD
  8
TEAM-NET
 10
-87.5
 20
-200.0
 30
698.445554
 70
    64
  0
VERTEX
  5
3AE
  8
TEAM-NET
 10
-87.167036
 20
-184.747745
 30
699.022265
 70
    64
  0
VERTEX
  5
3AF
  8
TEAM-NET
 10
-86.170678
 20
-169.611569
 30
700.748007
 70
    64
  0
VERTEX
  5
3B0
  8
TEAM-NET
 10
-84.51851
 20
-154.706667
 30
703.609647
 70
    64
  0
VERTEX
  5
3B1
  8
TEAM-NET
 10
-82.223104
 20
-140.146475
 30
707.585406
 70
    64
  0
VERTEX
  5
3B2
  8
TEAM-NET
 10
-79.301931
 20
-126.041804
 30
712.645026
 70
    64
  0
VERTEX
  5
3B3
  8
TEAM-NET
 10
-75.777223
 20
-112.5
 30
718.75
 70
    64
  0
VERTEX
  5
3B4
  8
TEAM-NET
 10
-71.675804
 20
-99.624124
 30
725.853866
 70
    64
  0
VERTEX
  5
3B5
  8
TEAM-NET
 10
-67.028889
 20
-87.512168
 30
733.902559
 70
    64
  0
VERTEX
  5
3B6
  8
TEAM-NET
 10
-61.871843
 20
-76.256313
 30
742.834824
 70
    64
  0
VERTEX
  5
3B7
  8
TEAM-NET
 10
-56.243916
 20
-65.942222
 30
752.58268
 70
    64
  0
VERTEX
  5
3B8
  8
TEAM-NET
 10
-50.187938
 20
-56.648392
 30
763.071941
 70
    64
  0
VERTEX
  5
3B9
  8
TEAM-NET
 10
-43.75
 20
-48.445554
 30
774.222777
 70
    64
  0
VERTEX
  5
3BA
  8
TEAM-NET
 10
-36.979098
 20
-41.396137
 30
785.950324
 70
    64
  0
VERTEX
  5
3BB
  8
TEAM-NET
 10
-29.926763
 20
-35.553791
 30
798.165327
 70
    64
  0
VERTEX
  5
3BC
  8
TEAM-NET
 10
-22.646666
 20
-30.96298
 30
810.774823
 70
    64
  0
VERTEX
  5
3BD
  8
TEAM-NET
 10
-15.194216
 20
-27.658643
 30
823.682847
 70
    64
  0
VERTEX
  5
3BE
  8
TEAM-NET
 10
-7.626127
 20
-25.665928
 30
836.79116
 70
    64
  0
VERTEX
  5
3BF
  8
TEAM-NET
 10
0.0
 20
-25.0
 30
850.0
 70
    64
  0
VERTEX
  5
3C0
  8
TEAM-NET
 10
0.0
 20
-375.0
 30
850.0
 70
    64
  0
VERTEX
  5
3C1
  8
TEAM-NET
 10
-8.748334
 20
-374.334072
 30
837.506084
 70
    64
  0
VERTEX
  5
3C2
  8
TEAM-NET
 10
-17.430088
 20
-372.341357
 30
825.107255
 70
    64
  0
VERTEX
  5
3C3
  8
TEAM-NET
 10
-25.979188
 20
-369.03702
 30
812.897874
 70
    64
  0
VERTEX
  5
3C4
  8
TEAM-NET
 10
-34.330572
 20
-364.446209
 30
800.970863
 70
    64
  0
VERTEX
  5
3C5
  8
TEAM-NET
 10
-42.420678
 20
-358.603863
 30
789.416993
 70
    64
  0
VERTEX
  5
3C6
  8
TEAM-NET
 10
-50.187938
 20
-351.554446
 30
778.324196
 70
    64
  0
VERTEX
  5
3C7
  8
TEAM-NET
 10
-57.573237
 20
-343.351608
 30
767.776896
 70
    64
  0
VERTEX
  5
3C8
  8
TEAM-NET
 10
-64.52037
 20
-334.057778
 30
757.855363
 70
    64
  0
VERTEX
  5
3C9
  8
TEAM-NET
 10
-70.976463
 20
-323.743687
 30
748.635106
 70
    64
  0
VERTEX
  5
3CA
  8
TEAM-NET
 10
-76.892382
 20
-312.487832
 30
740.186297
 70
    64
  0
VERTEX
  5
3CB
  8
TEAM-NET
 10
-82.223104
 20
-300.375876
 30
732.573237
 70
    64
  0
VERTEX
  5
3CC
  8
TEAM-NET
 10
-86.928059
 20
-287.5
 30
725.853866
 70
    64
  0
VERTEX
  5
3CD
  8
TEAM-NET
 10
-90.971438
 20
-273.958196
 30
720.079322
 70
    64
  0
VERTEX
  5
3CE
  8
TEAM-NET
 10
-94.32247
 20
-259.853525
 30
715.293552
 70
    64
  0
VERTEX
  5
3CF
  8
TEAM-NET
 10
-96.955651
 20
-245.293333
 30
711.53298
 70
    64
  0
VERTEX
  5
3D0
  8
TEAM-NET
 10
-98.850941
 20
-230.388431
 30
708.826225
 70
    64
  0
VERTEX
  5
3D1
  8
TEAM-NET
 10
-99.993916
 20
-215.252255
 30
707.193888
 70
    64
  0
VERTEX
  5
3D2
  8
TEAM-NET
 10
-100.375876
 20
-200.0
 30
706.648392
 70
    64
  0
VERTEX
  5
3D3
  8
TEAM-NET
 10
-99.993916
 20
-184.747745
 30
707.193888
 70
    64
  0
VERTEX
  5
3D4
  8
TEAM-NET
 10
-98.850941
 20
-169.611569
 30
708.826225
 70
    64
  0
VERTEX
  5
3D5
  8
TEAM-NET
 10
-96.955651
 20
-154.706667
 30
711.53298
 70
    64
  0
VERTEX
  5
3D6
  8
TEAM-NET
 10
-94.32247
 20
-140.146475
 30
715.293552
 70
    64
  0
VERTEX
  5
3D7
  8
TEAM-NET
 10
-90.971438
 20
-126.041804
 30
720.079322
 70
    64
  0
VERTEX
  5
3D8
  8
TEAM-NET
 10
-86.928059
 20
-112.5
 30
725.853866
 70
    64
  0
VERTEX
  5
3D9
  8
TEAM-NET
 10
-82.223104
 20
-99.624124
 30
732.573237
 70
    64
  0
VERTEX
  5
3DA
  8
TEAM-NET
 10
-76.892382
 20
-87.512168
 30
740.186297
 70
    64
  0
VERTEX
  5
3DB
  8
TEAM-NET
 10
-70.976463
 20
-76.256313
 30
748.635106
 70
    64
  0
VERTEX
  5
3DC
  8
TEAM-NET
 10
-64.52037
 20
-65.942222
 30
757.855363
 70
    64
  0
VERTEX
  5
3DD
  8
TEAM-NET
 10
-57.573237
 20
-56.648392
 30
767.776896
 70
    64
  0
VERTEX
  5
3DE
  8
TEAM-NET
 10
-50.187938
 20
-48.445554
 30
778.324196
 70
    64
  0
VERTEX
  5
3DF
  8
TEAM-NET
 10
-42.420678
 20
-41.396137
 30
789.416993
 70
    64
  0
VERTEX
  5
3E0
  8
TEAM-NET
 10
-34.330572
 20
-35.553791
 30
800.970863
 70
    64
  0
VERTEX
  5
3E1
  8
TEAM-NET
 10
-25.979188
 20
-30.96298
 30
812.897874
 70
    64
  0
VERTEX
  5
3E2
  8
TEAM-NET
 10
-17.430088
 20
-27.658643
 30
825.107255
 70
    64
  0
VERTEX
  5
3E3
  8
TEAM-NET
 10
-8.748334
 20
-25.665928
 30
837.506084
 70
    64
  0
VERTEX
  5
3E4
  8
TEAM-NET
 10
0.0
 20
-25.0
 30
850.0
 70
    64
  0
VERTEX
  5
3E5
  8
TEAM-NET
 10
0.0
 20
-375.0
 30
850.0
 70
    64
  0
VERTEX
  5
3E6
  8
TEAM-NET
 10
-9.803961
 20
-374.334072
 30
838.316095
 70
    64
  0
VERTEX
  5
3E7
  8
TEAM-NET
 10
-19.533307
 20
-372.341357
 30
826.721111
 70
    64
  0
VERTEX
  5
3E8
  8
TEAM-NET
 10
-29.113993
 20
-369.03702
 30
815.303294
 70
    64
  0
VERTEX
  5
3E9
  8
TEAM-NET
 10
-38.473104
 20
-364.446209
 30
804.14954
 70
    64
  0
VERTEX
  5
3EA
  8
TEAM-NET
 10
-47.539412
 20
-358.603863
 30
793.344735
 70
    64
  0
VERTEX
  5
3EB
  8
TEAM-NET
 10
-56.243916
 20
-351.554446
 30
782.971111
 70
    64
  0
VERTEX
  5
3EC
  8
TEAM-NET
 10
-64.52037
 20
-343.351608
 30
773.107618
 70
    64
  0
VERTEX
  5
3ED
  8
TEAM-NET
 10
-72.305784
 20
-334.057778
 30
763.829322
 70
    64
  0
VERTEX
  5
3EE
  8
TEAM-NET
 10
-79.540909
 20
-323.743687
 30
755.206836
 70
    64
  0
VERTEX
  5
3EF
  8
TEAM-NET
 10
-86.170678
 20
-312.487832
 30
747.305784
 70
    64
  0
VERTEX
  5
3F0
  8
TEAM-NET
 10
-92.144637
 20
-300.375876
 30
740.186297
 70
    64
  0
VERTEX
  5
3F1
  8
TEAM-NET
 10
-97.41732
 20
-287.5
 30
733.902559
 70
    64
  0
VERTEX
  5
3F2
  8
TEAM-NET
 10
-101.948598
 20
-273.958196
 30
728.502392
 70
    64
  0
VERTEX
  5
3F3
  8
TEAM-NET
 10
-105.703985
 20
-259.853525
 30
724.026896
 70
    64
  0
VERTEX
  5
3F4
  8
TEAM-NET
 10
-108.654902
 20
-245.293333
 30
720.51013
 70
    64
  0
VERTEX
  5
3F5
  8
TEAM-NET
 10
-110.778889
 20
-230.388431
 30
717.978861
 70
    64
  0
VERTEX
  5
3F6
  8
TEAM-NET
 10
-112.059782
 20
-215.252255
 30
716.452353
 70
    64
  0
VERTEX
  5
3F7
  8
TEAM-NET
 10
-112.487832
 20
-200.0
 30
715.942222
 70
    64
  0
VERTEX
  5
3F8
  8
TEAM-NET
 10
-112.059782
 20
-184.747745
 30
716.452353
 70
    64
  0
VERTEX
  5
3F9
  8
TEAM-NET
 10
-110.778889
 20
-169.611569
 30
717.978861
 70
    64
  0
VERTEX
  5
3FA
  8
TEAM-NET
 10
-108.654902
 20
-154.706667
 30
720.51013
 70
    64
  0
VERTEX
  5
3FB
  8
TEAM-NET
 10
-105.703985
 20
-140.146475
 30
724.026896
 70
    64
  0
VERTEX
  5
3FC
  8
TEAM-NET
 10
-101.948598
 20
-126.041804
 30
728.502392
 70
    64
  0
VERTEX
  5
3FD
  8
TEAM-NET
 10
-97.41732
 20
-112.5
 30
733.902559
 70
    64
  0
VERTEX
  5
3FE
  8
TEAM-NET
 10
-92.144637
 20
-99.624124
 30
740.186297
 70
    64
  0
VERTEX
  5
3FF
  8
TEAM-NET
 10
-86.170678
 20
-87.512168
 30
747.305784
 70
    64
  0
VERTEX
  5
400
  8
TEAM-NET
 10
-79.540909
 20
-76.256313
 30
755.206836
 70
    64
  0
VERTEX
  5
401
  8
TEAM-NET
 10
-72.305784
 20
-65.942222
 30
763.829322
 70
    64
  0
VERTEX
  5
402
  8
TEAM-NET
 10
-64.52037
 20
-56.648392
 30
773.107618
 70
    64
  0
VERTEX
  5
403
  8
TEAM-NET
 10
-56.243916
 20
-48.445554
 30
782.971111
 70
    64
  0
VERTEX
  5
404
  8
TEAM-NET
 10
-47.539412
 20
-41.396137
 30
793.344735
 70
    64
  0
VERTEX
  5
405
  8
TEAM-NET
 10
-38.473104
 20
-35.553791
 30
804.14954
 70
    64
  0
VERTEX
  5
406
  8
TEAM-NET
 10
-29.113993
 20
-30.96298
 30
815.303294
 70
    64
  0
VERTEX
  5
407
  8
TEAM-NET
 10
-19.533307
 20
-27.658643
 30
826.721111
 70
    64
  0
VERTEX
  5
408
  8
TEAM-NET
 10
-9.803961
 20
-25.665928
 30
838.316095
 70
    64
  0
VERTEX
  5
409
  8
TEAM-NET
 10
0.0
 20
-25.0
 30
850.0
 70
    64
  0
VERTEX
  5
40A
  8
TEAM-NET
 10
0.0
 20
-375.0
 30
850.0
 70
    64
  0
VERTEX
  5
40B
  8
TEAM-NET
 10
-10.784973
 20
-374.334072
 30
839.215027
 70
    64
  0
VERTEX
  5
40C
  8
TEAM-NET
 10
-21.487866
 20
-372.341357
 30
828.512134
 70
    64
  0
VERTEX
  5
40D
  8
TEAM-NET
 10
-32.027223
 20
-369.03702
 30
817.972777
 70
    64
  0
VERTEX
  5
40E
  8
TEAM-NET
 10
-42.322833
 20
-364.446209
 30
807.677167
 70
    64
  0
VERTEX
  5
40F
  8
TEAM-NET
 10
-52.296342
 20
-358.603863
 30
797.703658
 70
    64
  0
VERTEX
  5
410
  8
TEAM-NET
 10
-61.871843
 20
-351.554446
 30
788.128157
 70
    64
  0
VERTEX
  5
411
  8
TEAM-NET
 10
-70.976463
 20
-343.351608
 30
779.023537
 70
    64
  0
VERTEX
  5
412
  8
TEAM-NET
 10
-79.540909
 20
-334.057778
 30
770.459091
 70
    64
  0
VERTEX
  5
413
  8
TEAM-NET
 10
-87.5
 20
-323.743687
 30
762.5
 70
    64
  0
VERTEX
  5
414
  8
TEAM-NET
 10
-94.793164
 20
-312.487832
 30
755.206836
 70
    64
  0
VERTEX
  5
415
  8
TEAM-NET
 10
-101.364894
 20
-300.375876
 30
748.635106
 70
    64
  0
VERTEX
  5
416
  8
TEAM-NET
 10
-107.165176
 20
-287.5
 30
742.834824
 70
    64
  0
VERTEX
  5
417
  8
TEAM-NET
 10
-112.149867
 20
-273.958196
 30
737.850133
 70
    64
  0
VERTEX
  5
418
  8
TEAM-NET
 10
-116.281029
 20
-259.853525
 30
733.718971
 70
    64
  0
VERTEX
  5
419
  8
TEAM-NET
 10
-119.527223
 20
-245.293333
 30
730.472777
 70
    64
  0
VERTEX
  5
41A
  8
TEAM-NET
 10
-121.863742
 20
-230.388431
 30
728.136258
 70
    64
  0
VERTEX
  5
41B
  8
TEAM-NET
 10
-123.272805
 20
-215.252255
 30
726.727195
 70
    64
  0
VERTEX
  5
41C
  8
TEAM-NET
 10
-123.743687
 20
-200.0
 30
726.256313
 70
    64
  0
VERTEX
  5
41D
  8
TEAM-NET
 10
-123.272805
 20
-184.747745
 30
726.727195
 70
    64
  0
VERTEX
  5
41E
  8
TEAM-NET
 10
-121.863742
 20
-169.611569
 30
728.136258
 70
    64
  0
VERTEX
  5
41F
  8
TEAM-NET
 10
-119.527223
 20
-154.706667
 30
730.472777
 70
    64
  0
VERTEX
  5
420
  8
TEAM-NET
 10
-116.281029
 20
-140.146475
 30
733.718971
 70
    64
  0
VERTEX
  5
421
  8
TEAM-NET
 10
-112.149867
 20
-126.041804
 30
737.850133
 70
    64
  0
VERTEX
  5
422
  8
TEAM-NET
 10
-107.165176
 20
-112.5
 30
742.834824
 70
    64
  0
VERTEX
  5
423
  8
TEAM-NET
 10
-101.364894
 20
-99.624124
 30
748.635106
 70
    64
  0
VERTEX
  5
424
  8
TEAM-NET
 10
-94.793164
 20
-87.512168
 30
755.206836
 70
    64
  0
VERTEX
  5
425
  8
TEAM-NET
 10
-87.5
 20
-76.256313
 30
762.5
 70
    64
  0
VERTEX
  5
426
  8
TEAM-NET
 10
-79.540909
 20
-65.942222
 30
770.459091
 70
    64
  0
VERTEX
  5
427
  8
TEAM-NET
 10
-70.976463
 20
-56.648392
 30
779.023537
 70
    64
  0
VERTEX
  5
428
  8
TEAM-NET
 10
-61.871843
 20
-48.445554
 30
788.128157
 70
    64
  0
VERTEX
  5
429
  8
TEAM-NET
 10
-52.296342
 20
-41.396137
 30
797.703658
 70
    64
  0
VERTEX
  5
42A
  8
TEAM-NET
 10
-42.322833
 20
-35.553791
 30
807.677167
 70
    64
  0
VERTEX
  5
42B
  8
TEAM-NET
 10
-32.027223
 20
-30.96298
 30
817.972777
 70
    64
  0
VERTEX
  5
42C
  8
TEAM-NET
 10
-21.487866
 20
-27.658643
 30
828.512134
 70
    64
  0
VERTEX
  5
42D
  8
TEAM-NET
 10
-10.784973
 20
-25.665928
 30
839.215027
 70
    64
  0
VERTEX
  5
42E
  8
TEAM-NET
 10
0.0
 20
-25.0
 30
850.0
 70
    64
  0
VERTEX
  5
42F
  8
TEAM-NET
 10
0.0
 20
-375.0
 30
850.0
 70
    64
  0
VERTEX
  5
430
  8
TEAM-NET
 10
-11.683905
 20
-374.334072
 30
840.196039
 70
    64
  0
VERTEX
  5
431
  8
TEAM-NET
 10
-23.278889
 20
-372.341357
 30
830.466693
 70
    64
  0
VERTEX
  5
432
  8
TEAM-NET
 10
-34.696706
 20
-369.03702
 30
820.886007
 70
    64
  0
VERTEX
  5
433
  8
TEAM-NET
 10
-45.85046
 20
-364.446209
 30
811.526896
 70
    64
  0
VERTEX
  5
434
  8
TEAM-NET
 10
-56.655265
 20
-358.603863
 30
802.460588
 70
    64
  0
VERTEX
  5
435
  8
TEAM-NET
 10
-67.028889
 20
-351.554446
 30
793.756084
 70
    64
  0
VERTEX
  5
436
  8
TEAM-NET
 10
-76.892382
 20
-343.351608
 30
785.47963
 70
    64
  0
VERTEX
  5
437
  8
TEAM-NET
 10
-86.170678
 20
-334.057778
 30
777.694216
 70
    64
  0
VERTEX
  5
438
  8
TEAM-NET
 10
-94.793164
 20
-323.743687
 30
770.459091
 70
    64
  0
VERTEX
  5
439
  8
TEAM-NET
 10
-102.694216
 20
-312.487832
 30
763.829322
 70
    64
  0
VERTEX
  5
43A
  8
TEAM-NET
 10
-109.813703
 20
-300.375876
 30
757.855363
 70
    64
  0
VERTEX
  5
43B
  8
TEAM-NET
 10
-116.097441
 20
-287.5
 30
752.58268
 70
    64
  0
VERTEX
  5
43C
  8
TEAM-NET
 10
-121.497608
 20
-273.958196
 30
748.051402
 70
    64
  0
VERTEX
  5
43D
  8
TEAM-NET
 10
-125.973104
 20
-259.853525
 30
744.296015
 70
    64
  0
VERTEX
  5
43E
  8
TEAM-NET
 10
-129.48987
 20
-245.293333
 30
741.345098
 70
    64
  0
VERTEX
  5
43F
  8
TEAM-NET
 10
-132.021139
 20
-230.388431
 30
739.221111
 70
    64
  0
VERTEX
  5
440
  8
TEAM-NET
 10
-133.547647
 20
-215.252255
 30
737.940218
 70
    64
  0
VERTEX
  5
441
  8
TEAM-NET
 10
-134.057778
 20
-200.0
 30
737.512168
 70
    64
  0
VERTEX
  5
442
  8
TEAM-NET
 10
-133.547647
 20
-184.747745
 30
737.940218
 70
    64
  0
VERTEX
  5
443
  8
TEAM-NET
 10
-132.021139
 20
-169.611569
 30
739.221111
 70
    64
  0
VERTEX
  5
444
  8
TEAM-NET
 10
-129.48987
 20
-154.706667
 30
741.345098
 70
    64
  0
VERTEX
  5
445
  8
TEAM-NET
 10
-125.973104
 20
-140.146475
 30
744.296015
 70
    64
  0
VERTEX
  5
446
  8
TEAM-NET
 10
-121.497608
 20
-126.041804
 30
748.051402
 70
    64
  0
VERTEX
  5
447
  8
TEAM-NET
 10
-116.097441
 20
-112.5
 30
752.58268
 70
    64
  0
VERTEX
  5
448
  8
TEAM-NET
 10
-109.813703
 20
-99.624124
 30
757.855363
 70
    64
  0
VERTEX
  5
449
  8
TEAM-NET
 10
-102.694216
 20
-87.512168
 30
763.829322
 70
    64
  0
VERTEX
  5
44A
  8
TEAM-NET
 10
-94.793164
 20
-76.256313
 30
770.459091
 70
    64
  0
VERTEX
  5
44B
  8
TEAM-NET
 10
-86.170678
 20
-65.942222
 30
777.694216
 70
    64
  0
VERTEX
  5
44C
  8
TEAM-NET
 10
-76.892382
 20
-56.648392
 30
785.47963
 70
    64
  0
VERTEX
  5
44D
  8
TEAM-NET
 10
-67.028889
 20
-48.445554
 30
793.756084
 70
    64
  0
VERTEX
  5
44E
  8
TEAM-NET
 10
-56.655265
 20
-41.396137
 30
802.460588
 70
    64
  0
VERTEX
  5
44F
  8
TEAM-NET
 10
-45.85046
 20
-35.553791
 30
811.526896
 70
    64
  0
VERTEX
  5
450
  8
TEAM-NET
 10
-34.696706
 20
-30.96298
 30
820.886007
 70
    64
  0
VERTEX
  5
451
  8
TEAM-NET
 10
-23.278889
 20
-27.658643
 30
830.466693
 70
    64
  0
VERTEX
  5
452
  8
TEAM-NET
 10
-11.683905
 20
-25.665928
 30
840.196039
 70
    64
  0
VERTEX
  5
453
  8
TEAM-NET
 10
0.0
 20
-25.0
 30
850.0
 70
    64
  0
VERTEX
  5
454
  8
TEAM-NET
 10
0.0
 20
-375.0
 30
850.0
 70
    64
  0
VERTEX
  5
455
  8
TEAM-NET
 10
-12.493916
 20
-374.334072
 30
841.251666
 70
    64
  0
VERTEX
  5
456
  8
TEAM-NET
 10
-24.892745
 20
-372.341357
 30
832.569912
 70
    64
  0
VERTEX
  5
457
  8
TEAM-NET
 10
-37.102126
 20
-369.03702
 30
824.020812
 70
    64
  0
VERTEX
  5
458
  8
TEAM-NET
 10
-49.029137
 20
-364.446209
 30
815.669428
 70
    64
  0
VERTEX
  5
459
  8
TEAM-NET
 10
-60.583007
 20
-358.603863
 30
807.579322
 70
    64
  0
VERTEX
  5
45A
  8
TEAM-NET
 10
-71.675804
 20
-351.554446
 30
799.812062
 70
    64
  0
VERTEX
  5
45B
  8
TEAM-NET
 10
-82.223104
 20
-343.351608
 30
792.426763
 70
    64
  0
VERTEX
  5
45C
  8
TEAM-NET
 10
-92.144637
 20
-334.057778
 30
785.47963
 70
    64
  0
VERTEX
  5
45D
  8
TEAM-NET
 10
-101.364894
 20
-323.743687
 30
779.023537
 70
    64
  0
VERTEX
  5
45E
  8
TEAM-NET
 10
-109.813703
 20
-312.487832
 30
773.107618
 70
    64
  0
VERTEX
  5
45F
  8
TEAM-NET
 10
-117.426763
 20
-300.375876
 30
767.776896
 70
    64
  0
VERTEX
  5
460
  8
TEAM-NET
 10
-124.146134
 20
-287.5
 30
763.071941
 70
    64
  0
VERTEX
  5
461
  8
TEAM-NET
 10
-129.920678
 20
-273.958196
 30
759.028562
 70
    64
  0
VERTEX
  5
462
  8
TEAM-NET
 10
-134.706448
 20
-259.853525
 30
755.67753
 70
    64
  0
VERTEX
  5
463
  8
TEAM-NET
 10
-138.46702
 20
-245.293333
 30
753.044349
 70
    64
  0
VERTEX
  5
464
  8
TEAM-NET
 10
-141.173775
 20
-230.388431
 30
751.149059
 70
    64
  0
VERTEX
  5
465
  8
TEAM-NET
 10
-142.806112
 20
-215.252255
 30
750.006084
 70
    64
  0
VERTEX
  5
466
  8
TEAM-NET
 10
-143.351608
 20
-200.0
 30
749.624124
 70
    64
  0
VERTEX
  5
467
  8
TEAM-NET
 10
-142.806112
 20
-184.747745
 30
750.006084
 70
    64
  0
VERTEX
  5
468
  8
TEAM-NET
 10
-141.173775
 20
-169.611569
 30
751.149059
 70
    64
  0
VERTEX
  5
469
  8
TEAM-NET
 10
-138.46702
 20
-154.706667
 30
753.044349
 70
    64
  0
VERTEX
  5
46A
  8
TEAM-NET
 10
-134.706448
 20
-140.146475
 30
755.67753
 70
    64
  0
VERTEX
  5
46B
  8
TEAM-NET
 10
-129.920678
 20
-126.041804
 30
759.028562
 70
    64
  0
VERTEX
  5
46C
  8
TEAM-NET
 10
-124.146134
 20
-112.5
 30
763.071941
 70
    64
  0
VERTEX
  5
46D
  8
TEAM-NET
 10
-117.426763
 20
-99.624124
 30
767.776896
 70
    64
  0
VERTEX
  5
46E
  8
TEAM-NET
 10
-109.813703
 20
-87.512168
 30
773.107618
 70
    64
  0
VERTEX
  5
46F
  8
TEAM-NET
 10
-101.364894
 20
-76.256313
 30
779.023537
 70
    64
  0
VERTEX
  5
470
  8
TEAM-NET
 10
-92.144637
 20
-65.942222
 30
785.47963
 70
    64
  0
VERTEX
  5
471
  8
TEAM-NET
 10
-82.223104
 20
-56.648392
 30
792.426763
 70
    64
  0
VERTEX
  5
472
  8
TEAM-NET
 10
-71.675804
 20
-48.445554
 30
799.812062
 70
    64
  0
VERTEX
  5
473
  8
TEAM-NET
 10
-60.583007
 20
-41.396137
 30
807.579322
 70
    64
  0
VERTEX
  5
474
  8
TEAM-NET
 10
-49.029137
 20
-35.553791
 30
815.669428
 70
    64
  0
VERTEX
  5
475
  8
TEAM-NET
 10
-37.102126
 20
-30.96298
 30
824.020812
 70
    64
  0
VERTEX
  5
476
  8
TEAM-NET
 10
-24.892745
 20
-27.658643
 30
832.569912
 70
    64
  0
VERTEX
  5
477
  8
TEAM-NET
 10
-12.493916
 20
-25.665928
 30
841.251666
 70
    64
  0
VERTEX
  5
478
  8
TEAM-NET
 10
0.0
 20
-25.0
 30
850.0
 70
    64
  0
VERTEX
  5
479
  8
TEAM-NET
 10
0.0
 20
-375.0
 30
850.0
 70
    64
  0
VERTEX
  5
47A
  8
TEAM-NET
 10
-13.20884
 20
-374.334072
 30
842.373873
 70
    64
  0
VERTEX
  5
47B
  8
TEAM-NET
 10
-26.317153
 20
-372.341357
 30
834.805784
 70
    64
  0
VERTEX
  5
47C
  8
TEAM-NET
 10
-39.225177
 20
-369.03702
 30
827.353334
 70
    64
  0
VERTEX
  5
47D
  8
TEAM-NET
 10
-51.834673
 20
-364.446209
 30
820.073237
 70
    64
  0
VERTEX
  5
47E
  8
TEAM-NET
 10
-64.049676
 20
-358.603863
 30
813.020902
 70
    64
  0
VERTEX
  5
47F
  8
TEAM-NET
 10
-75.777223
 20
-351.554446
 30
806.25
 70
    64
  0
VERTEX
  5
480
  8
TEAM-NET
 10
-86.928059
 20
-343.351608
 30
799.812062
 70
    64
  0
VERTEX
  5
481
  8
TEAM-NET
 10
-97.41732
 20
-334.057778
 30
793.756084
 70
    64
  0
VERTEX
  5
482
  8
TEAM-NET
 10
-107.165176
 20
-323.743687
 30
788.128157
 70
    64
  0
VERTEX
  5
483
  8
TEAM-NET
 10
-116.097441
 20
-312.487832
 30
782.971111
 70
    64
  0
VERTEX
  5
484
  8
TEAM-NET
 10
-124.146134
 20
-300.375876
 30
778.324196
 70
    64
  0
VERTEX
  5
485
  8
TEAM-NET
 10
-131.25
 20
-287.5
 30
774.222777
 70
    64
  0
VERTEX
  5
486
  8
TEAM-NET
 10
-137.354974
 20
-273.958196
 30
770.698069
 70
    64
  0
VERTEX
  5
487
  8
TEAM-NET
 10
-142.414594
 20
-259.853525
 30
767.776896
 70
    64
  0
VERTEX
  5
488
  8
TEAM-NET
 10
-146.390353
 20
-245.293333
 30
765.48149
 70
    64
  0
VERTEX
  5
489
  8
TEAM-NET
 10
-149.251993
 20
-230.388431
 30
763.829322
 70
    64
  0
VERTEX
  5
48A
  8
TEAM-NET
 10
-150.977735
 20
-215.252255
 30
762.832964
 70
    64
  0
VERTEX
  5
48B
  8
TEAM-NET
 10
-151.554446
 20
-200.0
 30
762.5
 70
    64
  0
VERTEX
  5
48C
  8
TEAM-NET
 10
-150.977735
 20
-184.747745
 30
762.832964
 70
    64
  0
VERTEX
  5
48D
  8
TEAM-NET
 10
-149.251993
 20
-169.611569
 30
763.829322
 70
    64
  0
VERTEX
  5
48E
  8
TEAM-NET
 10
-146.390353
 20
-154.706667
 30
765.48149
 70
    64
  0
VERTEX
  5
48F
  8
TEAM-NET
 10
-142.414594
 20
-140.146475
 30
767.776896
 70
    64
  0
VERTEX
  5
490
  8
TEAM-NET
 10
-137.354974
 20
-126.041804
 30
770.698069
 70
    64
  0
VERTEX
  5
491
  8
TEAM-NET
 10
-131.25
 20
-112.5
 30
774.222777
 70
    64
  0
VERTEX
  5
492
  8
TEAM-NET
 10
-124.146134
 20
-99.624124
 30
778.324196
 70
    64
  0
VERTEX
  5
493
  8
TEAM-NET
 10
-116.097441
 20
-87.512168
 30
782.971111
 70
    64
  0
VERTEX
  5
494
  8
TEAM-NET
 10
-107.165176
 20
-76.256313
 30
788.128157
 70
    64
  0
VERTEX
  5
495
  8
TEAM-NET
 10
-97.41732
 20
-65.942222
 30
793.756084
 70
    64
  0
VERTEX
  5
496
  8
TEAM-NET
 10
-86.928059
 20
-56.648392
 30
799.812062
 70
    64
  0
VERTEX
  5
497
  8
TEAM-NET
 10
-75.777223
 20
-48.445554
 30
806.25
 70
    64
  0
VERTEX
  5
498
  8
TEAM-NET
 10
-64.049676
 20
-41.396137
 30
813.020902
 70
    64
  0
VERTEX
  5
499
  8
TEAM-NET
 10
-51.834673
 20
-35.553791
 30
820.073237
 70
    64
  0
VERTEX
  5
49A
  8
TEAM-NET
 10
-39.225177
 20
-30.96298
 30
827.353334
 70
    64
  0
VERTEX
  5
49B
  8
TEAM-NET
 10
-26.317153
 20
-27.658643
 30
834.805784
 70
    64
  0
VERTEX
  5
49C
  8
TEAM-NET
 10
-13.20884
 20
-25.665928
 30
842.373873
 70
    64
  0
VERTEX
  5
49D
  8
TEAM-NET
 10
0.0
 20
-25.0
 30
850.0
 70
    64
  0
VERTEX
  5
49E
  8
TEAM-NET
 10
0.0
 20
-375.0
 30
850.0
 70
    64
  0
VERTEX
  5
49F
  8
TEAM-NET
 10
-13.823237
 20
-374.334072
 30
843.554119
 70
    64
  0
VERTEX
  5
4A0
  8
TEAM-NET
 10
-27.541272
 20
-372.341357
 30
837.157294
 70
    64
  0
VERTEX
  5
4A1
  8
TEAM-NET
 10
-41.0497
 20
-369.03702
 30
830.85821
 70
    64
  0
VERTEX
  5
4A2
  8
TEAM-NET
 10
-54.245716
 20
-364.446209
 30
824.704807
 70
    64
  0
VERTEX
  5
4A3
  8
TEAM-NET
 10
-67.028889
 20
-358.603863
 30
818.743916
 70
    64
  0
VERTEX
  5
4A4
  8
TEAM-NET
 10
-79.301931
 20
-351.554446
 30
813.020902
 70
    64
  0
VERTEX
  5
4A5
  8
TEAM-NET
 10
-90.971438
 20
-343.351608
 30
807.579322
 70
    64
  0
VERTEX
  5
4A6
  8
TEAM-NET
 10
-101.948598
 20
-334.057778
 30
802.460588
 70
    64
  0
VERTEX
  5
4A7
  8
TEAM-NET
 10
-112.149867
 20
-323.743687
 30
797.703658
 70
    64
  0
VERTEX
  5
4A8
  8
TEAM-NET
 10
-121.497608
 20
-312.487832
 30
793.344735
 70
    64
  0
VERTEX
  5
4A9
  8
TEAM-NET
 10
-129.920678
 20
-300.375876
 30
789.416993
 70
    64
  0
VERTEX
  5
4AA
  8
TEAM-NET
 10
-137.354974
 20
-287.5
 30
785.950324
 70
    64
  0
VERTEX
  5
4AB
  8
TEAM-NET
 10
-143.743916
 20
-273.958196
 30
782.971111
 70
    64
  0
VERTEX
  5
4AC
  8
TEAM-NET
 10
-149.038879
 20
-259.853525
 30
780.502029
 70
    64
  0
VERTEX
  5
4AD
  8
TEAM-NET
 10
-153.199567
 20
-245.293333
 30
778.561869
 70
    64
  0
VERTEX
  5
4AE
  8
TEAM-NET
 10
-156.194314
 20
-230.388431
 30
777.165395
 70
    64
  0
VERTEX
  5
4AF
  8
TEAM-NET
 10
-158.000327
 20
-215.252255
 30
776.323237
 70
    64
  0
VERTEX
  5
4B0
  8
TEAM-NET
 10
-158.603863
 20
-200.0
 30
776.041804
 70
    64
  0
VERTEX
  5
4B1
  8
TEAM-NET
 10
-158.000327
 20
-184.747745
 30
776.323237
 70
    64
  0
VERTEX
  5
4B2
  8
TEAM-NET
 10
-156.194314
 20
-169.611569
 30
777.165395
 70
    64
  0
VERTEX
  5
4B3
  8
TEAM-NET
 10
-153.199567
 20
-154.706667
 30
778.561869
 70
    64
  0
VERTEX
  5
4B4
  8
TEAM-NET
 10
-149.038879
 20
-140.146475
 30
780.502029
 70
    64
  0
VERTEX
  5
4B5
  8
TEAM-NET
 10
-143.743916
 20
-126.041804
 30
782.971111
 70
    64
  0
VERTEX
  5
4B6
  8
TEAM-NET
 10
-137.354974
 20
-112.5
 30
785.950324
 70
    64
  0
VERTEX
  5
4B7
  8
TEAM-NET
 10
-129.920678
 20
-99.624124
 30
789.416993
 70
    64
  0
VERTEX
  5
4B8
  8
TEAM-NET
 10
-121.497608
 20
-87.512168
 30
793.344735
 70
    64
  0
VERTEX
  5
4B9
  8
TEAM-NET
 10
-112.149867
 20
-76.256313
 30
797.703658
 70
    64
  0
VERTEX
  5
4BA
  8
TEAM-NET
 10
-101.948598
 20
-65.942222
 30
802.460588
 70
    64
  0
VERTEX
  5
4BB
  8
TEAM-NET
 10
-90.971438
 20
-56.648392
 30
807.579322
 70
    64
  0
VERTEX
  5
4BC
  8
TEAM-NET
 10
-79.301931
 20
-48.445554
 30
813.020902
 70
    64
  0
VERTEX
  5
4BD
  8
TEAM-NET
 10
-67.028889
 20
-41.396137
 30
818.743916
 70
    64
  0
VERTEX
  5
4BE
  8
TEAM-NET
 10
-54.245716
 20
-35.553791
 30
824.704807
 70
    64
  0
VERTEX
  5
4BF
  8
TEAM-NET
 10
-41.0497
 20
-30.96298
 30
830.85821
 70
    64
  0
VERTEX
  5
4C0
  8
TEAM-NET
 10
-27.541272
 20
-27.658643
 30
837.157294
 70
    64
  0
VERTEX
  5
4C1
  8
TEAM-NET
 10
-13.823237
 20
-25.665928
 30
843.554119
 70
    64
  0
VERTEX
  5
4C2
  8
TEAM-NET
 10
0.0
 20
-25.0
 30
850.0
 70
    64
  0
VERTEX
  5
4C3
  8
TEAM-NET
 10
0.0
 20
-375.0
 30
850.0
 70
    64
  0
VERTEX
  5
4C4
  8
TEAM-NET
 10
-14.332431
 20
-374.334072
 30
844.783422
 70
    64
  0
VERTEX
  5
4C5
  8
TEAM-NET
 10
-28.555784
 20
-372.341357
 30
839.606544
 70
    64
  0
VERTEX
  5
4C6
  8
TEAM-NET
 10
-42.561811
 20
-369.03702
 30
834.508768
 70
    64
  0
VERTEX
  5
4C7
  8
TEAM-NET
 10
-56.243916
 20
-364.446209
 30
829.528889
 70
    64
  0
VERTEX
  5
4C8
  8
TEAM-NET
 10
-69.497971
 20
-358.603863
 30
824.704807
 70
    64
  0
VERTEX
  5
4C9
  8
TEAM-NET
 10
-82.223104
 20
-351.554446
 30
820.073237
 70
    64
  0
VERTEX
  5
4CA
  8
TEAM-NET
 10
-94.32247
 20
-343.351608
 30
815.669428
 70
    64
  0
VERTEX
  5
4CB
  8
TEAM-NET
 10
-105.703985
 20
-334.057778
 30
811.526896
 70
    64
  0
VERTEX
  5
4CC
  8
TEAM-NET
 10
-116.281029
 20
-323.743687
 30
807.677167
 70
    64
  0
VERTEX
  5
4CD
  8
TEAM-NET
 10
-125.973104
 20
-312.487832
 30
804.14954
 70
    64
  0
VERTEX
  5
4CE
  8
TEAM-NET
 10
-134.706448
 20
-300.375876
 30
800.970863
 70
    64
  0
VERTEX
  5
4CF
  8
TEAM-NET
 10
-142.414594
 20
-287.5
 30
798.165327
 70
    64
  0
VERTEX
  5
4D0
  8
TEAM-NET
 10
-149.038879
 20
-273.958196
 30
795.754284
 70
    64
  0
VERTEX
  5
4D1
  8
TEAM-NET
 10
-154.528889
 20
-259.853525
 30
793.756084
 70
    64
  0
VERTEX
  5
4D2
  8
TEAM-NET
 10
-158.84284
 20
-245.293333
 30
792.185934
 70
    64
  0
VERTEX
  5
4D3
  8
TEAM-NET
 10
-161.947901
 20
-230.388431
 30
791.055784
 70
    64
  0
VERTEX
  5
4D4
  8
TEAM-NET
 10
-163.820441
 20
-215.252255
 30
790.374236
 70
    64
  0
VERTEX
  5
4D5
  8
TEAM-NET
 10
-164.446209
 20
-200.0
 30
790.146475
 70
    64
  0
VERTEX
  5
4D6
  8
TEAM-NET
 10
-163.820441
 20
-184.747745
 30
790.374236
 70
    64
  0
VERTEX
  5
4D7
  8
TEAM-NET
 10
-161.947901
 20
-169.611569
 30
791.055784
 70
    64
  0
VERTEX
  5
4D8
  8
TEAM-NET
 10
-158.84284
 20
-154.706667
 30
792.185934
 70
    64
  0
VERTEX
  5
4D9
  8
TEAM-NET
 10
-154.528889
 20
-140.146475
 30
793.756084
 70
    64
  0
VERTEX
  5
4DA
  8
TEAM-NET
 10
-149.038879
 20
-126.041804
 30
795.754284
 70
    64
  0
VERTEX
  5
4DB
  8
TEAM-NET
 10
-142.414594
 20
-112.5
 30
798.165327
 70
    64
  0
VERTEX
  5
4DC
  8
TEAM-NET
 10
-134.706448
 20
-99.624124
 30
800.970863
 70
    64
  0
VERTEX
  5
4DD
  8
TEAM-NET
 10
-125.973104
 20
-87.512168
 30
804.14954
 70
    64
  0
VERTEX
  5
4DE
  8
TEAM-NET
 10
-116.281029
 20
-76.256313
 30
807.677167
 70
    64
  0
VERTEX
  5
4DF
  8
TEAM-NET
 10
-105.703985
 20
-65.942222
 30
811.526896
 70
    64
  0
VERTEX
  5
4E0
  8
TEAM-NET
 10
-94.32247
 20
-56.648392
 30
815.669428
 70
    64
  0
VERTEX
  5
4E1
  8
TEAM-NET
 10
-82.223104
 20
-48.445554
 30
820.073237
 70
    64
  0
VERTEX
  5
4E2
  8
TEAM-NET
 10
-69.497971
 20
-41.396137
 30
824.704807
 70
    64
  0
VERTEX
  5
4E3
  8
TEAM-NET
 10
-56.243916
 20
-35.553791
 30
829.528889
 70
    64
  0
VERTEX
  5
4E4
  8
TEAM-NET
 10
-42.561811
 20
-30.96298
 30
834.508768
 70
    64
  0
VERTEX
  5
4E5
  8
TEAM-NET
 10
-28.555784
 20
-27.658643
 30
839.606544
 70
    64
  0
VERTEX
  5
4E6
  8
TEAM-NET
 10
-14.332431
 20
-25.665928
 30
844.783422
 70
    64
  0
VERTEX
  5
4E7
  8
TEAM-NET
 10
0.0
 20
-25.0
 30
850.0
 70
    64
  0
VERTEX
  5
4E8
  8
TEAM-NET
 10
0.0
 20
-375.0
 30
850.0
 70
    64
  0
VERTEX
  5
4E9
  8
TEAM-NET
 10
-14.732547
 20
-374.334072
 30
846.052426
 70
    64
  0
VERTEX
  5
4EA
  8
TEAM-NET
 10
-29.35297
 20
-372.341357
 30
842.134895
 70
    64
  0
VERTEX
  5
4EB
  8
TEAM-NET
 10
-43.75
 20
-369.03702
 30
838.277223
 70
    64
  0
VERTEX
  5
4EC
  8
TEAM-NET
 10
-57.814066
 20
-364.446209
 30
834.508768
 70
    64
  0
VERTEX
  5
4ED
  8
TEAM-NET
 10
-71.438131
 20
-358.603863
 30
830.85821
 70
    64
  0
VERTEX
  5
4EE
  8
TEAM-NET
 10
-84.51851
 20
-351.554446
 30
827.353334
 70
    64
  0
VERTEX
  5
4EF
  8
TEAM-NET
 10
-96.955651
 20
-343.351608
 30
824.020812
 70
    64
  0
VERTEX
  5
4F0
  8
TEAM-NET
 10
-108.654902
 20
-334.057778
 30
820.886007
 70
    64
  0
VERTEX
  5
4F1
  8
TEAM-NET
 10
-119.527223
 20
-323.743687
 30
817.972777
 70
    64
  0
VERTEX
  5
4F2
  8
TEAM-NET
 10
-129.48987
 20
-312.487832
 30
815.303294
 70
    64
  0
VERTEX
  5
4F3
  8
TEAM-NET
 10
-138.46702
 20
-300.375876
 30
812.897874
 70
    64
  0
VERTEX
  5
4F4
  8
TEAM-NET
 10
-146.390353
 20
-287.5
 30
810.774823
 70
    64
  0
VERTEX
  5
4F5
  8
TEAM-NET
 10
-153.199567
 20
-273.958196
 30
808.9503
 70
    64
  0
VERTEX
  5
4F6
  8
TEAM-NET
 10
-158.84284
 20
-259.853525
 30
807.438189
 70
    64
  0
VERTEX
  5
4F7
  8
TEAM-NET
 10
-163.277223
 20
-245.293333
 30
806.25
 70
    64
  0
VERTEX
  5
4F8
  8
TEAM-NET
 10
-166.468967
 20
-230.388431
 30
805.394775
 70
    64
  0
VERTEX
  5
4F9
  8
TEAM-NET
 10
-168.393783
 20
-215.252255
 30
804.879022
 70
    64
  0
VERTEX
  5
4FA
  8
TEAM-NET
 10
-169.03702
 20
-200.0
 30
804.706667
 70
    64
  0
VERTEX
  5
4FB
  8
TEAM-NET
 10
-168.393783
 20
-184.747745
 30
804.879022
 70
    64
  0
VERTEX
  5
4FC
  8
TEAM-NET
 10
-166.468967
 20
-169.611569
 30
805.394775
 70
    64
  0
VERTEX
  5
4FD
  8
TEAM-NET
 10
-163.277223
 20
-154.706667
 30
806.25
 70
    64
  0
VERTEX
  5
4FE
  8
TEAM-NET
 10
-158.84284
 20
-140.146475
 30
807.438189
 70
    64
  0
VERTEX
  5
4FF
  8
TEAM-NET
 10
-153.199567
 20
-126.041804
 30
808.9503
 70
    64
  0
VERTEX
  5
500
  8
TEAM-NET
 10
-146.390353
 20
-112.5
 30
810.774823
 70
    64
  0
VERTEX
  5
501
  8
TEAM-NET
 10
-138.46702
 20
-99.624124
 30
812.897874
 70
    64
  0
VERTEX
  5
502
  8
TEAM-NET
 10
-129.48987
 20
-87.512168
 30
815.303294
 70
    64
  0
VERTEX
  5
503
  8
TEAM-NET
 10
-119.527223
 20
-76.256313
 30
817.972777
 70
    64
  0
VERTEX
  5
504
  8
TEAM-NET
 10
-108.654902
 20
-65.942222
 30
820.886007
 70
    64
  0
VERTEX
  5
505
  8
TEAM-NET
 10
-96.955651
 20
-56.648392
 30
824.020812
 70
    64
  0
VERTEX
  5
506
  8
TEAM-NET
 10
-84.51851
 20
-48.445554
 30
827.353334
 70
    64
  0
VERTEX
  5
507
  8
TEAM-NET
 10
-71.438131
 20
-41.396137
 30
830.85821
 70
    64
  0
VERTEX
  5
508
  8
TEAM-NET
 10
-57.814066
 20
-35.553791
 30
834.508768
 70
    64
  0
VERTEX
  5
509
  8
TEAM-NET
 10
-43.75
 20
-30.96298
 30
838.277223
 70
    64
  0
VERTEX
  5
50A
  8
TEAM-NET
 10
-29.35297
 20
-27.658643
 30
842.134895
 70
    64
  0
VERTEX
  5
50B
  8
TEAM-NET
 10
-14.732547
 20
-25.665928
 30
846.052426
 70
    64
  0
VERTEX
  5
50C
  8
TEAM-NET
 10
0.0
 20
-25.0
 30
850.0
 70
    64
  0
VERTEX
  5
50D
  8
TEAM-NET
 10
0.0
 20
-375.0
 30
850.0
 70
    64
  0
VERTEX
  5
50E
  8
TEAM-NET
 10
-15.020539
 20
-374.334072
 30
847.351474
 70
    64
  0
VERTEX
  5
50F
  8
TEAM-NET
 10
-29.926763
 20
-372.341357
 30
844.723104
 70
    64
  0
VERTEX
  5
510
  8
TEAM-NET
 10
-44.605225
 20
-369.03702
 30
842.134895
 70
    64
  0
VERTEX
  5
511
  8
TEAM-NET
 10
-58.944216
 20
-364.446209
 30
839.606544
 70
    64
  0
VERTEX
  5
512
  8
TEAM-NET
 10
-72.834605
 20
-358.603863
 30
837.157294
 70
    64
  0
VERTEX
  5
513
  8
TEAM-NET
 10
-86.170678
 20
-351.554446
 30
834.805784
 70
    64
  0
VERTEX
  5
514
  8
TEAM-NET
 10
-98.850941
 20
-343.351608
 30
832.569912
 70
    64
  0
VERTEX
  5
515
  8
TEAM-NET
 10
-110.778889
 20
-334.057778
 30
830.466693
 70
    64
  0
VERTEX
  5
516
  8
TEAM-NET
 10
-121.863742
 20
-323.743687
 30
828.512134
 70
    64
  0
VERTEX
  5
517
  8
TEAM-NET
 10
-132.021139
 20
-312.487832
 30
826.721111
 70
    64
  0
VERTEX
  5
518
  8
TEAM-NET
 10
-141.173775
 20
-300.375876
 30
825.107255
 70
    64
  0
VERTEX
  5
519
  8
TEAM-NET
 10
-149.251993
 20
-287.5
 30
823.682847
 70
    64
  0
VERTEX
  5
51A
  8
TEAM-NET
 10
-156.194314
 20
-273.958196
 30
822.458728
 70
    64
  0
VERTEX
  5
51B
  8
TEAM-NET
 10
-161.947901
 20
-259.853525
 30
821.444216
 70
    64
  0
VERTEX
  5
51C
  8
TEAM-NET
 10
-166.468967
 20
-245.293333
 30
820.64703
 70
    64
  0
VERTEX
  5
51D
  8
TEAM-NET
 10
-169.723104
 20
-230.388431
 30
820.073237
 70
    64
  0
VERTEX
  5
51E
  8
TEAM-NET
 10
-171.685546
 20
-215.252255
 30
819.727206
 70
    64
  0
VERTEX
  5
51F
  8
TEAM-NET
 10
-172.341357
 20
-200.0
 30
819.611569
 70
    64
  0
VERTEX
  5
520
  8
TEAM-NET
 10
-171.685546
 20
-184.747745
 30
819.727206
 70
    64
  0
VERTEX
  5
521
  8
TEAM-NET
 10
-169.723104
 20
-169.611569
 30
820.073237
 70
    64
  0
VERTEX
  5
522
  8
TEAM-NET
 10
-166.468967
 20
-154.706667
 30
820.64703
 70
    64
  0
VERTEX
  5
523
  8
TEAM-NET
 10
-161.947901
 20
-140.146475
 30
821.444216
 70
    64
  0
VERTEX
  5
524
  8
TEAM-NET
 10
-156.194314
 20
-126.041804
 30
822.458728
 70
    64
  0
VERTEX
  5
525
  8
TEAM-NET
 10
-149.251993
 20
-112.5
 30
823.682847
 70
    64
  0
VERTEX
  5
526
  8
TEAM-NET
 10
-141.173775
 20
-99.624124
 30
825.107255
 70
    64
  0
VERTEX
  5
527
  8
TEAM-NET
 10
-132.021139
 20
-87.512168
 30
826.721111
 70
    64
  0
VERTEX
  5
528
  8
TEAM-NET
 10
-121.863742
 20
-76.256313
 30
828.512134
 70
    64
  0
VERTEX
  5
529
  8
TEAM-NET
 10
-110.778889
 20
-65.942222
 30
830.466693
 70
    64
  0
VERTEX
  5
52A
  8
TEAM-NET
 10
-98.850941
 20
-56.648392
 30
832.569912
 70
    64
  0
VERTEX
  5
52B
  8
TEAM-NET
 10
-86.170678
 20
-48.445554
 30
834.805784
 70
    64
  0
VERTEX
  5
52C
  8
TEAM-NET
 10
-72.834605
 20
-41.396137
 30
837.157294
 70
    64
  0
VERTEX
  5
52D
  8
TEAM-NET
 10
-58.944216
 20
-35.553791
 30
839.606544
 70
    64
  0
VERTEX
  5
52E
  8
TEAM-NET
 10
-44.605225
 20
-30.96298
 30
842.134895
 70
    64
  0
VERTEX
  5
52F
  8
TEAM-NET
 10
-29.926763
 20
-27.658643
 30
844.723104
 70
    64
  0
VERTEX
  5
530
  8
TEAM-NET
 10
-15.020539
 20
-25.665928
 30
847.351474
 70
    64
  0
VERTEX
  5
531
  8
TEAM-NET
 10
0.0
 20
-25.0
 30
850.0
 70
    64
  0
VERTEX
  5
532
  8
TEAM-NET
 10
0.0
 20
-375.0
 30
850.0
 70
    64
  0
VERTEX
  5
533
  8
TEAM-NET
 10
-15.194216
 20
-374.334072
 30
848.670678
 70
    64
  0
VERTEX
  5
534
  8
TEAM-NET
 10
-30.272794
 20
-372.341357
 30
847.351474
 70
    64
  0
VERTEX
  5
535
  8
TEAM-NET
 10
-45.120978
 20
-369.03702
 30
846.052426
 70
    64
  0
VERTEX
  5
536
  8
TEAM-NET
 10
-59.625764
 20
-364.446209
 30
844.783422
 70
    64
  0
VERTEX
  5
537
  8
TEAM-NET
 10
-73.676763
 20
-358.603863
 30
843.554119
 70
    64
  0
VERTEX
  5
538
  8
TEAM-NET
 10
-87.167036
 20
-351.554446
 30
842.373873
 70
    64
  0
VERTEX
  5
539
  8
TEAM-NET
 10
-99.993916
 20
-343.351608
 30
841.251666
 70
    64
  0
VERTEX
  5
53A
  8
TEAM-NET
 10
-112.059782
 20
-334.057778
 30
840.196039
 70
    64
  0
VERTEX
  5
53B
  8
TEAM-NET
 10
-123.272805
 20
-323.743687
 30
839.215027
 70
    64
  0
VERTEX
  5
53C
  8
TEAM-NET
 10
-133.547647
 20
-312.487832
 30
838.316095
 70
    64
  0
VERTEX
  5
53D
  8
TEAM-NET
 10
-142.806112
 20
-300.375876
 30
837.506084
 70
    64
  0
VERTEX
  5
53E
  8
TEAM-NET
 10
-150.977735
 20
-287.5
 30
836.79116
 70
    64
  0
VERTEX
  5
53F
  8
TEAM-NET
 10
-158.000327
 20
-273.958196
 30
836.176763
 70
    64
  0
VERTEX
  5
540
  8
TEAM-NET
 10
-163.820441
 20
-259.853525
 30
835.667569
 70
    64
  0
VERTEX
  5
541
  8
TEAM-NET
 10
-168.393783
 20
-245.293333
 30
835.267453
 70
    64
  0
VERTEX
  5
542
  8
TEAM-NET
 10
-171.685546
 20
-230.388431
 30
834.979461
 70
    64
  0
VERTEX
  5
543
  8
TEAM-NET
 10
-173.670678
 20
-215.252255
 30
834.805784
 70
    64
  0
VERTEX
  5
544
  8
TEAM-NET
 10
-174.334072
 20
-200.0
 30
834.747745
 70
    64
  0
VERTEX
  5
545
  8
TEAM-NET
 10
-173.670678
 20
-184.747745
 30
834.805784
 70
    64
  0
VERTEX
  5
546
  8
TEAM-NET
 10
-171.685546
 20
-169.611569
 30
834.979461
 70
    64
  0
VERTEX
  5
547
  8
TEAM-NET
 10
-168.393783
 20
-154.706667
 30
835.267453
 70
    64
  0
VERTEX
  5
548
  8
TEAM-NET
 10
-163.820441
 20
-140.146475
 30
835.667569
 70
    64
  0
VERTEX
  5
549
  8
TEAM-NET
 10
-158.000327
 20
-126.041804
 30
836.176763
 70
    64
  0
VERTEX
  5
54A
  8
TEAM-NET
 10
-150.977735
 20
-112.5
 30
836.79116
 70
    64
  0
VERTEX
  5
54B
  8
TEAM-NET
 10
-142.806112
 20
-99.624124
 30
837.506084
 70
    64
  0
VERTEX
  5
54C
  8
TEAM-NET
 10
-133.547647
 20
-87.512168
 30
838.316095
 70
    64
  0
VERTEX
  5
54D
  8
TEAM-NET
 10
-123.272805
 20
-76.256313
 30
839.215027
 70
    64
  0
VERTEX
  5
54E
  8
TEAM-NET
 10
-112.059782
 20
-65.942222
 30
840.196039
 70
    64
  0
VERTEX
  5
54F
  8
TEAM-NET
 10
-99.993916
 20
-56.648392
 30
841.251666
 70
    64
  0
VERTEX
  5
550
  8
TEAM-NET
 10
-87.167036
 20
-48.445554
 30
842.373873
 70
    64
  0
VERTEX
  5
551
  8
TEAM-NET
 10
-73.676763
 20
-41.396137
 30
843.554119
 70
    64
  0
VERTEX
  5
552
  8
TEAM-NET
 10
-59.625764
 20
-35.553791
 30
844.783422
 70
    64
  0
VERTEX
  5
553
  8
TEAM-NET
 10
-45.120978
 20
-30.96298
 30
846.052426
 70
    64
  0
VERTEX
  5
554
  8
TEAM-NET
 10
-30.272794
 20
-27.658643
 30
847.351474
 70
    64
  0
VERTEX
  5
555
  8
TEAM-NET
 10
-15.194216
 20
-25.665928
 30
848.670678
 70
    64
  0
VERTEX
  5
556
  8
TEAM-NET
 10
0.0
 20
-25.0
 30
850.0
 70
    64
  0
VERTEX
  5
557
  8
TEAM-NET
 10
0.0
 20
-375.0
 30
850.0
 70
    64
  0
VERTEX
  5
558
  8
TEAM-NET
 10
-15.252255
 20
-374.334072
 30
850.0
 70
    64
  0
VERTEX
  5
559
  8
TEAM-NET
 10
-30.388431
 20
-372.341357
 30
850.0
 70
    64
  0
VERTEX
  5
55A
  8
TEAM-NET
 10
-45.293333
 20
-369.03702
 30
850.0
 70
    64
  0
VERTEX
  5
55B
  8
TEAM-NET
 10
-59.853525
 20
-364.446209
 30
850.0
 70
    64
  0
VERTEX
  5
55C
  8
TEAM-NET
 10
-73.958196
 20
-358.603863
 30
850.0
 70
    64
  0
VERTEX
  5
55D
  8
TEAM-NET
 10
-87.5
 20
-351.554446
 30
850.0
 70
    64
  0
VERTEX
  5
55E
  8
TEAM-NET
 10
-100.375876
 20
-343.351608
 30
850.0
 70
    64
  0
VERTEX
  5
55F
  8
TEAM-NET
 10
-112.487832
 20
-334.057778
 30
850.0
 70
    64
  0
VERTEX
  5
560
  8
TEAM-NET
 10
-123.743687
 20
-323.743687
 30
850.0
 70
    64
  0
VERTEX
  5
561
  8
TEAM-NET
 10
-134.057778
 20
-312.487832
 30
850.0
 70
    64
  0
VERTEX
  5
562
  8
TEAM-NET
 10
-143.351608
 20
-300.375876
 30
850.0
 70
    64
  0
VERTEX
  5
563
  8
TEAM-NET
 10
-151.554446
 20
-287.5
 30
850.0
 70
    64
  0
VERTEX
  5
564
  8
TEAM-NET
 10
-158.603863
 20
-273.958196
 30
850.0
 70
    64
  0
VERTEX
  5
565
  8
TEAM-NET
 10
-164.446209
 20
-259.853525
 30
850.0
 70
    64
  0
VERTEX
  5
566
  8
TEAM-NET
 10
-169.03702
 20
-245.293333
 30
850.0
 70
    64
  0
VERTEX
  5
567
  8
TEAM-NET
 10
-172.341357
 20
-230.388431
 30
850.0
 70
    64
  0
VERTEX
  5
568
  8
TEAM-NET
 10
-174.334072
 20
-215.252255
 30
850.0
 70
    64
  0
VERTEX
  5
569
  8
TEAM-NET
 10
-175.0
 20
-200.0
 30
850.0
 70
    64
  0
VERTEX
  5
56A
  8
TEAM-NET
 10
-174.334072
 20
-184.747745
 30
850.0
 70
    64
  0
VERTEX
  5
56B
  8
TEAM-NET
 10
-172.341357
 20
-169.611569
 30
850.0
 70
    64
  0
VERTEX
  5
56C
  8
TEAM-NET
 10
-169.03702
 20
-154.706667
 30
850.0
 70
    64
  0
VERTEX
  5
56D
  8
TEAM-NET
 10
-164.446209
 20
-140.146475
 30
850.0
 70
    64
  0
VERTEX
  5
56E
  8
TEAM-NET
 10
-158.603863
 20
-126.041804
 30
850.0
 70
    64
  0
VERTEX
  5
56F
  8
TEAM-NET
 10
-151.554446
 20
-112.5
 30
850.0
 70
    64
  0
VERTEX
  5
570
  8
TEAM-NET
 10
-143.351608
 20
-99.624124
 30
850.0
 70
    64
  0
VERTEX
  5
571
  8
TEAM-NET
 10
-134.057778
 20
-87.512168
 30
850.0
 70
    64
  0
VERTEX
  5
572
  8
TEAM-NET
 10
-123.743687
 20
-76.256313
 30
850.0
 70
    64
  0
VERTEX
  5
573
  8
TEAM-NET
 10
-112.487832
 20
-65.942222
 30
850.0
 70
    64
  0
VERTEX
  5
574
  8
TEAM-NET
 10
-100.375876
 20
-56.648392
 30
850.0
 70
    64
  0
VERTEX
  5
575
  8
TEAM-NET
 10
-87.5
 20
-48.445554
 30
850.0
 70
    64
  0
VERTEX
  5
576
  8
TEAM-NET
 10
-73.958196
 20
-41.396137
 30
850.0
 70
    64
  0
VERTEX
  5
577
  8
TEAM-NET
 10
-59.853525
 20
-35.553791
 30
850.0
 70
    64
  0
VERTEX
  5
578
  8
TEAM-NET
 10
-45.293333
 20
-30.96298
 30
850.0
 70
    64
  0
VERTEX
  5
579
  8
TEAM-NET
 10
-30.388431
 20
-27.658643
 30
850.0
 70
    64
  0
VERTEX
  5
57A
  8
TEAM-NET
 10
-15.252255
 20
-25.665928
 30
850.0
 70
    64
  0
VERTEX
  5
57B
  8
TEAM-NET
 10
0.0
 20
-25.0
 30
850.0
 70
    64
  0
SEQEND
  5
57D
  8
TEAM-NET
  0
CIRCLE
  5
57E
  8
TEAM-KAN
 39
-15.0
 10
0.0
 20
-200.0
 30
725.0
 40
20.0
  0
CIRCLE
  5
580
  8
TEAM-DET1
 39
-15.0
 10
0.0
 20
-200.0
 30
725.0
 40
30.0
  0
LINE
  5
582
  8
TEAM-AXE
 10
35.0
 20
-200.0
 30
725.0
 11
-35.0
 21
-200.0
 31
725.0
  0
LINE
  5
585
  8
TEAM-AXE
 10
0.0
 20
-235.0
 30
725.0
 11
0.0
 21
-165.0
 31
725.0
  0
ARC
  5
586
  8
TEAM-BODY
 39
-8.0
 10
0.0
 20
-200.0
 30
850.0
 40
200.0
 50
270.0
 51
90.0
  0
ARC
  5
588
  8
TEAM-BODY
 39
-8.0
 10
0.0
 20
-200.0
 30
850.0
 40
200.0
 50
90.0
 51
270.0
  0
POLYLINE
  5
589
  8
TEAM-DET1
 66
     1
 10
0.0
 20
0.0
 30
820.0
 70
   129
  0
VERTEX
  5
680
  8
TEAM-DET1
 10
-20.0
 20
-35.593182
 30
820.0
  0
VERTEX
  5
681
  8
TEAM-DET1
 10
-19.638574
 20
-36.629075
 30
820.0
  0
VERTEX
  5
682
  8
TEAM-DET1
 10
-18.567359
 20
-37.627528
 30
820.0
  0
VERTEX
  5
683
  8
TEAM-DET1
 10
-16.825071
 20
-38.552454
 30
820.0
  0
VERTEX
  5
684
  8
TEAM-DET1
 10
-14.474681
 20
-39.370425
 30
820.0
  0
VERTEX
  5
685
  8
TEAM-DET1
 10
-11.601138
 20
-40.051876
 30
820.0
  0
VERTEX
  5
686
  8
TEAM-DET1
 10
-8.3083
 20
-40.572179
 30
820.0
  0
VERTEX
  5
687
  8
TEAM-DET1
 10
-4.715179
 20
-40.912527
 30
820.0
  0
VERTEX
  5
688
  8
TEAM-DET1
 10
-0.951638
 20
-41.060621
 30
820.0
  0
VERTEX
  5
689
  8
TEAM-DET1
 10
2.846297
 20
-41.011107
 30
820.0
  0
VERTEX
  5
68A
  8
TEAM-DET1
 10
6.541359
 20
-40.765775
 30
820.0
  0
VERTEX
  5
68B
  8
TEAM-DET1
 10
10.0
 20
-40.333492
 30
820.0
  0
VERTEX
  5
68C
  8
TEAM-DET1
 10
13.097215
 20
-39.729882
 30
820.0
  0
VERTEX
  5
68D
  8
TEAM-DET1
 10
15.721062
 20
-38.976761
 30
820.0
  0
VERTEX
  5
68E
  8
TEAM-DET1
 10
17.776709
 20
-38.101348
 30
820.0
  0
VERTEX
  5
68F
  8
TEAM-DET1
 10
19.189859
 20
-37.135284
 30
820.0
  0
VERTEX
  5
690
  8
TEAM-DET1
 10
19.909438
 20
-36.113484
 30
820.0
  0
VERTEX
  5
691
  8
TEAM-DET1
 10
19.909438
 20
-35.07288
 30
820.0
  0
VERTEX
  5
692
  8
TEAM-DET1
 10
19.189859
 20
-34.05108
 30
820.0
  0
VERTEX
  5
693
  8
TEAM-DET1
 10
17.776709
 20
-33.085016
 30
820.0
  0
VERTEX
  5
694
  8
TEAM-DET1
 10
15.721062
 20
-32.209603
 30
820.0
  0
VERTEX
  5
695
  8
TEAM-DET1
 10
13.097215
 20
-31.456482
 30
820.0
  0
VERTEX
  5
696
  8
TEAM-DET1
 10
10.0
 20
-30.852872
 30
820.0
  0
VERTEX
  5
697
  8
TEAM-DET1
 10
6.541359
 20
-30.420589
 30
820.0
  0
VERTEX
  5
698
  8
TEAM-DET1
 10
2.846297
 20
-30.175257
 30
820.0
  0
VERTEX
  5
699
  8
TEAM-DET1
 10
-0.951638
 20
-30.125744
 30
820.0
  0
VERTEX
  5
69A
  8
TEAM-DET1
 10
-4.715179
 20
-30.273837
 30
820.0
  0
VERTEX
  5
69B
  8
TEAM-DET1
 10
-8.3083
 20
-30.614186
 30
820.0
  0
VERTEX
  5
69C
  8
TEAM-DET1
 10
-11.601138
 20
-31.134488
 30
820.0
  0
VERTEX
  5
69D
  8
TEAM-DET1
 10
-14.474681
 20
-31.815939
 30
820.0
  0
VERTEX
  5
69E
  8
TEAM-DET1
 10
-16.825071
 20
-32.63391
 30
820.0
  0
VERTEX
  5
69F
  8
TEAM-DET1
 10
-18.567359
 20
-33.558836
 30
820.0
  0
VERTEX
  5
6A0
  8
TEAM-DET1
 10
-19.638574
 20
-34.557289
 30
820.0
  0
SEQEND
  5
6A1
  8
TEAM-DET1
  0
LINE
  5
58A
  8
TEAM-AXE
 10
20.0
 20
-35.593182
 30
820.0
 11
-20.0
 21
-35.593182
 31
820.0
  0
LINE
  5
58B
  8
TEAM-AXE
 10
0.0
 20
-41.06682
 30
820.0
 11
0.0
 21
-30.119544
 31
820.0
  0
ARC
  5
58C
  8
TEAM-DET1
 10
0.0
 20
-200.0
 30
850.0
 40
175.0
 50
90.0
 51
270.0
  0
ARC
  5
58D
  8
TEAM-DET1
 10
0.0
 20
-200.0
 30
850.0
 40
175.0
 50
270.0
 51
90.0
  0
TEXT
  5
58E
  8
TEAM-TXT
 10
-124.91523
 20
-288.1316
 30
850.0
 40
30.0
  1
team 233126
 41
0.8
 51
15.0
  7
TEAM
  0
POLYLINE
  5
591
  8
TEAM-NET
 66
     1
 10
0.0
 20
0.0
 30
0.0
 70
    16
 71
     2
 72
    37
  0
VERTEX
  5
592
  8
TEAM-NET
 10
0.0
 20
-375.0
 30
850.0
 70
    64
  0
VERTEX
  5
593
  8
TEAM-NET
 10
15.252255
 20
-374.334072
 30
850.0
 70
    64
  0
VERTEX
  5
594
  8
TEAM-NET
 10
30.388431
 20
-372.341357
 30
850.0
 70
    64
  0
VERTEX
  5
595
  8
TEAM-NET
 10
45.293333
 20
-369.03702
 30
850.0
 70
    64
  0
VERTEX
  5
596
  8
TEAM-NET
 10
59.853525
 20
-364.446209
 30
850.0
 70
    64
  0
VERTEX
  5
597
  8
TEAM-NET
 10
73.958196
 20
-358.603863
 30
850.0
 70
    64
  0
VERTEX
  5
598
  8
TEAM-NET
 10
87.5
 20
-351.554446
 30
850.0
 70
    64
  0
VERTEX
  5
599
  8
TEAM-NET
 10
100.375876
 20
-343.351608
 30
850.0
 70
    64
  0
VERTEX
  5
59A
  8
TEAM-NET
 10
112.487832
 20
-334.057778
 30
850.0
 70
    64
  0
VERTEX
  5
59B
  8
TEAM-NET
 10
123.743687
 20
-323.743687
 30
850.0
 70
    64
  0
VERTEX
  5
59C
  8
TEAM-NET
 10
134.057778
 20
-312.487832
 30
850.0
 70
    64
  0
VERTEX
  5
59D
  8
TEAM-NET
 10
143.351608
 20
-300.375876
 30
850.0
 70
    64
  0
VERTEX
  5
59E
  8
TEAM-NET
 10
151.554446
 20
-287.5
 30
850.0
 70
    64
  0
VERTEX
  5
59F
  8
TEAM-NET
 10
158.603863
 20
-273.958196
 30
850.0
 70
    64
  0
VERTEX
  5
5A0
  8
TEAM-NET
 10
164.446209
 20
-259.853525
 30
850.0
 70
    64
  0
VERTEX
  5
5A1
  8
TEAM-NET
 10
169.03702
 20
-245.293333
 30
850.0
 70
    64
  0
VERTEX
  5
5A2
  8
TEAM-NET
 10
172.341357
 20
-230.388431
 30
850.0
 70
    64
  0
VERTEX
  5
5A3
  8
TEAM-NET
 10
174.334072
 20
-215.252255
 30
850.0
 70
    64
  0
VERTEX
  5
5A4
  8
TEAM-NET
 10
175.0
 20
-200.0
 30
850.0
 70
    64
  0
VERTEX
  5
5A5
  8
TEAM-NET
 10
174.334072
 20
-184.747745
 30
850.0
 70
    64
  0
VERTEX
  5
5A6
  8
TEAM-NET
 10
172.341357
 20
-169.611569
 30
850.0
 70
    64
  0
VERTEX
  5
5A7
  8
TEAM-NET
 10
169.03702
 20
-154.706667
 30
850.0
 70
    64
  0
VERTEX
  5
5A8
  8
TEAM-NET
 10
164.446209
 20
-140.146475
 30
850.0
 70
    64
  0
VERTEX
  5
5A9
  8
TEAM-NET
 10
158.603863
 20
-126.041804
 30
850.0
 70
    64
  0
VERTEX
  5
5AA
  8
TEAM-NET
 10
151.554446
 20
-112.5
 30
850.0
 70
    64
  0
VERTEX
  5
5AB
  8
TEAM-NET
 10
143.351608
 20
-99.624124
 30
850.0
 70
    64
  0
VERTEX
  5
5AC
  8
TEAM-NET
 10
134.057778
 20
-87.512168
 30
850.0
 70
    64
  0
VERTEX
  5
5AD
  8
TEAM-NET
 10
123.743687
 20
-76.256313
 30
850.0
 70
    64
  0
VERTEX
  5
5AE
  8
TEAM-NET
 10
112.487832
 20
-65.942222
 30
850.0
 70
    64
  0
VERTEX
  5
5AF
  8
TEAM-NET
 10
100.375876
 20
-56.648392
 30
850.0
 70
    64
  0
VERTEX
  5
5B0
  8
TEAM-NET
 10
87.5
 20
-48.445554
 30
850.0
 70
    64
  0
VERTEX
  5
5B1
  8
TEAM-NET
 10
73.958196
 20
-41.396137
 30
850.0
 70
    64
  0
VERTEX
  5
5B2
  8
TEAM-NET
 10
59.853525
 20
-35.553791
 30
850.0
 70
    64
  0
VERTEX
  5
5B3
  8
TEAM-NET
 10
45.293333
 20
-30.96298
 30
850.0
 70
    64
  0
VERTEX
  5
5B4
  8
TEAM-NET
 10
30.388431
 20
-27.658643
 30
850.0
 70
    64
  0
VERTEX
  5
5B5
  8
TEAM-NET
 10
15.252255
 20
-25.665928
 30
850.0
 70
    64
  0
VERTEX
  5
5B6
  8
TEAM-NET
 10
0.0
 20
-25.0
 30
850.0
 70
    64
  0
VERTEX
  5
5B7
  8
TEAM-NET
 10
0.0
 20
-400.0
 30
850.0
 70
    64
  0
VERTEX
  5
5B8
  8
TEAM-NET
 10
17.431149
 20
-399.23894
 30
850.0
 70
    64
  0
VERTEX
  5
5B9
  8
TEAM-NET
 10
34.729636
 20
-396.961551
 30
850.0
 70
    64
  0
VERTEX
  5
5BA
  8
TEAM-NET
 10
51.763809
 20
-393.185165
 30
850.0
 70
    64
  0
VERTEX
  5
5BB
  8
TEAM-NET
 10
68.404029
 20
-387.938524
 30
850.0
 70
    64
  0
VERTEX
  5
5BC
  8
TEAM-NET
 10
84.523652
 20
-381.261557
 30
850.0
 70
    64
  0
VERTEX
  5
5BD
  8
TEAM-NET
 10
100.0
 20
-373.205081
 30
850.0
 70
    64
  0
VERTEX
  5
5BE
  8
TEAM-NET
 10
114.715287
 20
-363.830409
 30
850.0
 70
    64
  0
VERTEX
  5
5BF
  8
TEAM-NET
 10
128.557522
 20
-353.208889
 30
850.0
 70
    64
  0
VERTEX
  5
5C0
  8
TEAM-NET
 10
141.421356
 20
-341.421356
 30
850.0
 70
    64
  0
VERTEX
  5
5C1
  8
TEAM-NET
 10
153.208889
 20
-328.557522
 30
850.0
 70
    64
  0
VERTEX
  5
5C2
  8
TEAM-NET
 10
163.830409
 20
-314.715287
 30
850.0
 70
    64
  0
VERTEX
  5
5C3
  8
TEAM-NET
 10
173.205081
 20
-300.0
 30
850.0
 70
    64
  0
VERTEX
  5
5C4
  8
TEAM-NET
 10
181.261557
 20
-284.523652
 30
850.0
 70
    64
  0
VERTEX
  5
5C5
  8
TEAM-NET
 10
187.938524
 20
-268.404029
 30
850.0
 70
    64
  0
VERTEX
  5
5C6
  8
TEAM-NET
 10
193.185165
 20
-251.763809
 30
850.0
 70
    64
  0
VERTEX
  5
5C7
  8
TEAM-NET
 10
196.961551
 20
-234.729636
 30
850.0
 70
    64
  0
VERTEX
  5
5C8
  8
TEAM-NET
 10
199.23894
 20
-217.431149
 30
850.0
 70
    64
  0
VERTEX
  5
5C9
  8
TEAM-NET
 10
200.0
 20
-200.0
 30
850.0
 70
    64
  0
VERTEX
  5
5CA
  8
TEAM-NET
 10
199.23894
 20
-182.568851
 30
850.0
 70
    64
  0
VERTEX
  5
5CB
  8
TEAM-NET
 10
196.961551
 20
-165.270364
 30
850.0
 70
    64
  0
VERTEX
  5
5CC
  8
TEAM-NET
 10
193.185165
 20
-148.236191
 30
850.0
 70
    64
  0
VERTEX
  5
5CD
  8
TEAM-NET
 10
187.938524
 20
-131.595971
 30
850.0
 70
    64
  0
VERTEX
  5
5CE
  8
TEAM-NET
 10
181.261557
 20
-115.476348
 30
850.0
 70
    64
  0
VERTEX
  5
5CF
  8
TEAM-NET
 10
173.205081
 20
-100.0
 30
850.0
 70
    64
  0
VERTEX
  5
5D0
  8
TEAM-NET
 10
163.830409
 20
-85.284713
 30
850.0
 70
    64
  0
VERTEX
  5
5D1
  8
TEAM-NET
 10
153.208889
 20
-71.442478
 30
850.0
 70
    64
  0
VERTEX
  5
5D2
  8
TEAM-NET
 10
141.421356
 20
-58.578644
 30
850.0
 70
    64
  0
VERTEX
  5
5D3
  8
TEAM-NET
 10
128.557522
 20
-46.791111
 30
850.0
 70
    64
  0
VERTEX
  5
5D4
  8
TEAM-NET
 10
114.715287
 20
-36.169591
 30
850.0
 70
    64
  0
VERTEX
  5
5D5
  8
TEAM-NET
 10
100.0
 20
-26.794919
 30
850.0
 70
    64
  0
VERTEX
  5
5D6
  8
TEAM-NET
 10
84.523652
 20
-18.738443
 30
850.0
 70
    64
  0
VERTEX
  5
5D7
  8
TEAM-NET
 10
68.404029
 20
-12.061476
 30
850.0
 70
    64
  0
VERTEX
  5
5D8
  8
TEAM-NET
 10
51.763809
 20
-6.814835
 30
850.0
 70
    64
  0
VERTEX
  5
5D9
  8
TEAM-NET
 10
34.729636
 20
-3.038449
 30
850.0
 70
    64
  0
VERTEX
  5
5DA
  8
TEAM-NET
 10
17.431149
 20
-0.76106
 30
850.0
 70
    64
  0
VERTEX
  5
5DB
  8
TEAM-NET
 10
0.0
 20
0.0
 30
850.0
 70
    64
  0
SEQEND
  5
5DC
  8
TEAM-NET
  0
POLYLINE
  5
5DD
  8
TEAM-NET
 66
     1
 10
0.0
 20
0.0
 30
0.0
 70
    16
 71
     2
 72
    37
  0
VERTEX
  5
5DE
  8
TEAM-NET
 10
0.0
 20
-375.0
 30
850.0
 70
    64
  0
VERTEX
  5
5DF
  8
TEAM-NET
 10
-15.252255
 20
-374.334072
 30
850.0
 70
    64
  0
VERTEX
  5
5E0
  8
TEAM-NET
 10
-30.388431
 20
-372.341357
 30
850.0
 70
    64
  0
VERTEX
  5
5E1
  8
TEAM-NET
 10
-45.293333
 20
-369.03702
 30
850.0
 70
    64
  0
VERTEX
  5
5E2
  8
TEAM-NET
 10
-59.853525
 20
-364.446209
 30
850.0
 70
    64
  0
VERTEX
  5
5E3
  8
TEAM-NET
 10
-73.958196
 20
-358.603863
 30
850.0
 70
    64
  0
VERTEX
  5
5E4
  8
TEAM-NET
 10
-87.5
 20
-351.554446
 30
850.0
 70
    64
  0
VERTEX
  5
5E5
  8
TEAM-NET
 10
-100.375876
 20
-343.351608
 30
850.0
 70
    64
  0
VERTEX
  5
5E6
  8
TEAM-NET
 10
-112.487832
 20
-334.057778
 30
850.0
 70
    64
  0
VERTEX
  5
5E7
  8
TEAM-NET
 10
-123.743687
 20
-323.743687
 30
850.0
 70
    64
  0
VERTEX
  5
5E8
  8
TEAM-NET
 10
-134.057778
 20
-312.487832
 30
850.0
 70
    64
  0
VERTEX
  5
5E9
  8
TEAM-NET
 10
-143.351608
 20
-300.375876
 30
850.0
 70
    64
  0
VERTEX
  5
5EA
  8
TEAM-NET
 10
-151.554446
 20
-287.5
 30
850.0
 70
    64
  0
VERTEX
  5
5EB
  8
TEAM-NET
 10
-158.603863
 20
-273.958196
 30
850.0
 70
    64
  0
VERTEX
  5
5EC
  8
TEAM-NET
 10
-164.446209
 20
-259.853525
 30
850.0
 70
    64
  0
VERTEX
  5
5ED
  8
TEAM-NET
 10
-169.03702
 20
-245.293333
 30
850.0
 70
    64
  0
VERTEX
  5
5EE
  8
TEAM-NET
 10
-172.341357
 20
-230.388431
 30
850.0
 70
    64
  0
VERTEX
  5
5EF
  8
TEAM-NET
 10
-174.334072
 20
-215.252255
 30
850.0
 70
    64
  0
VERTEX
  5
5F0
  8
TEAM-NET
 10
-175.0
 20
-200.0
 30
850.0
 70
    64
  0
VERTEX
  5
5F1
  8
TEAM-NET
 10
-174.334072
 20
-184.747745
 30
850.0
 70
    64
  0
VERTEX
  5
5F2
  8
TEAM-NET
 10
-172.341357
 20
-169.611569
 30
850.0
 70
    64
  0
VERTEX
  5
5F3
  8
TEAM-NET
 10
-169.03702
 20
-154.706667
 30
850.0
 70
    64
  0
VERTEX
  5
5F4
  8
TEAM-NET
 10
-164.446209
 20
-140.146475
 30
850.0
 70
    64
  0
VERTEX
  5
5F5
  8
TEAM-NET
 10
-158.603863
 20
-126.041804
 30
850.0
 70
    64
  0
VERTEX
  5
5F6
  8
TEAM-NET
 10
-151.554446
 20
-112.5
 30
850.0
 70
    64
  0
VERTEX
  5
5F7
  8
TEAM-NET
 10
-143.351608
 20
-99.624124
 30
850.0
 70
    64
  0
VERTEX
  5
5F8
  8
TEAM-NET
 10
-134.057778
 20
-87.512168
 30
850.0
 70
    64
  0
VERTEX
  5
5F9
  8
TEAM-NET
 10
-123.743687
 20
-76.256313
 30
850.0
 70
    64
  0
VERTEX
  5
5FA
  8
TEAM-NET
 10
-112.487832
 20
-65.942222
 30
850.0
 70
    64
  0
VERTEX
  5
5FB
  8
TEAM-NET
 10
-100.375876
 20
-56.648392
 30
850.0
 70
    64
  0
VERTEX
  5
5FC
  8
TEAM-NET
 10
-87.5
 20
-48.445554
 30
850.0
 70
    64
  0
VERTEX
  5
5FD
  8
TEAM-NET
 10
-73.958196
 20
-41.396137
 30
850.0
 70
    64
  0
VERTEX
  5
5FE
  8
TEAM-NET
 10
-59.853525
 20
-35.553791
 30
850.0
 70
    64
  0
VERTEX
  5
5FF
  8
TEAM-NET
 10
-45.293333
 20
-30.96298
 30
850.0
 70
    64
  0
VERTEX
  5
600
  8
TEAM-NET
 10
-30.388431
 20
-27.658643
 30
850.0
 70
    64
  0
VERTEX
  5
601
  8
TEAM-NET
 10
-15.252255
 20
-25.665928
 30
850.0
 70
    64
  0
VERTEX
  5
602
  8
TEAM-NET
 10
0.0
 20
-25.0
 30
850.0
 70
    64
  0
VERTEX
  5
603
  8
TEAM-NET
 10
0.0
 20
-400.0
 30
850.0
 70
    64
  0
VERTEX
  5
604
  8
TEAM-NET
 10
-17.431149
 20
-399.23894
 30
850.0
 70
    64
  0
VERTEX
  5
605
  8
TEAM-NET
 10
-34.729636
 20
-396.961551
 30
850.0
 70
    64
  0
VERTEX
  5
606
  8
TEAM-NET
 10
-51.763809
 20
-393.185165
 30
850.0
 70
    64
  0
VERTEX
  5
607
  8
TEAM-NET
 10
-68.404029
 20
-387.938524
 30
850.0
 70
    64
  0
VERTEX
  5
608
  8
TEAM-NET
 10
-84.523652
 20
-381.261557
 30
850.0
 70
    64
  0
VERTEX
  5
609
  8
TEAM-NET
 10
-100.0
 20
-373.205081
 30
850.0
 70
    64
  0
VERTEX
  5
60A
  8
TEAM-NET
 10
-114.715287
 20
-363.830409
 30
850.0
 70
    64
  0
VERTEX
  5
60B
  8
TEAM-NET
 10
-128.557522
 20
-353.208889
 30
850.0
 70
    64
  0
VERTEX
  5
60C
  8
TEAM-NET
 10
-141.421356
 20
-341.421356
 30
850.0
 70
    64
  0
VERTEX
  5
60D
  8
TEAM-NET
 10
-153.208889
 20
-328.557522
 30
850.0
 70
    64
  0
VERTEX
  5
60E
  8
TEAM-NET
 10
-163.830409
 20
-314.715287
 30
850.0
 70
    64
  0
VERTEX
  5
60F
  8
TEAM-NET
 10
-173.205081
 20
-300.0
 30
850.0
 70
    64
  0
VERTEX
  5
610
  8
TEAM-NET
 10
-181.261557
 20
-284.523652
 30
850.0
 70
    64
  0
VERTEX
  5
611
  8
TEAM-NET
 10
-187.938524
 20
-268.404029
 30
850.0
 70
    64
  0
VERTEX
  5
612
  8
TEAM-NET
 10
-193.185165
 20
-251.763809
 30
850.0
 70
    64
  0
VERTEX
  5
613
  8
TEAM-NET
 10
-196.961551
 20
-234.729636
 30
850.0
 70
    64
  0
VERTEX
  5
614
  8
TEAM-NET
 10
-199.23894
 20
-217.431149
 30
850.0
 70
    64
  0
VERTEX
  5
615
  8
TEAM-NET
 10
-200.0
 20
-200.0
 30
850.0
 70
    64
  0
VERTEX
  5
616
  8
TEAM-NET
 10
-199.23894
 20
-182.568851
 30
850.0
 70
    64
  0
VERTEX
  5
617
  8
TEAM-NET
 10
-196.961551
 20
-165.270364
 30
850.0
 70
    64
  0
VERTEX
  5
618
  8
TEAM-NET
 10
-193.185165
 20
-148.236191
 30
850.0
 70
    64
  0
VERTEX
  5
619
  8
TEAM-NET
 10
-187.938524
 20
-131.595971
 30
850.0
 70
    64
  0
VERTEX
  5
61A
  8
TEAM-NET
 10
-181.261557
 20
-115.476348
 30
850.0
 70
    64
  0
VERTEX
  5
61B
  8
TEAM-NET
 10
-173.205081
 20
-100.0
 30
850.0
 70
    64
  0
VERTEX
  5
61C
  8
TEAM-NET
 10
-163.830409
 20
-85.284713
 30
850.0
 70
    64
  0
VERTEX
  5
61D
  8
TEAM-NET
 10
-153.208889
 20
-71.442478
 30
850.0
 70
    64
  0
VERTEX
  5
61E
  8
TEAM-NET
 10
-141.421356
 20
-58.578644
 30
850.0
 70
    64
  0
VERTEX
  5
61F
  8
TEAM-NET
 10
-128.557522
 20
-46.791111
 30
850.0
 70
    64
  0
VERTEX
  5
620
  8
TEAM-NET
 10
-114.715287
 20
-36.169591
 30
850.0
 70
    64
  0
VERTEX
  5
621
  8
TEAM-NET
 10
-100.0
 20
-26.794919
 30
850.0
 70
    64
  0
VERTEX
  5
622
  8
TEAM-NET
 10
-84.523652
 20
-18.738443
 30
850.0
 70
    64
  0
VERTEX
  5
623
  8
TEAM-NET
 10
-68.404029
 20
-12.061476
 30
850.0
 70
    64
  0
VERTEX
  5
624
  8
TEAM-NET
 10
-51.763809
 20
-6.814835
 30
850.0
 70
    64
  0
VERTEX
  5
625
  8
TEAM-NET
 10
-34.729636
 20
-3.038449
 30
850.0
 70
    64
  0
VERTEX
  5
626
  8
TEAM-NET
 10
-17.431149
 20
-0.76106
 30
850.0
 70
    64
  0
VERTEX
  5
627
  8
TEAM-NET
 10
0.0
 20
0.0
 30
850.0
 70
    64
  0
SEQEND
  5
628
  8
TEAM-NET
  0
ENDSEC
  0
EOF
